ISO-10303-21;
HEADER;
FILE_DESCRIPTION (( 'STEP AP203' ),
    '1' );
FILE_NAME ('6dad.STEP',
    '2022-07-08T14:22:03',
    ( '' ),
    ( '' ),
    'SwSTEP 2.0',
    'SolidWorks 2019',
    '' );
FILE_SCHEMA (( 'CONFIG_CONTROL_DESIGN' ));
ENDSEC;

DATA;
#1 = CYLINDRICAL_SURFACE ( 'NONE', #337, 7.000000000000000888 ) ;
#2 = CYLINDRICAL_SURFACE ( 'NONE', #329, 5.000000000000000000 ) ;
#3 = DIRECTION ( 'NONE',  ( 1.000000000000000000, 0.000000000000000000, -0.000000000000000000 ) ) ;
#4 = AXIS2_PLACEMENT_3D ( 'NONE', #157, #278, #20 ) ;
#5 = DIRECTION ( 'NONE',  ( -0.000000000000000000, -0.000000000000000000, -1.000000000000000000 ) ) ;
#6 = FACE_OUTER_BOUND ( 'NONE', #176, .T. ) ;
#7 = EDGE_CURVE ( 'NONE', #242, #217, #149, .T. ) ;
#8 = CARTESIAN_POINT ( 'NONE',  ( 7.000000000000000888, 8.572527594031474176E-16, 607.0000000000000000 ) ) ;
#9 = ORIENTED_EDGE ( 'NONE', *, *, #259, .T. ) ;
#10 = APPLICATION_PROTOCOL_DEFINITION ( 'international standard', 'config_control_design', 1994, #296 ) ;
#11 = ORIENTED_EDGE ( 'NONE', *, *, #164, .T. ) ;
#12 = APPROVAL_PERSON_ORGANIZATION ( #369, #257, #82 ) ;
#13 =( NAMED_UNIT ( * ) PLANE_ANGLE_UNIT ( ) SI_UNIT ( $, .RADIAN. ) );
#14 = VERTEX_POINT ( 'NONE', #83 ) ;
#15 = PRODUCT_RELATED_PRODUCT_CATEGORY ( 'detail', '', ( #361 ) ) ;
#16 = ORIENTED_EDGE ( 'NONE', *, *, #7, .F. ) ;
#17 = AXIS2_PLACEMENT_3D ( 'NONE', #60, #34, #229 ) ;
#18 = COORDINATED_UNIVERSAL_TIME_OFFSET ( 1, 0, .AHEAD. ) ;
#19 = DIRECTION ( 'NONE',  ( 1.000000000000000000, 0.000000000000000000, -0.000000000000000000 ) ) ;
#20 = DIRECTION ( 'NONE',  ( 1.000000000000000000, 0.000000000000000000, 0.000000000000000000 ) ) ;
#21 = DATE_AND_TIME ( #158, #377 ) ;
#22 = DIRECTION ( 'NONE',  ( 1.000000000000000000, 0.000000000000000000, 0.000000000000000000 ) ) ;
#23 = ADVANCED_FACE ( 'NONE', ( #85 ), #116, .F. ) ;
#24 = AXIS2_PLACEMENT_3D ( 'NONE', #209, #238, #100 ) ;
#25 = VECTOR ( 'NONE', #106, 1000.000000000000000 ) ;
#26 = CALENDAR_DATE ( 2022, 8, 7 ) ;
#27 = PLANE ( 'NONE',  #248 ) ;
#28 = ORIENTED_EDGE ( 'NONE', *, *, #335, .F. ) ;
#29 = DIRECTION ( 'NONE',  ( 0.000000000000000000, 0.000000000000000000, 1.000000000000000000 ) ) ;
#30 = LINE ( 'NONE', #138, #234 ) ;
#31 = DIRECTION ( 'NONE',  ( -0.000000000000000000, -0.000000000000000000, -1.000000000000000000 ) ) ;
#32 = AXIS2_PLACEMENT_3D ( 'NONE', #148, #45, #270 ) ;
#33 = DIRECTION ( 'NONE',  ( 1.000000000000000000, 0.000000000000000000, 0.000000000000000000 ) ) ;
#34 = DIRECTION ( 'NONE',  ( -0.000000000000000000, -0.000000000000000000, -1.000000000000000000 ) ) ;
#35 = CYLINDRICAL_SURFACE ( 'NONE', #65, 7.000000000000000888 ) ;
#36 = VERTEX_POINT ( 'NONE', #58 ) ;
#37 = APPROVAL_PERSON_ORGANIZATION ( #249, #189, #221 ) ;
#38 = APPLICATION_CONTEXT ( 'configuration controlled 3d designs of mechanical parts and assemblies' ) ;
#39 = VERTEX_POINT ( 'NONE', #191 ) ;
#40 = AXIS2_PLACEMENT_3D ( 'NONE', #162, #340, #379 ) ;
#41 = DIRECTION ( 'NONE',  ( 1.000000000000000000, 0.000000000000000000, 0.000000000000000000 ) ) ;
#42 = ORIENTED_EDGE ( 'NONE', *, *, #368, .T. ) ;
#43 = CC_DESIGN_APPROVAL ( #257, ( #59 ) ) ;
#44 = EDGE_CURVE ( 'NONE', #182, #280, #359, .T. ) ;
#45 = DIRECTION ( 'NONE',  ( 0.000000000000000000, 0.000000000000000000, 1.000000000000000000 ) ) ;
#46 = CARTESIAN_POINT ( 'NONE',  ( 7.000000000000000888, 8.572527594031474176E-16, 607.0000000000000000 ) ) ;
#47 = CIRCLE ( 'NONE', #171, 11.00000000000000000 ) ;
#48 = EDGE_CURVE ( 'NONE', #36, #14, #199, .T. ) ;
#49 = ORIENTED_EDGE ( 'NONE', *, *, #223, .T. ) ;
#50 = APPROVAL_PERSON_ORGANIZATION ( #186, #196, #160 ) ;
#51 = DATE_AND_TIME ( #108, #99 ) ;
#52 = EDGE_LOOP ( 'NONE', ( #135, #378, #268, #233 ) ) ;
#53 = PERSON_AND_ORGANIZATION_ROLE ( 'design_owner' ) ;
#54 = FACE_OUTER_BOUND ( 'NONE', #252, .T. ) ;
#55 = VECTOR ( 'NONE', #253, 1000.000000000000000 ) ;
#56 = EDGE_CURVE ( 'NONE', #217, #242, #137, .T. ) ;
#57 = CIRCLE ( 'NONE', #350, 11.00000000000000000 ) ;
#58 = CARTESIAN_POINT ( 'NONE',  ( -7.000000000000000888, 0.000000000000000000, 7.700000000000040146 ) ) ;
#59 = PRODUCT_DEFINITION_FORMATION_WITH_SPECIFIED_SOURCE ( 'LIBOVOLNÝ', '', #361, .NOT_KNOWN. ) ;
#60 = CARTESIAN_POINT ( 'NONE',  ( 0.000000000000000000, 0.000000000000000000, 7.000000000000000000 ) ) ;
#61 = CARTESIAN_POINT ( 'NONE',  ( 11.00000000000000000, 1.347111479062088405E-15, 7.000000000000000000 ) ) ;
#62 = AXIS2_PLACEMENT_3D ( 'NONE', #347, #29, #136 ) ;
#63 = DIRECTION ( 'NONE',  ( 0.000000000000000000, 0.000000000000000000, 1.000000000000000000 ) ) ;
#64 = DIRECTION ( 'NONE',  ( 1.000000000000000000, 0.000000000000000000, 0.000000000000000000 ) ) ;
#65 = AXIS2_PLACEMENT_3D ( 'NONE', #235, #144, #331 ) ;
#66 = FACE_OUTER_BOUND ( 'NONE', #188, .T. ) ;
#67 = CIRCLE ( 'NONE', #358, 0.7000000000000000666 ) ;
#68 = DIRECTION ( 'NONE',  ( -0.000000000000000000, -0.000000000000000000, -1.000000000000000000 ) ) ;
#69 = ORIENTED_EDGE ( 'NONE', *, *, #328, .T. ) ;
#70 = ORIENTED_EDGE ( 'NONE', *, *, #223, .F. ) ;
#71 = MANIFOLD_SOLID_BREP ( 'Odebrat vysunutím3', #128 ) ;
#72 = CARTESIAN_POINT ( 'NONE',  ( 0.000000000000000000, 0.000000000000000000, 0.000000000000000000 ) ) ;
#73 = CARTESIAN_POINT ( 'NONE',  ( 7.700000000000001066, 0.000000000000000000, 7.000000000000020428 ) ) ;
#74 = ORIENTED_EDGE ( 'NONE', *, *, #263, .F. ) ;
#75 = PERSON ( 'NEURÈENÝ', 'NEURÈENÝ', 'NEURÈENÝ', ('NEURÈENÝ'), ('NEURÈENÝ'), ('NEURÈENÝ') ) ;
#76 = CALENDAR_DATE ( 2022, 8, 7 ) ;
#77 = VERTEX_POINT ( 'NONE', #46 ) ;
#78 = AXIS2_PLACEMENT_3D ( 'NONE', #92, #345, #86 ) ;
#79 = PERSON_AND_ORGANIZATION ( #75, #163 ) ;
#80 = ORIENTED_EDGE ( 'NONE', *, *, #7, .T. ) ;
#81 = AXIS2_PLACEMENT_3D ( 'NONE', #293, #299, #41 ) ;
#82 = APPROVAL_ROLE ( '' ) ;
#83 = CARTESIAN_POINT ( 'NONE',  ( 7.000000000000000888, 8.572527594031474176E-16, 7.700000000000040146 ) ) ;
#84 = DATE_AND_TIME ( #76, #194 ) ;
#85 = FACE_OUTER_BOUND ( 'NONE', #344, .T. ) ;
#86 = DIRECTION ( 'NONE',  ( 1.000000000000000000, 0.000000000000000000, 0.000000000000000000 ) ) ;
#87 = ADVANCED_FACE ( 'NONE', ( #243, #54 ), #27, .T. ) ;
#88 = DIRECTION ( 'NONE',  ( 0.000000000000000000, 0.000000000000000000, 1.000000000000000000 ) ) ;
#89 = DIRECTION ( 'NONE',  ( -0.000000000000000000, -0.000000000000000000, -1.000000000000000000 ) ) ;
#90 = CARTESIAN_POINT ( 'NONE',  ( 0.000000000000000000, 0.000000000000000000, 7.000000000000000000 ) ) ;
#91 = EDGE_CURVE ( 'NONE', #242, #264, #129, .T. ) ;
#92 = CARTESIAN_POINT ( 'NONE',  ( 0.000000000000000000, 0.000000000000000000, 7.700000000000040146 ) ) ;
#93 = LOCAL_TIME ( 16, 22, 3.000000000000000000, #101 ) ;
#94 = LINE ( 'NONE', #8, #285 ) ;
#95 = AXIS2_PLACEMENT_3D ( 'NONE', #195, #117, #289 ) ;
#96 = CYLINDRICAL_SURFACE ( 'NONE', #24, 11.00000000000000000 ) ;
#97 = ORIENTED_EDGE ( 'NONE', *, *, #181, .T. ) ;
#98 = DIRECTION ( 'NONE',  ( -1.000000000000000000, 0.000000000000000000, 0.000000000000000000 ) ) ;
#99 = LOCAL_TIME ( 16, 22, 3.000000000000000000, #215 ) ;
#100 = DIRECTION ( 'NONE',  ( -1.000000000000000000, 0.000000000000000000, 0.000000000000000000 ) ) ;
#101 = COORDINATED_UNIVERSAL_TIME_OFFSET ( 1, 0, .AHEAD. ) ;
#102 = EDGE_LOOP ( 'NONE', ( #371, #367 ) ) ;
#103 = ADVANCED_FACE ( 'NONE', ( #336 ), #330, .F. ) ;
#104 = CC_DESIGN_APPROVAL ( #189, ( #251 ) ) ;
#105 = APPROVAL_STATUS ( 'not_yet_approved' ) ;
#106 = DIRECTION ( 'NONE',  ( 0.000000000000000000, 0.000000000000000000, -1.000000000000000000 ) ) ;
#107 = CARTESIAN_POINT ( 'NONE',  ( 0.000000000000000000, 0.000000000000000000, 7.700000000000040146 ) ) ;
#108 = CALENDAR_DATE ( 2022, 8, 7 ) ;
#109 = DIRECTION ( 'NONE',  ( 1.000000000000000000, 0.000000000000000000, 0.000000000000000000 ) ) ;
#110 = PERSON_AND_ORGANIZATION ( #75, #163 ) ;
#111 = CARTESIAN_POINT ( 'NONE',  ( -7.000000000000000888, 0.000000000000000000, 607.0000000000000000 ) ) ;
#112 = CARTESIAN_POINT ( 'NONE',  ( 5.000000000000000000, 6.123233995736766282E-16, 0.000000000000000000 ) ) ;
#113 = ADVANCED_FACE ( 'NONE', ( #304 ), #2, .F. ) ;
#114 = DIRECTION ( 'NONE',  ( -0.000000000000000000, -0.000000000000000000, -1.000000000000000000 ) ) ;
#115 = DIRECTION ( 'NONE',  ( 0.000000000000000000, 0.000000000000000000, -1.000000000000000000 ) ) ;
#116 = TOROIDAL_SURFACE ( 'NONE', #353, 7.700000000000001066, 0.6999999999999999556 ) ;
#117 = DIRECTION ( 'NONE',  ( -0.000000000000000000, -0.000000000000000000, -1.000000000000000000 ) ) ;
#118 = DIRECTION ( 'NONE',  ( -0.000000000000000000, -0.000000000000000000, -1.000000000000000000 ) ) ;
#119 = AXIS2_PLACEMENT_3D ( 'NONE', #72, #68, #174 ) ;
#120 = EDGE_CURVE ( 'NONE', #280, #182, #57, .T. ) ;
#121 = EDGE_LOOP ( 'NONE', ( #297, #49 ) ) ;
#122 = AXIS2_PLACEMENT_3D ( 'NONE', #312, #169, #33 ) ;
#123 = CARTESIAN_POINT ( 'NONE',  ( 5.000000000000000000, 6.123233995736766282E-16, 607.0000000000000000 ) ) ;
#124 = ORIENTED_EDGE ( 'NONE', *, *, #311, .T. ) ;
#125 = DIRECTION ( 'NONE',  ( 0.000000000000000000, 0.000000000000000000, -1.000000000000000000 ) ) ;
#126 = ORIENTED_EDGE ( 'NONE', *, *, #48, .T. ) ;
#127 = ORIENTED_EDGE ( 'NONE', *, *, #281, .F. ) ;
#128 = CLOSED_SHELL ( 'NONE', ( #113, #23, #338, #179, #320, #87, #146, #244, #212, #103, #348 ) ) ;
#129 = LINE ( 'NONE', #213, #25 ) ;
#130 = VERTEX_POINT ( 'NONE', #260 ) ;
#131 = APPROVAL_STATUS ( 'not_yet_approved' ) ;
#132 = DIRECTION ( 'NONE',  ( 0.000000000000000000, 0.000000000000000000, 1.000000000000000000 ) ) ;
#133 = DATE_TIME_ROLE ( 'classification_date' ) ;
#134 = ORIENTED_EDGE ( 'NONE', *, *, #91, .F. ) ;
#135 = ORIENTED_EDGE ( 'NONE', *, *, #219, .F. ) ;
#136 = DIRECTION ( 'NONE',  ( 1.000000000000000000, 0.000000000000000000, 0.000000000000000000 ) ) ;
#137 = CIRCLE ( 'NONE', #185, 5.000000000000000000 ) ;
#138 = CARTESIAN_POINT ( 'NONE',  ( -7.000000000000000888, 0.000000000000000000, 607.0000000000000000 ) ) ;
#139 = EDGE_CURVE ( 'NONE', #130, #182, #165, .T. ) ;
#140 = CARTESIAN_POINT ( 'NONE',  ( 0.000000000000000000, 0.000000000000000000, 607.0000000000000000 ) ) ;
#141 = LINE ( 'NONE', #197, #246 ) ;
#142 = CIRCLE ( 'NONE', #62, 7.000000000000000888 ) ;
#143 = CARTESIAN_POINT ( 'NONE',  ( 11.00000000000000000, 1.347111479062088405E-15, 0.000000000000000000 ) ) ;
#144 = DIRECTION ( 'NONE',  ( -0.000000000000000000, -0.000000000000000000, -1.000000000000000000 ) ) ;
#145 = CYLINDRICAL_SURFACE ( 'NONE', #269, 5.000000000000000000 ) ;
#146 = ADVANCED_FACE ( 'NONE', ( #166, #201 ), #228, .F. ) ;
#147 = ORIENTED_EDGE ( 'NONE', *, *, #368, .F. ) ;
#148 = CARTESIAN_POINT ( 'NONE',  ( 0.000000000000000000, 0.000000000000000000, 607.0000000000000000 ) ) ;
#149 = CIRCLE ( 'NONE', #373, 5.000000000000000000 ) ;
#150 = EDGE_LOOP ( 'NONE', ( #16, #302 ) ) ;
#151 = CARTESIAN_POINT ( 'NONE',  ( 7.700000000000001066, 0.000000000000000000, 7.700000000000040146 ) ) ;
#152 = ORIENTED_EDGE ( 'NONE', *, *, #48, .F. ) ;
#153 = SHAPE_DEFINITION_REPRESENTATION ( #256, #346 ) ;
#154 = AXIS2_PLACEMENT_3D ( 'NONE', #226, #88, #3 ) ;
#155 = CARTESIAN_POINT ( 'NONE',  ( 0.000000000000000000, 0.000000000000000000, 7.000000000000000000 ) ) ;
#156 = DESIGN_CONTEXT ( 'detailed design', #38, 'design' ) ;
#157 = CARTESIAN_POINT ( 'NONE',  ( 0.000000000000000000, 0.000000000000000000, 7.700000000000040146 ) ) ;
#158 = CALENDAR_DATE ( 2022, 8, 7 ) ;
#159 = EDGE_LOOP ( 'NONE', ( #332, #334, #9, #300 ) ) ;
#160 = APPROVAL_ROLE ( '' ) ;
#161 = ORIENTED_EDGE ( 'NONE', *, *, #139, .F. ) ;
#162 = CARTESIAN_POINT ( 'NONE',  ( 0.000000000000000000, 0.000000000000000000, 7.700000000000040146 ) ) ;
#163 = ORGANIZATION ( 'NEURÈENÝ', 'NEURÈENÝ', '' ) ;
#164 = EDGE_CURVE ( 'NONE', #325, #280, #141, .T. ) ;
#165 = LINE ( 'NONE', #61, #55 ) ;
#166 = FACE_BOUND ( 'NONE', #178, .T. ) ;
#167 = FACE_OUTER_BOUND ( 'NONE', #52, .T. ) ;
#168 = CC_DESIGN_APPROVAL ( #196, ( #231 ) ) ;
#169 = DIRECTION ( 'NONE',  ( 0.000000000000000000, 0.000000000000000000, 1.000000000000000000 ) ) ;
#170 = DIRECTION ( 'NONE',  ( 0.000000000000000000, 0.000000000000000000, 1.000000000000000000 ) ) ;
#171 = AXIS2_PLACEMENT_3D ( 'NONE', #90, #290, #64 ) ;
#172 = EDGE_LOOP ( 'NONE', ( #28, #271, #180, #42 ) ) ;
#173 = CC_DESIGN_PERSON_AND_ORGANIZATION_ASSIGNMENT ( #190, #183, ( #59 ) ) ;
#174 = DIRECTION ( 'NONE',  ( 1.000000000000000000, 0.000000000000000000, 0.000000000000000000 ) ) ;
#175 = LOCAL_TIME ( 16, 22, 3.000000000000000000, #218 ) ;
#176 = EDGE_LOOP ( 'NONE', ( #161, #222, #11, #327 ) ) ;
#177 = DIRECTION ( 'NONE',  ( 1.000000000000000000, 0.000000000000000000, 0.000000000000000000 ) ) ;
#178 = EDGE_LOOP ( 'NONE', ( #147, #364 ) ) ;
#179 = ADVANCED_FACE ( 'NONE', ( #167 ), #351, .T. ) ;
#180 = ORIENTED_EDGE ( 'NONE', *, *, #91, .T. ) ;
#181 = EDGE_CURVE ( 'NONE', #325, #130, #47, .T. ) ;
#182 = VERTEX_POINT ( 'NONE', #143 ) ;
#183 = PERSON_AND_ORGANIZATION_ROLE ( 'design_supplier' ) ;
#184 = EDGE_LOOP ( 'NONE', ( #357, #74, #272, #126 ) ) ;
#185 = AXIS2_PLACEMENT_3D ( 'NONE', #220, #370, #210 ) ;
#186 = PERSON_AND_ORGANIZATION ( #75, #163 ) ;
#187 = CC_DESIGN_DATE_AND_TIME_ASSIGNMENT ( #339, #133, ( #251 ) ) ;
#188 = EDGE_LOOP ( 'NONE', ( #323, #69 ) ) ;
#189 = APPROVAL ( #105, 'NEURÈENÝ' ) ;
#190 = PERSON_AND_ORGANIZATION ( #75, #163 ) ;
#191 = CARTESIAN_POINT ( 'NONE',  ( -7.700000000000001066, 9.429780353434621002E-16, 7.000000000000020428 ) ) ;
#192 = APPROVAL_DATE_TIME ( #84, #189 ) ;
#193 = DIRECTION ( 'NONE',  ( 1.000000000000000000, 0.000000000000000000, 0.000000000000000000 ) ) ;
#194 = LOCAL_TIME ( 16, 22, 3.000000000000000000, #18 ) ;
#195 = CARTESIAN_POINT ( 'NONE',  ( 0.000000000000000000, 0.000000000000000000, 7.000000000000000000 ) ) ;
#196 = APPROVAL ( #241, 'NEURÈENÝ' ) ;
#197 = CARTESIAN_POINT ( 'NONE',  ( -11.00000000000000000, 0.000000000000000000, 7.000000000000000000 ) ) ;
#198 = CIRCLE ( 'NONE', #298, 5.000000000000000000 ) ;
#199 = CIRCLE ( 'NONE', #40, 7.000000000000000888 ) ;
#200 = DIRECTION ( 'NONE',  ( 1.000000000000000000, 0.000000000000000000, -0.000000000000000000 ) ) ;
#201 = FACE_OUTER_BOUND ( 'NONE', #102, .T. ) ;
#202 =( LENGTH_UNIT ( ) NAMED_UNIT ( * ) SI_UNIT ( .MILLI., .METRE. ) );
#203 = FACE_OUTER_BOUND ( 'NONE', #159, .T. ) ;
#204 = ORIENTED_EDGE ( 'NONE', *, *, #291, .F. ) ;
#205 = VECTOR ( 'NONE', #360, 1000.000000000000000 ) ;
#206 = EDGE_LOOP ( 'NONE', ( #310, #306, #247, #70 ) ) ;
#207 = CARTESIAN_POINT ( 'NONE',  ( -7.700000000000001066, 9.429780353434621002E-16, 7.700000000000040146 ) ) ;
#208 = CC_DESIGN_PERSON_AND_ORGANIZATION_ASSIGNMENT ( #282, #376, ( #231 ) ) ;
#209 = CARTESIAN_POINT ( 'NONE',  ( 0.000000000000000000, 0.000000000000000000, 7.000000000000000000 ) ) ;
#210 = DIRECTION ( 'NONE',  ( 1.000000000000000000, 0.000000000000000000, 0.000000000000000000 ) ) ;
#211 = CIRCLE ( 'NONE', #119, 5.000000000000000000 ) ;
#212 = ADVANCED_FACE ( 'NONE', ( #315, #66 ), #316, .T. ) ;
#213 = CARTESIAN_POINT ( 'NONE',  ( -5.000000000000000000, 0.000000000000000000, 607.0000000000000000 ) ) ;
#214 = EDGE_CURVE ( 'NONE', #236, #36, #30, .T. ) ;
#215 = COORDINATED_UNIVERSAL_TIME_OFFSET ( 1, 0, .AHEAD. ) ;
#216 = CIRCLE ( 'NONE', #122, 11.00000000000000000 ) ;
#217 = VERTEX_POINT ( 'NONE', #318 ) ;
#218 = COORDINATED_UNIVERSAL_TIME_OFFSET ( 1, 0, .AHEAD. ) ;
#219 = EDGE_CURVE ( 'NONE', #130, #325, #216, .T. ) ;
#220 = CARTESIAN_POINT ( 'NONE',  ( 0.000000000000000000, 0.000000000000000000, 607.0000000000000000 ) ) ;
#221 = APPROVAL_ROLE ( '' ) ;
#222 = ORIENTED_EDGE ( 'NONE', *, *, #181, .F. ) ;
#223 = EDGE_CURVE ( 'NONE', #39, #284, #309, .T. ) ;
#224 = DIRECTION ( 'NONE',  ( -1.000000000000000000, 0.000000000000000000, 0.000000000000000000 ) ) ;
#225 = CIRCLE ( 'NONE', #380, 7.700000000000001066 ) ;
#226 = CARTESIAN_POINT ( 'NONE',  ( 0.000000000000000000, 0.000000000000000000, 0.000000000000000000 ) ) ;
#227 = DIRECTION ( 'NONE',  ( -1.000000000000000000, 0.000000000000000000, 0.000000000000000000 ) ) ;
#228 = PLANE ( 'NONE',  #154 ) ;
#229 = DIRECTION ( 'NONE',  ( 1.000000000000000000, 0.000000000000000000, 0.000000000000000000 ) ) ;
#230 = CARTESIAN_POINT ( 'NONE',  ( 0.000000000000000000, 0.000000000000000000, 0.000000000000000000 ) ) ;
#231 = PRODUCT_DEFINITION ( 'NEZNÁMÝ', '', #59, #156 ) ;
#232 = CARTESIAN_POINT ( 'NONE',  ( -11.00000000000000000, 0.000000000000000000, 7.000000000000000000 ) ) ;
#233 = ORIENTED_EDGE ( 'NONE', *, *, #164, .F. ) ;
#234 = VECTOR ( 'NONE', #31, 1000.000000000000000 ) ;
#235 = CARTESIAN_POINT ( 'NONE',  ( 0.000000000000000000, 0.000000000000000000, 607.0000000000000000 ) ) ;
#236 = VERTEX_POINT ( 'NONE', #111 ) ;
#237 = MECHANICAL_CONTEXT ( 'NONE', #296, 'mechanical' ) ;
#238 = DIRECTION ( 'NONE',  ( -0.000000000000000000, -0.000000000000000000, -1.000000000000000000 ) ) ;
#239 = ORIENTED_EDGE ( 'NONE', *, *, #335, .T. ) ;
#240 = UNCERTAINTY_MEASURE_WITH_UNIT (LENGTH_MEASURE( 1.000000000000000082E-05 ), #202, 'distance_accuracy_value', 'NONE');
#241 = APPROVAL_STATUS ( 'not_yet_approved' ) ;
#242 = VERTEX_POINT ( 'NONE', #354 ) ;
#243 = FACE_BOUND ( 'NONE', #121, .T. ) ;
#244 = ADVANCED_FACE ( 'NONE', ( #286 ), #1, .T. ) ;
#245 = PERSON_AND_ORGANIZATION_ROLE ( 'creator' ) ;
#246 = VECTOR ( 'NONE', #89, 1000.000000000000000 ) ;
#247 = ORIENTED_EDGE ( 'NONE', *, *, #291, .T. ) ;
#248 = AXIS2_PLACEMENT_3D ( 'NONE', #155, #276, #19 ) ;
#249 = PERSON_AND_ORGANIZATION ( #75, #163 ) ;
#250 = DIRECTION ( 'NONE',  ( 0.000000000000000000, 0.000000000000000000, 1.000000000000000000 ) ) ;
#251 = SECURITY_CLASSIFICATION ( '', '', #374 ) ;
#252 = EDGE_LOOP ( 'NONE', ( #97, #342 ) ) ;
#253 = DIRECTION ( 'NONE',  ( -0.000000000000000000, -0.000000000000000000, -1.000000000000000000 ) ) ;
#254 = CIRCLE ( 'NONE', #78, 7.000000000000000888 ) ;
#255 = CARTESIAN_POINT ( 'NONE',  ( 0.000000000000000000, 0.000000000000000000, 7.000000000000000000 ) ) ;
#256 = PRODUCT_DEFINITION_SHAPE ( 'NONE', 'NONE',  #231 ) ;
#257 = APPROVAL ( #131, 'NEURÈENÝ' ) ;
#258 = DIRECTION ( 'NONE',  ( 1.000000000000000000, 0.000000000000000000, 0.000000000000000000 ) ) ;
#259 = EDGE_CURVE ( 'NONE', #14, #36, #254, .T. ) ;
#260 = CARTESIAN_POINT ( 'NONE',  ( 11.00000000000000000, 1.347111479062088405E-15, 7.000000000000000000 ) ) ;
#261 = AXIS2_PLACEMENT_3D ( 'NONE', #292, #170, #200 ) ;
#262 = CARTESIAN_POINT ( 'NONE',  ( 0.000000000000000000, 0.000000000000000000, 607.0000000000000000 ) ) ;
#263 = EDGE_CURVE ( 'NONE', #236, #77, #142, .T. ) ;
#264 = VERTEX_POINT ( 'NONE', #381 ) ;
#265 = DIRECTION ( 'NONE',  ( -0.000000000000000000, -0.000000000000000000, -1.000000000000000000 ) ) ;
#266 = VERTEX_POINT ( 'NONE', #112 ) ;
#267 = DIRECTION ( 'NONE',  ( 1.000000000000000000, 0.000000000000000000, 0.000000000000000000 ) ) ;
#268 = ORIENTED_EDGE ( 'NONE', *, *, #44, .T. ) ;
#269 = AXIS2_PLACEMENT_3D ( 'NONE', #362, #363, #98 ) ;
#270 = DIRECTION ( 'NONE',  ( 1.000000000000000000, 0.000000000000000000, 0.000000000000000000 ) ) ;
#271 = ORIENTED_EDGE ( 'NONE', *, *, #56, .T. ) ;
#272 = ORIENTED_EDGE ( 'NONE', *, *, #214, .T. ) ;
#273 = AXIS2_PLACEMENT_3D ( 'NONE', #207, #326, #356 ) ;
#274 = APPROVAL_DATE_TIME ( #21, #196 ) ;
#275 = CC_DESIGN_PERSON_AND_ORGANIZATION_ASSIGNMENT ( #110, #245, ( #59 ) ) ;
#276 = DIRECTION ( 'NONE',  ( 0.000000000000000000, 0.000000000000000000, 1.000000000000000000 ) ) ;
#277 = PERSON_AND_ORGANIZATION ( #75, #163 ) ;
#278 = DIRECTION ( 'NONE',  ( 0.000000000000000000, 0.000000000000000000, 1.000000000000000000 ) ) ;
#279 = APPROVAL_DATE_TIME ( #341, #257 ) ;
#280 = VERTEX_POINT ( 'NONE', #287 ) ;
#281 = EDGE_CURVE ( 'NONE', #284, #39, #225, .T. ) ;
#282 = PERSON_AND_ORGANIZATION ( #75, #163 ) ;
#283 = DIRECTION ( 'NONE',  ( 0.000000000000000000, 0.000000000000000000, 1.000000000000000000 ) ) ;
#284 = VERTEX_POINT ( 'NONE', #73 ) ;
#285 = VECTOR ( 'NONE', #5, 1000.000000000000000 ) ;
#286 = FACE_OUTER_BOUND ( 'NONE', #184, .T. ) ;
#287 = CARTESIAN_POINT ( 'NONE',  ( -11.00000000000000000, 0.000000000000000000, 0.000000000000000000 ) ) ;
#288 = CC_DESIGN_PERSON_AND_ORGANIZATION_ASSIGNMENT ( #277, #307, ( #251 ) ) ;
#289 = DIRECTION ( 'NONE',  ( -1.000000000000000000, 0.000000000000000000, 0.000000000000000000 ) ) ;
#290 = DIRECTION ( 'NONE',  ( 0.000000000000000000, 0.000000000000000000, 1.000000000000000000 ) ) ;
#291 = EDGE_CURVE ( 'NONE', #14, #284, #67, .T. ) ;
#292 = CARTESIAN_POINT ( 'NONE',  ( 0.000000000000000000, 0.000000000000000000, 607.0000000000000000 ) ) ;
#293 = CARTESIAN_POINT ( 'NONE',  ( 0.000000000000000000, 0.000000000000000000, 0.000000000000000000 ) ) ;
#294 = EDGE_LOOP ( 'NONE', ( #80, #239, #321, #134 ) ) ;
#295 = FACE_OUTER_BOUND ( 'NONE', #172, .T. ) ;
#296 = APPLICATION_CONTEXT ( 'configuration controlled 3d designs of mechanical parts and assemblies' ) ;
#297 = ORIENTED_EDGE ( 'NONE', *, *, #281, .T. ) ;
#298 = AXIS2_PLACEMENT_3D ( 'NONE', #230, #265, #177 ) ;
#299 = DIRECTION ( 'NONE',  ( 0.000000000000000000, 0.000000000000000000, 1.000000000000000000 ) ) ;
#300 = ORIENTED_EDGE ( 'NONE', *, *, #214, .F. ) ;
#301 = CC_DESIGN_PERSON_AND_ORGANIZATION_ASSIGNMENT ( #79, #53, ( #361 ) ) ;
#302 = ORIENTED_EDGE ( 'NONE', *, *, #56, .F. ) ;
#303 = APPLICATION_PROTOCOL_DEFINITION ( 'international standard', 'config_control_design', 1994, #38 ) ;
#304 = FACE_OUTER_BOUND ( 'NONE', #294, .T. ) ;
#305 = COORDINATED_UNIVERSAL_TIME_OFFSET ( 1, 0, .AHEAD. ) ;
#306 = ORIENTED_EDGE ( 'NONE', *, *, #259, .F. ) ;
#307 = PERSON_AND_ORGANIZATION_ROLE ( 'classification_officer' ) ;
#308 = CARTESIAN_POINT ( 'NONE',  ( 0.000000000000000000, 0.000000000000000000, 0.000000000000000000 ) ) ;
#309 = CIRCLE ( 'NONE', #17, 7.700000000000001066 ) ;
#310 = ORIENTED_EDGE ( 'NONE', *, *, #311, .F. ) ;
#311 = EDGE_CURVE ( 'NONE', #36, #39, #372, .T. ) ;
#312 = CARTESIAN_POINT ( 'NONE',  ( 0.000000000000000000, 0.000000000000000000, 7.000000000000000000 ) ) ;
#313 = CC_DESIGN_SECURITY_CLASSIFICATION ( #251, ( #59 ) ) ;
#314 = CC_DESIGN_DATE_AND_TIME_ASSIGNMENT ( #51, #343, ( #231 ) ) ;
#315 = FACE_BOUND ( 'NONE', #150, .T. ) ;
#316 = PLANE ( 'NONE',  #261 ) ;
#317 = EDGE_CURVE ( 'NONE', #266, #264, #198, .T. ) ;
#318 = CARTESIAN_POINT ( 'NONE',  ( 5.000000000000000000, 6.123233995736766282E-16, 607.0000000000000000 ) ) ;
#319 =( GEOMETRIC_REPRESENTATION_CONTEXT ( 3 ) GLOBAL_UNCERTAINTY_ASSIGNED_CONTEXT ( ( #240 ) ) GLOBAL_UNIT_ASSIGNED_CONTEXT ( ( #202, #13, #324 ) ) REPRESENTATION_CONTEXT ( 'NONE', 'WORKASPACE' ) );
#320 = ADVANCED_FACE ( 'NONE', ( #6 ), #96, .T. ) ;
#321 = ORIENTED_EDGE ( 'NONE', *, *, #317, .T. ) ;
#322 = LINE ( 'NONE', #123, #205 ) ;
#323 = ORIENTED_EDGE ( 'NONE', *, *, #263, .T. ) ;
#324 =( NAMED_UNIT ( * ) SI_UNIT ( $, .STERADIAN. ) SOLID_ANGLE_UNIT ( ) );
#325 = VERTEX_POINT ( 'NONE', #232 ) ;
#326 = DIRECTION ( 'NONE',  ( 1.224646799147353207E-16, 1.000000000000000000, -0.000000000000000000 ) ) ;
#327 = ORIENTED_EDGE ( 'NONE', *, *, #120, .T. ) ;
#328 = EDGE_CURVE ( 'NONE', #77, #236, #352, .T. ) ;
#329 = AXIS2_PLACEMENT_3D ( 'NONE', #140, #115, #227 ) ;
#330 = TOROIDAL_SURFACE ( 'NONE', #4, 7.700000000000001066, 0.6999999999999999556 ) ;
#331 = DIRECTION ( 'NONE',  ( -1.000000000000000000, 0.000000000000000000, 0.000000000000000000 ) ) ;
#332 = ORIENTED_EDGE ( 'NONE', *, *, #328, .F. ) ;
#333 = EDGE_CURVE ( 'NONE', #77, #14, #94, .T. ) ;
#334 = ORIENTED_EDGE ( 'NONE', *, *, #333, .T. ) ;
#335 = EDGE_CURVE ( 'NONE', #217, #266, #322, .T. ) ;
#336 = FACE_OUTER_BOUND ( 'NONE', #206, .T. ) ;
#337 = AXIS2_PLACEMENT_3D ( 'NONE', #262, #114, #224 ) ;
#338 = ADVANCED_FACE ( 'NONE', ( #203 ), #35, .T. ) ;
#339 = DATE_AND_TIME ( #26, #93 ) ;
#340 = DIRECTION ( 'NONE',  ( 0.000000000000000000, 0.000000000000000000, 1.000000000000000000 ) ) ;
#341 = DATE_AND_TIME ( #366, #175 ) ;
#342 = ORIENTED_EDGE ( 'NONE', *, *, #219, .T. ) ;
#343 = DATE_TIME_ROLE ( 'creation_date' ) ;
#344 = EDGE_LOOP ( 'NONE', ( #152, #124, #127, #204 ) ) ;
#345 = DIRECTION ( 'NONE',  ( 0.000000000000000000, 0.000000000000000000, 1.000000000000000000 ) ) ;
#346 = ADVANCED_BREP_SHAPE_REPRESENTATION ( '6dad', ( #71, #81 ), #319 ) ;
#347 = CARTESIAN_POINT ( 'NONE',  ( 0.000000000000000000, 0.000000000000000000, 607.0000000000000000 ) ) ;
#348 = ADVANCED_FACE ( 'NONE', ( #295 ), #145, .F. ) ;
#349 = CARTESIAN_POINT ( 'NONE',  ( 0.000000000000000000, 0.000000000000000000, 0.000000000000000000 ) ) ;
#350 = AXIS2_PLACEMENT_3D ( 'NONE', #349, #63, #258 ) ;
#351 = CYLINDRICAL_SURFACE ( 'NONE', #95, 11.00000000000000000 ) ;
#352 = CIRCLE ( 'NONE', #32, 7.000000000000000888 ) ;
#353 = AXIS2_PLACEMENT_3D ( 'NONE', #107, #132, #193 ) ;
#354 = CARTESIAN_POINT ( 'NONE',  ( -5.000000000000000000, 0.000000000000000000, 607.0000000000000000 ) ) ;
#355 = DIRECTION ( 'NONE',  ( 0.000000000000000000, -1.000000000000000000, 0.000000000000000000 ) ) ;
#356 = DIRECTION ( 'NONE',  ( -1.000000000000000000, 1.224646799147351975E-16, 0.000000000000000000 ) ) ;
#357 = ORIENTED_EDGE ( 'NONE', *, *, #333, .F. ) ;
#358 = AXIS2_PLACEMENT_3D ( 'NONE', #151, #355, #125 ) ;
#359 = CIRCLE ( 'NONE', #365, 11.00000000000000000 ) ;
#360 = DIRECTION ( 'NONE',  ( 0.000000000000000000, 0.000000000000000000, -1.000000000000000000 ) ) ;
#361 = PRODUCT ( '6dad', '6dad', '', ( #237 ) ) ;
#362 = CARTESIAN_POINT ( 'NONE',  ( 0.000000000000000000, 0.000000000000000000, 607.0000000000000000 ) ) ;
#363 = DIRECTION ( 'NONE',  ( 0.000000000000000000, 0.000000000000000000, -1.000000000000000000 ) ) ;
#364 = ORIENTED_EDGE ( 'NONE', *, *, #317, .F. ) ;
#365 = AXIS2_PLACEMENT_3D ( 'NONE', #308, #283, #109 ) ;
#366 = CALENDAR_DATE ( 2022, 8, 7 ) ;
#367 = ORIENTED_EDGE ( 'NONE', *, *, #44, .F. ) ;
#368 = EDGE_CURVE ( 'NONE', #264, #266, #211, .T. ) ;
#369 = PERSON_AND_ORGANIZATION ( #75, #163 ) ;
#370 = DIRECTION ( 'NONE',  ( 0.000000000000000000, 0.000000000000000000, 1.000000000000000000 ) ) ;
#371 = ORIENTED_EDGE ( 'NONE', *, *, #120, .F. ) ;
#372 = CIRCLE ( 'NONE', #273, 0.7000000000000000666 ) ;
#373 = AXIS2_PLACEMENT_3D ( 'NONE', #375, #250, #22 ) ;
#374 = SECURITY_CLASSIFICATION_LEVEL ( 'unclassified' ) ;
#375 = CARTESIAN_POINT ( 'NONE',  ( 0.000000000000000000, 0.000000000000000000, 607.0000000000000000 ) ) ;
#376 = PERSON_AND_ORGANIZATION_ROLE ( 'creator' ) ;
#377 = LOCAL_TIME ( 16, 22, 3.000000000000000000, #305 ) ;
#378 = ORIENTED_EDGE ( 'NONE', *, *, #139, .T. ) ;
#379 = DIRECTION ( 'NONE',  ( 1.000000000000000000, 0.000000000000000000, 0.000000000000000000 ) ) ;
#380 = AXIS2_PLACEMENT_3D ( 'NONE', #255, #118, #267 ) ;
#381 = CARTESIAN_POINT ( 'NONE',  ( -5.000000000000000000, 0.000000000000000000, 0.000000000000000000 ) ) ;
ENDSEC;
END-ISO-10303-21;
