ISO-10303-21;
HEADER;
FILE_DESCRIPTION (( 'STEP AP203' ),
    '1' );
FILE_NAME ('e334.STEP',
    '2022-07-08T15:00:45',
    ( '' ),
    ( '' ),
    'SwSTEP 2.0',
    'SolidWorks 2019',
    '' );
FILE_SCHEMA (( 'CONFIG_CONTROL_DESIGN' ));
ENDSEC;

DATA;
#1 = DATE_AND_TIME ( #365, #12 ) ;
#2 = ORIENTED_EDGE ( 'NONE', *, *, #311, .T. ) ;
#3 = PERSON_AND_ORGANIZATION ( #48, #158 ) ;
#4 = ADVANCED_FACE ( 'NONE', ( #179, #209 ), #353, .T. ) ;
#5 = ORIENTED_EDGE ( 'NONE', *, *, #118, .T. ) ;
#6 = COORDINATED_UNIVERSAL_TIME_OFFSET ( 1, 0, .AHEAD. ) ;
#7 = DIRECTION ( 'NONE',  ( 0.000000000000000000, -1.000000000000000000, 0.000000000000000000 ) ) ;
#8 = ORIENTED_EDGE ( 'NONE', *, *, #16, .T. ) ;
#9 = ORIENTED_EDGE ( 'NONE', *, *, #194, .T. ) ;
#10 = ORIENTED_EDGE ( 'NONE', *, *, #216, .T. ) ;
#11 = LINE ( 'NONE', #129, #86 ) ;
#12 = LOCAL_TIME ( 17, 0, 45.00000000000000000, #6 ) ;
#13 = EDGE_CURVE ( 'NONE', #230, #116, #134, .T. ) ;
#14 = DIRECTION ( 'NONE',  ( 0.000000000000000000, 0.000000000000000000, 1.000000000000000000 ) ) ;
#15 = CIRCLE ( 'NONE', #277, 6.500000000000000888 ) ;
#16 = EDGE_CURVE ( 'NONE', #317, #144, #19, .T. ) ;
#17 = CARTESIAN_POINT ( 'NONE',  ( -6.000000000000000888, 0.000000000000000000, 357.0000000000000000 ) ) ;
#18 = DIRECTION ( 'NONE',  ( 0.000000000000000000, 0.000000000000000000, -1.000000000000000000 ) ) ;
#19 = CIRCLE ( 'NONE', #232, 10.00000000000000000 ) ;
#20 = ORIENTED_EDGE ( 'NONE', *, *, #49, .F. ) ;
#21 = LINE ( 'NONE', #22, #243 ) ;
#22 = CARTESIAN_POINT ( 'NONE',  ( 2.750000000000000000, 3.367778697655221012E-16, 357.0000000000000000 ) ) ;
#23 = AXIS2_PLACEMENT_3D ( 'NONE', #98, #268, #100 ) ;
#24 = EDGE_LOOP ( 'NONE', ( #90, #290 ) ) ;
#25 = CALENDAR_DATE ( 2022, 8, 7 ) ;
#26 = ORIENTED_EDGE ( 'NONE', *, *, #357, .T. ) ;
#27 = EDGE_LOOP ( 'NONE', ( #264, #319 ) ) ;
#28 = DATE_AND_TIME ( #329, #340 ) ;
#29 = PRODUCT ( 'e334', 'e334', '', ( #174 ) ) ;
#30 = EDGE_LOOP ( 'NONE', ( #328, #57 ) ) ;
#31 = CARTESIAN_POINT ( 'NONE',  ( 0.000000000000000000, 0.000000000000000000, 7.500000000000007105 ) ) ;
#32 = EDGE_LOOP ( 'NONE', ( #141, #261, #51, #87 ) ) ;
#33 = APPROVAL_STATUS ( 'not_yet_approved' ) ;
#34 = CARTESIAN_POINT ( 'NONE',  ( -10.00000000000000000, 0.000000000000000000, 0.000000000000000000 ) ) ;
#35 = AXIS2_PLACEMENT_3D ( 'NONE', #67, #275, #300 ) ;
#36 = DIRECTION ( 'NONE',  ( 0.000000000000000000, 0.000000000000000000, 1.000000000000000000 ) ) ;
#37 = DIRECTION ( 'NONE',  ( 1.000000000000000000, 0.000000000000000000, -0.000000000000000000 ) ) ;
#38 = AXIS2_PLACEMENT_3D ( 'NONE', #47, #257, #170 ) ;
#39 = CC_DESIGN_PERSON_AND_ORGANIZATION_ASSIGNMENT ( #356, #231, ( #346 ) ) ;
#40 = CARTESIAN_POINT ( 'NONE',  ( 0.000000000000000000, 0.000000000000000000, 0.000000000000000000 ) ) ;
#41 = DIRECTION ( 'NONE',  ( 0.000000000000000000, 0.000000000000000000, 1.000000000000000000 ) ) ;
#42 = PLANE ( 'NONE',  #271 ) ;
#43 = AXIS2_PLACEMENT_3D ( 'NONE', #368, #14, #37 ) ;
#44 = CIRCLE ( 'NONE', #75, 10.00000000000000000 ) ;
#45 = CARTESIAN_POINT ( 'NONE',  ( 0.000000000000000000, 0.000000000000000000, 7.000000000000000000 ) ) ;
#46 =( NAMED_UNIT ( * ) PLANE_ANGLE_UNIT ( ) SI_UNIT ( $, .RADIAN. ) );
#47 = CARTESIAN_POINT ( 'NONE',  ( 0.000000000000000000, 0.000000000000000000, 357.0000000000000000 ) ) ;
#48 = PERSON ( 'NEURÈENÝ', 'NEURÈENÝ', 'NEURÈENÝ', ('NEURÈENÝ'), ('NEURÈENÝ'), ('NEURÈENÝ') ) ;
#49 = EDGE_CURVE ( 'NONE', #233, #309, #280, .T. ) ;
#50 = ORIENTED_EDGE ( 'NONE', *, *, #178, .F. ) ;
#51 = ORIENTED_EDGE ( 'NONE', *, *, #146, .T. ) ;
#52 = AXIS2_PLACEMENT_3D ( 'NONE', #214, #334, #274 ) ;
#53 = LOCAL_TIME ( 17, 0, 45.00000000000000000, #145 ) ;
#54 = DATE_AND_TIME ( #92, #53 ) ;
#55 = ADVANCED_BREP_SHAPE_REPRESENTATION ( 'e334', ( #153, #89 ), #68 ) ;
#56 = ORIENTED_EDGE ( 'NONE', *, *, #311, .F. ) ;
#57 = ORIENTED_EDGE ( 'NONE', *, *, #301, .F. ) ;
#58 = COORDINATED_UNIVERSAL_TIME_OFFSET ( 1, 0, .AHEAD. ) ;
#59 = EDGE_CURVE ( 'NONE', #230, #233, #242, .T. ) ;
#60 = ORIENTED_EDGE ( 'NONE', *, *, #269, .F. ) ;
#61 = PERSON_AND_ORGANIZATION ( #48, #158 ) ;
#62 = CIRCLE ( 'NONE', #347, 6.000000000000000888 ) ;
#63 = CARTESIAN_POINT ( 'NONE',  ( 0.000000000000000000, 0.000000000000000000, 357.0000000000000000 ) ) ;
#64 = FACE_OUTER_BOUND ( 'NONE', #207, .T. ) ;
#65 = DIRECTION ( 'NONE',  ( 0.000000000000000000, 0.000000000000000000, -1.000000000000000000 ) ) ;
#66 = DIRECTION ( 'NONE',  ( 1.000000000000000000, 0.000000000000000000, -0.000000000000000000 ) ) ;
#67 = CARTESIAN_POINT ( 'NONE',  ( 0.000000000000000000, 0.000000000000000000, 7.500000000000007105 ) ) ;
#68 =( GEOMETRIC_REPRESENTATION_CONTEXT ( 3 ) GLOBAL_UNCERTAINTY_ASSIGNED_CONTEXT ( ( #331 ) ) GLOBAL_UNIT_ASSIGNED_CONTEXT ( ( #226, #46, #282 ) ) REPRESENTATION_CONTEXT ( 'NONE', 'WORKASPACE' ) );
#69 = CARTESIAN_POINT ( 'NONE',  ( 0.000000000000000000, 0.000000000000000000, 7.000000000000000000 ) ) ;
#70 = AXIS2_PLACEMENT_3D ( 'NONE', #74, #81, #349 ) ;
#71 = CARTESIAN_POINT ( 'NONE',  ( 6.000000000000000888, 7.347880794884120722E-16, 7.500000000000007105 ) ) ;
#72 = DIRECTION ( 'NONE',  ( 0.000000000000000000, 0.000000000000000000, -1.000000000000000000 ) ) ;
#73 = ORIENTED_EDGE ( 'NONE', *, *, #194, .F. ) ;
#74 = CARTESIAN_POINT ( 'NONE',  ( 0.000000000000000000, 0.000000000000000000, 357.0000000000000000 ) ) ;
#75 = AXIS2_PLACEMENT_3D ( 'NONE', #195, #279, #196 ) ;
#76 = ORIENTED_EDGE ( 'NONE', *, *, #330, .T. ) ;
#77 = DIRECTION ( 'NONE',  ( 1.000000000000000000, 0.000000000000000000, 0.000000000000000000 ) ) ;
#78 = ADVANCED_FACE ( 'NONE', ( #102 ), #97, .F. ) ;
#79 = CARTESIAN_POINT ( 'NONE',  ( 6.000000000000000888, 7.347880794884120722E-16, 357.0000000000000000 ) ) ;
#80 = AXIS2_PLACEMENT_3D ( 'NONE', #172, #223, #352 ) ;
#81 = DIRECTION ( 'NONE',  ( 0.000000000000000000, 0.000000000000000000, 1.000000000000000000 ) ) ;
#82 = PRODUCT_DEFINITION ( 'NEZNÁMÝ', '', #377, #367 ) ;
#83 = ORIENTED_EDGE ( 'NONE', *, *, #301, .T. ) ;
#84 = PERSON_AND_ORGANIZATION ( #48, #158 ) ;
#85 = CLOSED_SHELL ( 'NONE', ( #198, #78, #229, #359, #256, #244, #281, #380, #4, #203, #217 ) ) ;
#86 = VECTOR ( 'NONE', #65, 1000.000000000000000 ) ;
#87 = ORIENTED_EDGE ( 'NONE', *, *, #132, .T. ) ;
#88 = DATE_TIME_ROLE ( 'classification_date' ) ;
#89 = AXIS2_PLACEMENT_3D ( 'NONE', #149, #205, #202 ) ;
#90 = ORIENTED_EDGE ( 'NONE', *, *, #283, .F. ) ;
#91 = AXIS2_PLACEMENT_3D ( 'NONE', #31, #184, #152 ) ;
#92 = CALENDAR_DATE ( 2022, 8, 7 ) ;
#93 = VERTEX_POINT ( 'NONE', #34 ) ;
#94 = DATE_AND_TIME ( #234, #176 ) ;
#95 = ORIENTED_EDGE ( 'NONE', *, *, #345, .T. ) ;
#96 = AXIS2_PLACEMENT_3D ( 'NONE', #188, #215, #333 ) ;
#97 = TOROIDAL_SURFACE ( 'NONE', #23, 6.500000000000000888, 0.5000000000000000000 ) ;
#98 = CARTESIAN_POINT ( 'NONE',  ( 0.000000000000000000, 0.000000000000000000, 7.500000000000007105 ) ) ;
#99 = CIRCLE ( 'NONE', #171, 10.00000000000000000 ) ;
#100 = DIRECTION ( 'NONE',  ( 1.000000000000000000, 0.000000000000000000, 0.000000000000000000 ) ) ;
#101 = CYLINDRICAL_SURFACE ( 'NONE', #52, 6.000000000000000888 ) ;
#102 = FACE_OUTER_BOUND ( 'NONE', #355, .T. ) ;
#103 = DIRECTION ( 'NONE',  ( -1.000000000000000000, 0.000000000000000000, 0.000000000000000000 ) ) ;
#104 = CARTESIAN_POINT ( 'NONE',  ( 0.000000000000000000, 0.000000000000000000, 7.000000000000000000 ) ) ;
#105 = CYLINDRICAL_SURFACE ( 'NONE', #237, 10.00000000000000000 ) ;
#106 = DIRECTION ( 'NONE',  ( -0.000000000000000000, -0.000000000000000000, -1.000000000000000000 ) ) ;
#107 = AXIS2_PLACEMENT_3D ( 'NONE', #63, #161, #213 ) ;
#108 = DIRECTION ( 'NONE',  ( -0.000000000000000000, -0.000000000000000000, -1.000000000000000000 ) ) ;
#109 = APPROVAL ( #210, 'NEURÈENÝ' ) ;
#110 = PLANE ( 'NONE',  #80 ) ;
#111 = EDGE_LOOP ( 'NONE', ( #258, #26 ) ) ;
#112 = CARTESIAN_POINT ( 'NONE',  ( 6.500000000000000888, 0.000000000000000000, 7.000000000000002665 ) ) ;
#113 = APPROVAL_ROLE ( '' ) ;
#114 = ORIENTED_EDGE ( 'NONE', *, *, #357, .F. ) ;
#115 = APPROVAL_DATE_TIME ( #1, #109 ) ;
#116 = VERTEX_POINT ( 'NONE', #249 ) ;
#117 = APPROVAL_DATE_TIME ( #142, #324 ) ;
#118 = EDGE_CURVE ( 'NONE', #144, #317, #313, .T. ) ;
#119 = CC_DESIGN_APPROVAL ( #109, ( #377 ) ) ;
#120 = EDGE_LOOP ( 'NONE', ( #60, #56 ) ) ;
#121 = APPROVAL_PERSON_ORGANIZATION ( #3, #109, #296 ) ;
#122 = PERSON_AND_ORGANIZATION ( #48, #158 ) ;
#123 = ORIENTED_EDGE ( 'NONE', *, *, #330, .F. ) ;
#124 = SECURITY_CLASSIFICATION_LEVEL ( 'unclassified' ) ;
#125 = EDGE_LOOP ( 'NONE', ( #20, #73, #10, #262 ) ) ;
#126 = EDGE_CURVE ( 'NONE', #358, #326, #337, .T. ) ;
#127 = FACE_OUTER_BOUND ( 'NONE', #148, .T. ) ;
#128 = CIRCLE ( 'NONE', #164, 2.750000000000000000 ) ;
#129 = CARTESIAN_POINT ( 'NONE',  ( -2.750000000000000000, 0.000000000000000000, 357.0000000000000000 ) ) ;
#130 = DIRECTION ( 'NONE',  ( 1.224646799147353207E-16, 1.000000000000000000, -0.000000000000000000 ) ) ;
#131 = DIRECTION ( 'NONE',  ( 0.000000000000000000, 0.000000000000000000, 1.000000000000000000 ) ) ;
#132 = EDGE_CURVE ( 'NONE', #238, #154, #320, .T. ) ;
#133 = EDGE_CURVE ( 'NONE', #233, #204, #375, .T. ) ;
#134 = CIRCLE ( 'NONE', #96, 6.000000000000000888 ) ;
#135 = CARTESIAN_POINT ( 'NONE',  ( -10.00000000000000000, 0.000000000000000000, 7.000000000000000000 ) ) ;
#136 = APPLICATION_PROTOCOL_DEFINITION ( 'international standard', 'config_control_design', 1994, #167 ) ;
#137 = CC_DESIGN_APPROVAL ( #177, ( #346 ) ) ;
#138 = DIRECTION ( 'NONE',  ( 1.000000000000000000, 0.000000000000000000, 0.000000000000000000 ) ) ;
#139 = CARTESIAN_POINT ( 'NONE',  ( 0.000000000000000000, 0.000000000000000000, 357.0000000000000000 ) ) ;
#140 = DIRECTION ( 'NONE',  ( -0.000000000000000000, -0.000000000000000000, -1.000000000000000000 ) ) ;
#141 = ORIENTED_EDGE ( 'NONE', *, *, #345, .F. ) ;
#142 = DATE_AND_TIME ( #25, #284 ) ;
#143 = DIRECTION ( 'NONE',  ( 0.000000000000000000, 0.000000000000000000, -1.000000000000000000 ) ) ;
#144 = VERTEX_POINT ( 'NONE', #192 ) ;
#145 = COORDINATED_UNIVERSAL_TIME_OFFSET ( 1, 0, .AHEAD. ) ;
#146 = EDGE_CURVE ( 'NONE', #326, #238, #11, .T. ) ;
#147 = CC_DESIGN_DATE_AND_TIME_ASSIGNMENT ( #28, #88, ( #346 ) ) ;
#148 = EDGE_LOOP ( 'NONE', ( #173, #95, #83, #175 ) ) ;
#149 = CARTESIAN_POINT ( 'NONE',  ( 0.000000000000000000, 0.000000000000000000, 0.000000000000000000 ) ) ;
#150 = ORIENTED_EDGE ( 'NONE', *, *, #178, .T. ) ;
#151 = SHAPE_DEFINITION_REPRESENTATION ( #248, #55 ) ;
#152 = DIRECTION ( 'NONE',  ( 1.000000000000000000, 0.000000000000000000, 0.000000000000000000 ) ) ;
#153 = MANIFOLD_SOLID_BREP ( 'Odebrat vysunutím3', #85 ) ;
#154 = VERTEX_POINT ( 'NONE', #211 ) ;
#155 = CARTESIAN_POINT ( 'NONE',  ( -6.000000000000000888, 0.000000000000000000, 357.0000000000000000 ) ) ;
#156 = AXIS2_PLACEMENT_3D ( 'NONE', #40, #366, #338 ) ;
#157 = DIRECTION ( 'NONE',  ( 1.000000000000000000, 0.000000000000000000, 0.000000000000000000 ) ) ;
#158 = ORGANIZATION ( 'NEURÈENÝ', 'NEURÈENÝ', '' ) ;
#159 = DIRECTION ( 'NONE',  ( -1.000000000000000000, 0.000000000000000000, 0.000000000000000000 ) ) ;
#160 = CC_DESIGN_DATE_AND_TIME_ASSIGNMENT ( #94, #241, ( #82 ) ) ;
#161 = DIRECTION ( 'NONE',  ( 0.000000000000000000, 0.000000000000000000, 1.000000000000000000 ) ) ;
#162 = CARTESIAN_POINT ( 'NONE',  ( 0.000000000000000000, 0.000000000000000000, 7.000000000000000000 ) ) ;
#163 = DIRECTION ( 'NONE',  ( -1.000000000000000000, 0.000000000000000000, 0.000000000000000000 ) ) ;
#164 = AXIS2_PLACEMENT_3D ( 'NONE', #315, #378, #287 ) ;
#165 = ORIENTED_EDGE ( 'NONE', *, *, #59, .F. ) ;
#166 = DIRECTION ( 'NONE',  ( 0.000000000000000000, 0.000000000000000000, 1.000000000000000000 ) ) ;
#167 = APPLICATION_CONTEXT ( 'configuration controlled 3d designs of mechanical parts and assemblies' ) ;
#168 = EDGE_LOOP ( 'NONE', ( #8, #5 ) ) ;
#169 = FACE_OUTER_BOUND ( 'NONE', #120, .T. ) ;
#170 = DIRECTION ( 'NONE',  ( -1.000000000000000000, 0.000000000000000000, 0.000000000000000000 ) ) ;
#171 = AXIS2_PLACEMENT_3D ( 'NONE', #278, #36, #77 ) ;
#172 = CARTESIAN_POINT ( 'NONE',  ( 0.000000000000000000, 0.000000000000000000, 0.000000000000000000 ) ) ;
#173 = ORIENTED_EDGE ( 'NONE', *, *, #283, .T. ) ;
#174 = MECHANICAL_CONTEXT ( 'NONE', #167, 'mechanical' ) ;
#175 = ORIENTED_EDGE ( 'NONE', *, *, #146, .F. ) ;
#176 = LOCAL_TIME ( 17, 0, 45.00000000000000000, #327 ) ;
#177 = APPROVAL ( #33, 'NEURÈENÝ' ) ;
#178 = EDGE_CURVE ( 'NONE', #144, #298, #335, .T. ) ;
#179 = FACE_BOUND ( 'NONE', #24, .T. ) ;
#180 = PERSON_AND_ORGANIZATION ( #48, #158 ) ;
#181 = ORIENTED_EDGE ( 'NONE', *, *, #133, .T. ) ;
#182 = PERSON_AND_ORGANIZATION_ROLE ( 'creator' ) ;
#183 = EDGE_LOOP ( 'NONE', ( #50, #289, #76, #228 ) ) ;
#184 = DIRECTION ( 'NONE',  ( 0.000000000000000000, 0.000000000000000000, 1.000000000000000000 ) ) ;
#185 = CARTESIAN_POINT ( 'NONE',  ( 0.000000000000000000, 0.000000000000000000, 7.500000000000007105 ) ) ;
#186 = DIRECTION ( 'NONE',  ( 1.000000000000000000, 0.000000000000000000, 0.000000000000000000 ) ) ;
#187 = CARTESIAN_POINT ( 'NONE',  ( 10.00000000000000000, 1.224646799147353256E-15, 7.000000000000000000 ) ) ;
#188 = CARTESIAN_POINT ( 'NONE',  ( 0.000000000000000000, 0.000000000000000000, 357.0000000000000000 ) ) ;
#189 = AXIS2_PLACEMENT_3D ( 'NONE', #45, #108, #138 ) ;
#190 = PRODUCT_RELATED_PRODUCT_CATEGORY ( 'detail', '', ( #29 ) ) ;
#191 = CIRCLE ( 'NONE', #189, 6.500000000000000888 ) ;
#192 = CARTESIAN_POINT ( 'NONE',  ( 10.00000000000000000, 1.224646799147353256E-15, 7.000000000000000000 ) ) ;
#193 = VECTOR ( 'NONE', #246, 1000.000000000000000 ) ;
#194 = EDGE_CURVE ( 'NONE', #204, #233, #62, .T. ) ;
#195 = CARTESIAN_POINT ( 'NONE',  ( 0.000000000000000000, 0.000000000000000000, 0.000000000000000000 ) ) ;
#196 = DIRECTION ( 'NONE',  ( 1.000000000000000000, 0.000000000000000000, 0.000000000000000000 ) ) ;
#197 = CYLINDRICAL_SURFACE ( 'NONE', #38, 6.000000000000000888 ) ;
#198 = ADVANCED_FACE ( 'NONE', ( #127 ), #270, .F. ) ;
#199 = AXIS2_PLACEMENT_3D ( 'NONE', #325, #72, #103 ) ;
#200 = CYLINDRICAL_SURFACE ( 'NONE', #235, 10.00000000000000000 ) ;
#201 = ORIENTED_EDGE ( 'NONE', *, *, #133, .F. ) ;
#202 = DIRECTION ( 'NONE',  ( 1.000000000000000000, 0.000000000000000000, 0.000000000000000000 ) ) ;
#203 = ADVANCED_FACE ( 'NONE', ( #273 ), #250, .F. ) ;
#204 = VERTEX_POINT ( 'NONE', #71 ) ;
#205 = DIRECTION ( 'NONE',  ( 0.000000000000000000, 0.000000000000000000, 1.000000000000000000 ) ) ;
#206 = ORIENTED_EDGE ( 'NONE', *, *, #216, .F. ) ;
#207 = EDGE_LOOP ( 'NONE', ( #114, #323, #9, #165 ) ) ;
#208 = PERSON_AND_ORGANIZATION ( #48, #158 ) ;
#209 = FACE_OUTER_BOUND ( 'NONE', #111, .T. ) ;
#210 = APPROVAL_STATUS ( 'not_yet_approved' ) ;
#211 = CARTESIAN_POINT ( 'NONE',  ( 2.750000000000000000, 3.367778697655221012E-16, 0.000000000000000000 ) ) ;
#212 = VECTOR ( 'NONE', #106, 1000.000000000000000 ) ;
#213 = DIRECTION ( 'NONE',  ( 1.000000000000000000, 0.000000000000000000, 0.000000000000000000 ) ) ;
#214 = CARTESIAN_POINT ( 'NONE',  ( 0.000000000000000000, 0.000000000000000000, 357.0000000000000000 ) ) ;
#215 = DIRECTION ( 'NONE',  ( 0.000000000000000000, 0.000000000000000000, 1.000000000000000000 ) ) ;
#216 = EDGE_CURVE ( 'NONE', #204, #321, #361, .T. ) ;
#217 = ADVANCED_FACE ( 'NONE', ( #260 ), #236, .F. ) ;
#218 = CARTESIAN_POINT ( 'NONE',  ( -2.750000000000000000, 0.000000000000000000, 0.000000000000000000 ) ) ;
#219 = CARTESIAN_POINT ( 'NONE',  ( -6.500000000000000888, 7.960204194457796463E-16, 7.500000000000007105 ) ) ;
#220 = CIRCLE ( 'NONE', #332, 2.750000000000000000 ) ;
#221 = CARTESIAN_POINT ( 'NONE',  ( -2.750000000000000000, 0.000000000000000000, 357.0000000000000000 ) ) ;
#222 = APPLICATION_CONTEXT ( 'configuration controlled 3d designs of mechanical parts and assemblies' ) ;
#223 = DIRECTION ( 'NONE',  ( 0.000000000000000000, 0.000000000000000000, 1.000000000000000000 ) ) ;
#224 = CC_DESIGN_PERSON_AND_ORGANIZATION_ASSIGNMENT ( #299, #354, ( #82 ) ) ;
#225 = CARTESIAN_POINT ( 'NONE',  ( 0.000000000000000000, 0.000000000000000000, 7.000000000000000000 ) ) ;
#226 =( LENGTH_UNIT ( ) NAMED_UNIT ( * ) SI_UNIT ( .MILLI., .METRE. ) );
#227 = AXIS2_PLACEMENT_3D ( 'NONE', #370, #341, #159 ) ;
#228 = ORIENTED_EDGE ( 'NONE', *, *, #269, .T. ) ;
#229 = ADVANCED_FACE ( 'NONE', ( #64 ), #101, .T. ) ;
#230 = VERTEX_POINT ( 'NONE', #17 ) ;
#231 = PERSON_AND_ORGANIZATION_ROLE ( 'classification_officer' ) ;
#232 = AXIS2_PLACEMENT_3D ( 'NONE', #305, #131, #369 ) ;
#233 = VERTEX_POINT ( 'NONE', #336 ) ;
#234 = CALENDAR_DATE ( 2022, 8, 7 ) ;
#235 = AXIS2_PLACEMENT_3D ( 'NONE', #225, #140, #254 ) ;
#236 = CYLINDRICAL_SURFACE ( 'NONE', #199, 2.750000000000000000 ) ;
#237 = AXIS2_PLACEMENT_3D ( 'NONE', #302, #343, #163 ) ;
#238 = VERTEX_POINT ( 'NONE', #218 ) ;
#239 = CIRCLE ( 'NONE', #70, 6.000000000000000888 ) ;
#240 = ORIENTED_EDGE ( 'NONE', *, *, #49, .T. ) ;
#241 = DATE_TIME_ROLE ( 'creation_date' ) ;
#242 = LINE ( 'NONE', #155, #193 ) ;
#243 = VECTOR ( 'NONE', #18, 1000.000000000000000 ) ;
#244 = ADVANCED_FACE ( 'NONE', ( #339, #307 ), #42, .T. ) ;
#245 = EDGE_CURVE ( 'NONE', #321, #309, #15, .T. ) ;
#246 = DIRECTION ( 'NONE',  ( -0.000000000000000000, -0.000000000000000000, -1.000000000000000000 ) ) ;
#247 = DIRECTION ( 'NONE',  ( 1.000000000000000000, 0.000000000000000000, 0.000000000000000000 ) ) ;
#248 = PRODUCT_DEFINITION_SHAPE ( 'NONE', 'NONE',  #82 ) ;
#249 = CARTESIAN_POINT ( 'NONE',  ( 6.000000000000000888, 7.347880794884120722E-16, 357.0000000000000000 ) ) ;
#250 = TOROIDAL_SURFACE ( 'NONE', #91, 6.500000000000000888, 0.5000000000000000000 ) ;
#251 = DIRECTION ( 'NONE',  ( -0.000000000000000000, -0.000000000000000000, -1.000000000000000000 ) ) ;
#252 = AXIS2_PLACEMENT_3D ( 'NONE', #219, #130, #306 ) ;
#253 = ORIENTED_EDGE ( 'NONE', *, *, #118, .F. ) ;
#254 = DIRECTION ( 'NONE',  ( -1.000000000000000000, 0.000000000000000000, 0.000000000000000000 ) ) ;
#255 = VECTOR ( 'NONE', #285, 1000.000000000000000 ) ;
#256 = ADVANCED_FACE ( 'NONE', ( #372 ), #105, .T. ) ;
#257 = DIRECTION ( 'NONE',  ( -0.000000000000000000, -0.000000000000000000, -1.000000000000000000 ) ) ;
#258 = ORIENTED_EDGE ( 'NONE', *, *, #13, .T. ) ;
#259 = APPLICATION_PROTOCOL_DEFINITION ( 'international standard', 'config_control_design', 1994, #222 ) ;
#260 = FACE_OUTER_BOUND ( 'NONE', #32, .T. ) ;
#261 = ORIENTED_EDGE ( 'NONE', *, *, #126, .T. ) ;
#262 = ORIENTED_EDGE ( 'NONE', *, *, #373, .F. ) ;
#263 = CC_DESIGN_PERSON_AND_ORGANIZATION_ASSIGNMENT ( #122, #294, ( #377 ) ) ;
#264 = ORIENTED_EDGE ( 'NONE', *, *, #245, .T. ) ;
#265 = APPROVAL_DATE_TIME ( #54, #177 ) ;
#266 = ORIENTED_EDGE ( 'NONE', *, *, #245, .F. ) ;
#267 = CARTESIAN_POINT ( 'NONE',  ( 6.500000000000000888, 0.000000000000000000, 7.500000000000007105 ) ) ;
#268 = DIRECTION ( 'NONE',  ( 0.000000000000000000, 0.000000000000000000, 1.000000000000000000 ) ) ;
#269 = EDGE_CURVE ( 'NONE', #93, #298, #99, .T. ) ;
#270 = CYLINDRICAL_SURFACE ( 'NONE', #227, 2.750000000000000000 ) ;
#271 = AXIS2_PLACEMENT_3D ( 'NONE', #69, #276, #66 ) ;
#272 = CC_DESIGN_SECURITY_CLASSIFICATION ( #346, ( #377 ) ) ;
#273 = FACE_OUTER_BOUND ( 'NONE', #125, .T. ) ;
#274 = DIRECTION ( 'NONE',  ( -1.000000000000000000, 0.000000000000000000, 0.000000000000000000 ) ) ;
#275 = DIRECTION ( 'NONE',  ( 0.000000000000000000, 0.000000000000000000, 1.000000000000000000 ) ) ;
#276 = DIRECTION ( 'NONE',  ( 0.000000000000000000, 0.000000000000000000, 1.000000000000000000 ) ) ;
#277 = AXIS2_PLACEMENT_3D ( 'NONE', #162, #251, #186 ) ;
#278 = CARTESIAN_POINT ( 'NONE',  ( 0.000000000000000000, 0.000000000000000000, 0.000000000000000000 ) ) ;
#279 = DIRECTION ( 'NONE',  ( 0.000000000000000000, 0.000000000000000000, 1.000000000000000000 ) ) ;
#280 = CIRCLE ( 'NONE', #252, 0.5000000000000004441 ) ;
#281 = ADVANCED_FACE ( 'NONE', ( #318, #169 ), #110, .F. ) ;
#282 =( NAMED_UNIT ( * ) SI_UNIT ( $, .STERADIAN. ) SOLID_ANGLE_UNIT ( ) );
#283 = EDGE_CURVE ( 'NONE', #326, #358, #220, .T. ) ;
#284 = LOCAL_TIME ( 17, 0, 45.00000000000000000, #58 ) ;
#285 = DIRECTION ( 'NONE',  ( -0.000000000000000000, -0.000000000000000000, -1.000000000000000000 ) ) ;
#286 = APPROVAL_PERSON_ORGANIZATION ( #61, #324, #291 ) ;
#287 = DIRECTION ( 'NONE',  ( 1.000000000000000000, 0.000000000000000000, 0.000000000000000000 ) ) ;
#288 = CC_DESIGN_PERSON_AND_ORGANIZATION_ASSIGNMENT ( #180, #182, ( #377 ) ) ;
#289 = ORIENTED_EDGE ( 'NONE', *, *, #16, .F. ) ;
#290 = ORIENTED_EDGE ( 'NONE', *, *, #126, .F. ) ;
#291 = APPROVAL_ROLE ( '' ) ;
#292 = ORIENTED_EDGE ( 'NONE', *, *, #308, .F. ) ;
#293 = EDGE_LOOP ( 'NONE', ( #253, #150, #2, #123 ) ) ;
#294 = PERSON_AND_ORGANIZATION_ROLE ( 'design_supplier' ) ;
#295 = ORIENTED_EDGE ( 'NONE', *, *, #59, .T. ) ;
#296 = APPROVAL_ROLE ( '' ) ;
#297 = AXIS2_PLACEMENT_3D ( 'NONE', #267, #7, #143 ) ;
#298 = VERTEX_POINT ( 'NONE', #379 ) ;
#299 = PERSON_AND_ORGANIZATION ( #48, #158 ) ;
#300 = DIRECTION ( 'NONE',  ( 1.000000000000000000, 0.000000000000000000, 0.000000000000000000 ) ) ;
#301 = EDGE_CURVE ( 'NONE', #154, #238, #128, .T. ) ;
#302 = CARTESIAN_POINT ( 'NONE',  ( 0.000000000000000000, 0.000000000000000000, 7.000000000000000000 ) ) ;
#303 = DIRECTION ( 'NONE',  ( -0.000000000000000000, -0.000000000000000000, -1.000000000000000000 ) ) ;
#304 = CC_DESIGN_APPROVAL ( #324, ( #82 ) ) ;
#305 = CARTESIAN_POINT ( 'NONE',  ( 0.000000000000000000, 0.000000000000000000, 7.000000000000000000 ) ) ;
#306 = DIRECTION ( 'NONE',  ( -1.000000000000000000, 1.224646799147351482E-16, 0.000000000000000000 ) ) ;
#307 = FACE_OUTER_BOUND ( 'NONE', #168, .T. ) ;
#308 = EDGE_CURVE ( 'NONE', #116, #204, #350, .T. ) ;
#309 = VERTEX_POINT ( 'NONE', #381 ) ;
#310 = LINE ( 'NONE', #376, #255 ) ;
#311 = EDGE_CURVE ( 'NONE', #298, #93, #44, .T. ) ;
#312 = CARTESIAN_POINT ( 'NONE',  ( 2.750000000000000000, 3.367778697655221012E-16, 357.0000000000000000 ) ) ;
#313 = CIRCLE ( 'NONE', #314, 10.00000000000000000 ) ;
#314 = AXIS2_PLACEMENT_3D ( 'NONE', #104, #371, #157 ) ;
#315 = CARTESIAN_POINT ( 'NONE',  ( 0.000000000000000000, 0.000000000000000000, 0.000000000000000000 ) ) ;
#316 = VECTOR ( 'NONE', #303, 1000.000000000000000 ) ;
#317 = VERTEX_POINT ( 'NONE', #135 ) ;
#318 = FACE_BOUND ( 'NONE', #30, .T. ) ;
#319 = ORIENTED_EDGE ( 'NONE', *, *, #373, .T. ) ;
#320 = CIRCLE ( 'NONE', #156, 2.750000000000000000 ) ;
#321 = VERTEX_POINT ( 'NONE', #112 ) ;
#322 = PERSON_AND_ORGANIZATION_ROLE ( 'design_owner' ) ;
#323 = ORIENTED_EDGE ( 'NONE', *, *, #308, .T. ) ;
#324 = APPROVAL ( #360, 'NEURÈENÝ' ) ;
#325 = CARTESIAN_POINT ( 'NONE',  ( 0.000000000000000000, 0.000000000000000000, 357.0000000000000000 ) ) ;
#326 = VERTEX_POINT ( 'NONE', #221 ) ;
#327 = COORDINATED_UNIVERSAL_TIME_OFFSET ( 1, 0, .AHEAD. ) ;
#328 = ORIENTED_EDGE ( 'NONE', *, *, #132, .F. ) ;
#329 = CALENDAR_DATE ( 2022, 8, 7 ) ;
#330 = EDGE_CURVE ( 'NONE', #317, #93, #310, .T. ) ;
#331 = UNCERTAINTY_MEASURE_WITH_UNIT (LENGTH_MEASURE( 1.000000000000000082E-05 ), #226, 'distance_accuracy_value', 'NONE');
#332 = AXIS2_PLACEMENT_3D ( 'NONE', #139, #166, #374 ) ;
#333 = DIRECTION ( 'NONE',  ( 1.000000000000000000, 0.000000000000000000, 0.000000000000000000 ) ) ;
#334 = DIRECTION ( 'NONE',  ( -0.000000000000000000, -0.000000000000000000, -1.000000000000000000 ) ) ;
#335 = LINE ( 'NONE', #187, #316 ) ;
#336 = CARTESIAN_POINT ( 'NONE',  ( -6.000000000000000888, 0.000000000000000000, 7.500000000000007105 ) ) ;
#337 = CIRCLE ( 'NONE', #107, 2.750000000000000000 ) ;
#338 = DIRECTION ( 'NONE',  ( 1.000000000000000000, 0.000000000000000000, 0.000000000000000000 ) ) ;
#339 = FACE_BOUND ( 'NONE', #27, .T. ) ;
#340 = LOCAL_TIME ( 17, 0, 45.00000000000000000, #363 ) ;
#341 = DIRECTION ( 'NONE',  ( 0.000000000000000000, 0.000000000000000000, -1.000000000000000000 ) ) ;
#342 = CC_DESIGN_PERSON_AND_ORGANIZATION_ASSIGNMENT ( #84, #322, ( #29 ) ) ;
#343 = DIRECTION ( 'NONE',  ( -0.000000000000000000, -0.000000000000000000, -1.000000000000000000 ) ) ;
#344 = FACE_OUTER_BOUND ( 'NONE', #293, .T. ) ;
#345 = EDGE_CURVE ( 'NONE', #358, #154, #21, .T. ) ;
#346 = SECURITY_CLASSIFICATION ( '', '', #124 ) ;
#347 = AXIS2_PLACEMENT_3D ( 'NONE', #185, #41, #247 ) ;
#348 = APPROVAL_PERSON_ORGANIZATION ( #208, #177, #113 ) ;
#349 = DIRECTION ( 'NONE',  ( 1.000000000000000000, 0.000000000000000000, 0.000000000000000000 ) ) ;
#350 = LINE ( 'NONE', #79, #212 ) ;
#351 = FACE_OUTER_BOUND ( 'NONE', #364, .T. ) ;
#352 = DIRECTION ( 'NONE',  ( 1.000000000000000000, 0.000000000000000000, -0.000000000000000000 ) ) ;
#353 = PLANE ( 'NONE',  #43 ) ;
#354 = PERSON_AND_ORGANIZATION_ROLE ( 'creator' ) ;
#355 = EDGE_LOOP ( 'NONE', ( #201, #240, #266, #206 ) ) ;
#356 = PERSON_AND_ORGANIZATION ( #48, #158 ) ;
#357 = EDGE_CURVE ( 'NONE', #116, #230, #239, .T. ) ;
#358 = VERTEX_POINT ( 'NONE', #312 ) ;
#359 = ADVANCED_FACE ( 'NONE', ( #344 ), #200, .T. ) ;
#360 = APPROVAL_STATUS ( 'not_yet_approved' ) ;
#361 = CIRCLE ( 'NONE', #297, 0.5000000000000004441 ) ;
#362 = ORIENTED_EDGE ( 'NONE', *, *, #13, .F. ) ;
#363 = COORDINATED_UNIVERSAL_TIME_OFFSET ( 1, 0, .AHEAD. ) ;
#364 = EDGE_LOOP ( 'NONE', ( #292, #362, #295, #181 ) ) ;
#365 = CALENDAR_DATE ( 2022, 8, 7 ) ;
#366 = DIRECTION ( 'NONE',  ( -0.000000000000000000, -0.000000000000000000, -1.000000000000000000 ) ) ;
#367 = DESIGN_CONTEXT ( 'detailed design', #222, 'design' ) ;
#368 = CARTESIAN_POINT ( 'NONE',  ( 0.000000000000000000, 0.000000000000000000, 357.0000000000000000 ) ) ;
#369 = DIRECTION ( 'NONE',  ( 1.000000000000000000, 0.000000000000000000, 0.000000000000000000 ) ) ;
#370 = CARTESIAN_POINT ( 'NONE',  ( 0.000000000000000000, 0.000000000000000000, 357.0000000000000000 ) ) ;
#371 = DIRECTION ( 'NONE',  ( 0.000000000000000000, 0.000000000000000000, 1.000000000000000000 ) ) ;
#372 = FACE_OUTER_BOUND ( 'NONE', #183, .T. ) ;
#373 = EDGE_CURVE ( 'NONE', #309, #321, #191, .T. ) ;
#374 = DIRECTION ( 'NONE',  ( 1.000000000000000000, 0.000000000000000000, 0.000000000000000000 ) ) ;
#375 = CIRCLE ( 'NONE', #35, 6.000000000000000888 ) ;
#376 = CARTESIAN_POINT ( 'NONE',  ( -10.00000000000000000, 0.000000000000000000, 7.000000000000000000 ) ) ;
#377 = PRODUCT_DEFINITION_FORMATION_WITH_SPECIFIED_SOURCE ( 'LIBOVOLNÝ', '', #29, .NOT_KNOWN. ) ;
#378 = DIRECTION ( 'NONE',  ( -0.000000000000000000, -0.000000000000000000, -1.000000000000000000 ) ) ;
#379 = CARTESIAN_POINT ( 'NONE',  ( 10.00000000000000000, 1.224646799147353256E-15, 0.000000000000000000 ) ) ;
#380 = ADVANCED_FACE ( 'NONE', ( #351 ), #197, .T. ) ;
#381 = CARTESIAN_POINT ( 'NONE',  ( -6.500000000000000888, 7.960204194457796463E-16, 7.000000000000002665 ) ) ;
ENDSEC;
END-ISO-10303-21;
