ISO-10303-21;
HEADER;
FILE_DESCRIPTION (( 'STEP AP203' ),
    '1' );
FILE_NAME ('a216.STEP',
    '2022-07-08T15:26:25',
    ( '' ),
    ( '' ),
    'SwSTEP 2.0',
    'SolidWorks 2019',
    '' );
FILE_SCHEMA (( 'CONFIG_CONTROL_DESIGN' ));
ENDSEC;

DATA;
#1 = FACE_BOUND ( 'NONE', #300, .T. ) ;
#2 = EDGE_LOOP ( 'NONE', ( #9, #27, #219, #4 ) ) ;
#3 = DIRECTION ( 'NONE',  ( 0.000000000000000000, 0.000000000000000000, -1.000000000000000000 ) ) ;
#4 = ORIENTED_EDGE ( 'NONE', *, *, #53, .T. ) ;
#5 = ORIENTED_EDGE ( 'NONE', *, *, #112, .T. ) ;
#6 = CIRCLE ( 'NONE', #331, 7.000000000000000000 ) ;
#7 = APPROVAL_PERSON_ORGANIZATION ( #29, #164, #377 ) ;
#8 = DIRECTION ( 'NONE',  ( -1.000000000000000000, 0.000000000000000000, 0.000000000000000000 ) ) ;
#9 = ORIENTED_EDGE ( 'NONE', *, *, #112, .F. ) ;
#10 = CARTESIAN_POINT ( 'NONE',  ( 2.100000000000000089, 2.571758278209441957E-16, 505.0000000000000000 ) ) ;
#11 = CIRCLE ( 'NONE', #354, 4.000000000000000000 ) ;
#12 = DIRECTION ( 'NONE',  ( 0.000000000000000000, 0.000000000000000000, 1.000000000000000000 ) ) ;
#13 = DIRECTION ( 'NONE',  ( 0.000000000000000000, 0.000000000000000000, 1.000000000000000000 ) ) ;
#14 =( LENGTH_UNIT ( ) NAMED_UNIT ( * ) SI_UNIT ( .MILLI., .METRE. ) );
#15 = AXIS2_PLACEMENT_3D ( 'NONE', #334, #365, #71 ) ;
#16 = EDGE_CURVE ( 'NONE', #109, #235, #122, .T. ) ;
#17 = CARTESIAN_POINT ( 'NONE',  ( 0.000000000000000000, 0.000000000000000000, 0.000000000000000000 ) ) ;
#18 = CIRCLE ( 'NONE', #172, 2.100000000000000089 ) ;
#19 = LOCAL_TIME ( 17, 26, 25.00000000000000000, #130 ) ;
#20 = APPROVAL_STATUS ( 'not_yet_approved' ) ;
#21 = DIRECTION ( 'NONE',  ( -1.000000000000000000, 0.000000000000000000, 0.000000000000000000 ) ) ;
#22 = EDGE_CURVE ( 'NONE', #327, #350, #11, .T. ) ;
#23 = DIRECTION ( 'NONE',  ( 0.000000000000000000, 0.000000000000000000, -1.000000000000000000 ) ) ;
#24 = VERTEX_POINT ( 'NONE', #362 ) ;
#25 = CC_DESIGN_PERSON_AND_ORGANIZATION_ASSIGNMENT ( #100, #340, ( #166 ) ) ;
#26 = CYLINDRICAL_SURFACE ( 'NONE', #270, 4.000000000000000000 ) ;
#27 = ORIENTED_EDGE ( 'NONE', *, *, #75, .T. ) ;
#28 = EDGE_CURVE ( 'NONE', #327, #24, #180, .T. ) ;
#29 = PERSON_AND_ORGANIZATION ( #194, #56 ) ;
#30 = AXIS2_PLACEMENT_3D ( 'NONE', #276, #99, #228 ) ;
#31 = DIRECTION ( 'NONE',  ( -0.000000000000000000, -0.000000000000000000, -1.000000000000000000 ) ) ;
#32 = CARTESIAN_POINT ( 'NONE',  ( -2.100000000000000089, 0.000000000000000000, 505.0000000000000000 ) ) ;
#33 = CIRCLE ( 'NONE', #363, 2.100000000000000089 ) ;
#34 = EDGE_LOOP ( 'NONE', ( #160, #51, #216, #136 ) ) ;
#35 = DIRECTION ( 'NONE',  ( -0.000000000000000000, -0.000000000000000000, -1.000000000000000000 ) ) ;
#36 = VERTEX_POINT ( 'NONE', #184 ) ;
#37 = ADVANCED_FACE ( 'NONE', ( #69 ), #303, .T. ) ;
#38 = FACE_BOUND ( 'NONE', #257, .T. ) ;
#39 = VERTEX_POINT ( 'NONE', #282 ) ;
#40 = DIRECTION ( 'NONE',  ( 1.000000000000000000, 0.000000000000000000, -0.000000000000000000 ) ) ;
#41 = EDGE_LOOP ( 'NONE', ( #314, #58 ) ) ;
#42 = AXIS2_PLACEMENT_3D ( 'NONE', #353, #202, #290 ) ;
#43 = CARTESIAN_POINT ( 'NONE',  ( 4.500000000000000888, 0.000000000000000000, 5.500000000000005329 ) ) ;
#44 = DIRECTION ( 'NONE',  ( 0.000000000000000000, -1.000000000000000000, 0.000000000000000000 ) ) ;
#45 = CARTESIAN_POINT ( 'NONE',  ( 0.000000000000000000, 0.000000000000000000, 5.000000000000000000 ) ) ;
#46 = EDGE_CURVE ( 'NONE', #319, #85, #234, .T. ) ;
#47 = DATE_AND_TIME ( #306, #295 ) ;
#48 = VECTOR ( 'NONE', #23, 1000.000000000000000 ) ;
#49 = CARTESIAN_POINT ( 'NONE',  ( 0.000000000000000000, 0.000000000000000000, 505.0000000000000000 ) ) ;
#50 = EDGE_CURVE ( 'NONE', #109, #327, #305, .T. ) ;
#51 = ORIENTED_EDGE ( 'NONE', *, *, #81, .F. ) ;
#52 = CARTESIAN_POINT ( 'NONE',  ( 4.000000000000000000, 4.898587196589412829E-16, 505.0000000000000000 ) ) ;
#53 = EDGE_CURVE ( 'NONE', #36, #323, #328, .T. ) ;
#54 = APPROVAL_DATE_TIME ( #336, #66 ) ;
#55 = DIRECTION ( 'NONE',  ( 1.000000000000000000, 0.000000000000000000, 0.000000000000000000 ) ) ;
#56 = ORGANIZATION ( 'NEURÈENÝ', 'NEURÈENÝ', '' ) ;
#57 = DIRECTION ( 'NONE',  ( 0.000000000000000000, 0.000000000000000000, -1.000000000000000000 ) ) ;
#58 = ORIENTED_EDGE ( 'NONE', *, *, #179, .T. ) ;
#59 = DIRECTION ( 'NONE',  ( 0.000000000000000000, 0.000000000000000000, 1.000000000000000000 ) ) ;
#60 = ORIENTED_EDGE ( 'NONE', *, *, #16, .F. ) ;
#61 = DIRECTION ( 'NONE',  ( 0.000000000000000000, 0.000000000000000000, -1.000000000000000000 ) ) ;
#62 = AXIS2_PLACEMENT_3D ( 'NONE', #298, #3, #8 ) ;
#63 = EDGE_CURVE ( 'NONE', #350, #327, #90, .T. ) ;
#64 = DIRECTION ( 'NONE',  ( 1.000000000000000000, 0.000000000000000000, -0.000000000000000000 ) ) ;
#65 = ORIENTED_EDGE ( 'NONE', *, *, #279, .T. ) ;
#66 = APPROVAL ( #20, 'NEURÈENÝ' ) ;
#67 = DIRECTION ( 'NONE',  ( 1.000000000000000000, 0.000000000000000000, 0.000000000000000000 ) ) ;
#68 = CARTESIAN_POINT ( 'NONE',  ( 0.000000000000000000, 0.000000000000000000, 5.500000000000005329 ) ) ;
#69 = FACE_OUTER_BOUND ( 'NONE', #34, .T. ) ;
#70 = AXIS2_PLACEMENT_3D ( 'NONE', #68, #13, #181 ) ;
#71 = DIRECTION ( 'NONE',  ( 1.000000000000000000, 0.000000000000000000, 0.000000000000000000 ) ) ;
#72 = APPLICATION_PROTOCOL_DEFINITION ( 'international standard', 'config_control_design', 1994, #242 ) ;
#73 = CARTESIAN_POINT ( 'NONE',  ( -4.500000000000000888, 5.510910596163089556E-16, 5.500000000000005329 ) ) ;
#74 =( NAMED_UNIT ( * ) PLANE_ANGLE_UNIT ( ) SI_UNIT ( $, .RADIAN. ) );
#75 = EDGE_CURVE ( 'NONE', #330, #209, #360, .T. ) ;
#76 = AXIS2_PLACEMENT_3D ( 'NONE', #43, #44, #61 ) ;
#77 = CARTESIAN_POINT ( 'NONE',  ( 7.000000000000000000, 8.572527594031473190E-16, 5.000000000000000000 ) ) ;
#78 = DIRECTION ( 'NONE',  ( 1.000000000000000000, 0.000000000000000000, 0.000000000000000000 ) ) ;
#79 = CARTESIAN_POINT ( 'NONE',  ( 0.000000000000000000, 0.000000000000000000, 5.000000000000000000 ) ) ;
#80 = ORIENTED_EDGE ( 'NONE', *, *, #50, .F. ) ;
#81 = EDGE_CURVE ( 'NONE', #39, #87, #245, .T. ) ;
#82 = LINE ( 'NONE', #177, #200 ) ;
#83 = DIRECTION ( 'NONE',  ( 0.000000000000000000, 0.000000000000000000, 1.000000000000000000 ) ) ;
#84 = ORIENTED_EDGE ( 'NONE', *, *, #50, .T. ) ;
#85 = VERTEX_POINT ( 'NONE', #341 ) ;
#86 = CARTESIAN_POINT ( 'NONE',  ( 4.500000000000000888, 0.000000000000000000, 5.000000000000002665 ) ) ;
#87 = VERTEX_POINT ( 'NONE', #77 ) ;
#88 = CARTESIAN_POINT ( 'NONE',  ( 0.000000000000000000, 0.000000000000000000, 5.500000000000005329 ) ) ;
#89 = ORIENTED_EDGE ( 'NONE', *, *, #53, .F. ) ;
#90 = CIRCLE ( 'NONE', #133, 4.000000000000000000 ) ;
#91 = CARTESIAN_POINT ( 'NONE',  ( 0.000000000000000000, 0.000000000000000000, 0.000000000000000000 ) ) ;
#92 = LOCAL_TIME ( 17, 26, 25.00000000000000000, #277 ) ;
#93 = CARTESIAN_POINT ( 'NONE',  ( -4.000000000000000000, 0.000000000000000000, 505.0000000000000000 ) ) ;
#94 = APPLICATION_PROTOCOL_DEFINITION ( 'international standard', 'config_control_design', 1994, #215 ) ;
#95 = CC_DESIGN_PERSON_AND_ORGANIZATION_ASSIGNMENT ( #351, #165, ( #166 ) ) ;
#96 = CC_DESIGN_SECURITY_CLASSIFICATION ( #120, ( #166 ) ) ;
#97 = PERSON_AND_ORGANIZATION ( #194, #56 ) ;
#98 = MANIFOLD_SOLID_BREP ( 'Odebrat vysunutím3', #119 ) ;
#99 = DIRECTION ( 'NONE',  ( 0.000000000000000000, 0.000000000000000000, 1.000000000000000000 ) ) ;
#100 = PERSON_AND_ORGANIZATION ( #194, #56 ) ;
#101 = DIRECTION ( 'NONE',  ( 0.000000000000000000, 0.000000000000000000, 1.000000000000000000 ) ) ;
#102 = ORIENTED_EDGE ( 'NONE', *, *, #28, .T. ) ;
#103 = CIRCLE ( 'NONE', #76, 0.5000000000000004441 ) ;
#104 = DIRECTION ( 'NONE',  ( 1.000000000000000000, 0.000000000000000000, 0.000000000000000000 ) ) ;
#105 = EDGE_CURVE ( 'NONE', #39, #85, #201, .T. ) ;
#106 = CALENDAR_DATE ( 2022, 8, 7 ) ;
#107 = VECTOR ( 'NONE', #223, 1000.000000000000000 ) ;
#108 = DIRECTION ( 'NONE',  ( -0.000000000000000000, -0.000000000000000000, -1.000000000000000000 ) ) ;
#109 = VERTEX_POINT ( 'NONE', #168 ) ;
#110 = DIRECTION ( 'NONE',  ( 1.000000000000000000, 0.000000000000000000, 0.000000000000000000 ) ) ;
#111 = AXIS2_PLACEMENT_3D ( 'NONE', #320, #345, #128 ) ;
#112 = EDGE_CURVE ( 'NONE', #330, #323, #318, .T. ) ;
#113 = DIRECTION ( 'NONE',  ( -0.000000000000000000, -0.000000000000000000, -1.000000000000000000 ) ) ;
#114 = CARTESIAN_POINT ( 'NONE',  ( 4.000000000000000000, 4.898587196589412829E-16, 5.500000000000005329 ) ) ;
#115 = ORIENTED_EDGE ( 'NONE', *, *, #63, .T. ) ;
#116 = AXIS2_PLACEMENT_3D ( 'NONE', #301, #361, #64 ) ;
#117 = ORIENTED_EDGE ( 'NONE', *, *, #263, .F. ) ;
#118 = FACE_OUTER_BOUND ( 'NONE', #308, .T. ) ;
#119 = CLOSED_SHELL ( 'NONE', ( #229, #379, #249, #213, #37, #307, #369, #338, #186, #287, #346 ) ) ;
#120 = SECURITY_CLASSIFICATION ( '', '', #373 ) ;
#121 = DIRECTION ( 'NONE',  ( 1.000000000000000000, 0.000000000000000000, 0.000000000000000000 ) ) ;
#122 = CIRCLE ( 'NONE', #348, 4.000000000000000000 ) ;
#123 = PERSON_AND_ORGANIZATION ( #194, #56 ) ;
#124 = DATE_TIME_ROLE ( 'creation_date' ) ;
#125 = APPROVAL_ROLE ( '' ) ;
#126 = CARTESIAN_POINT ( 'NONE',  ( 0.000000000000000000, 0.000000000000000000, 0.000000000000000000 ) ) ;
#127 = EDGE_LOOP ( 'NONE', ( #371, #139 ) ) ;
#128 = DIRECTION ( 'NONE',  ( -1.000000000000000000, 0.000000000000000000, 0.000000000000000000 ) ) ;
#129 = CARTESIAN_POINT ( 'NONE',  ( 0.000000000000000000, 0.000000000000000000, 505.0000000000000000 ) ) ;
#130 = COORDINATED_UNIVERSAL_TIME_OFFSET ( 1, 0, .AHEAD. ) ;
#131 = CARTESIAN_POINT ( 'NONE',  ( 0.000000000000000000, 0.000000000000000000, 505.0000000000000000 ) ) ;
#132 = ORIENTED_EDGE ( 'NONE', *, *, #149, .F. ) ;
#133 = AXIS2_PLACEMENT_3D ( 'NONE', #152, #191, #256 ) ;
#134 = SHAPE_DEFINITION_REPRESENTATION ( #271, #176 ) ;
#135 = CYLINDRICAL_SURFACE ( 'NONE', #111, 7.000000000000000000 ) ;
#136 = ORIENTED_EDGE ( 'NONE', *, *, #261, .T. ) ;
#137 = CARTESIAN_POINT ( 'NONE',  ( -2.100000000000000089, 0.000000000000000000, 505.0000000000000000 ) ) ;
#138 = AXIS2_PLACEMENT_3D ( 'NONE', #349, #59, #55 ) ;
#139 = ORIENTED_EDGE ( 'NONE', *, *, #206, .T. ) ;
#140 = CC_DESIGN_PERSON_AND_ORGANIZATION_ASSIGNMENT ( #309, #227, ( #291 ) ) ;
#141 = FACE_OUTER_BOUND ( 'NONE', #267, .T. ) ;
#142 = ORIENTED_EDGE ( 'NONE', *, *, #248, .F. ) ;
#143 = ORIENTED_EDGE ( 'NONE', *, *, #333, .F. ) ;
#144 = PRODUCT ( 'a216', 'a216', '', ( #366 ) ) ;
#145 = CARTESIAN_POINT ( 'NONE',  ( 0.000000000000000000, 0.000000000000000000, 0.000000000000000000 ) ) ;
#146 = CIRCLE ( 'NONE', #368, 4.500000000000000888 ) ;
#147 = DIRECTION ( 'NONE',  ( -0.000000000000000000, -0.000000000000000000, -1.000000000000000000 ) ) ;
#148 = DIRECTION ( 'NONE',  ( 1.000000000000000000, 0.000000000000000000, 0.000000000000000000 ) ) ;
#149 = EDGE_CURVE ( 'NONE', #209, #330, #18, .T. ) ;
#150 = CARTESIAN_POINT ( 'NONE',  ( 0.000000000000000000, 0.000000000000000000, 505.0000000000000000 ) ) ;
#151 = CALENDAR_DATE ( 2022, 8, 7 ) ;
#152 = CARTESIAN_POINT ( 'NONE',  ( 0.000000000000000000, 0.000000000000000000, 5.500000000000005329 ) ) ;
#153 = CC_DESIGN_DATE_AND_TIME_ASSIGNMENT ( #47, #124, ( #291 ) ) ;
#154 = PERSON_AND_ORGANIZATION_ROLE ( 'design_owner' ) ;
#155 = CIRCLE ( 'NONE', #253, 4.500000000000000888 ) ;
#156 = LOCAL_TIME ( 17, 26, 25.00000000000000000, #161 ) ;
#157 = PERSON_AND_ORGANIZATION ( #194, #56 ) ;
#158 = PERSON_AND_ORGANIZATION ( #194, #56 ) ;
#159 = DIRECTION ( 'NONE',  ( 1.000000000000000000, 0.000000000000000000, 0.000000000000000000 ) ) ;
#160 = ORIENTED_EDGE ( 'NONE', *, *, #279, .F. ) ;
#161 = COORDINATED_UNIVERSAL_TIME_OFFSET ( 1, 0, .AHEAD. ) ;
#162 = DIRECTION ( 'NONE',  ( -1.000000000000000000, 0.000000000000000000, 0.000000000000000000 ) ) ;
#163 = ORIENTED_EDGE ( 'NONE', *, *, #187, .T. ) ;
#164 = APPROVAL ( #239, 'NEURÈENÝ' ) ;
#165 = PERSON_AND_ORGANIZATION_ROLE ( 'design_supplier' ) ;
#166 = PRODUCT_DEFINITION_FORMATION_WITH_SPECIFIED_SOURCE ( 'LIBOVOLNÝ', '', #144, .NOT_KNOWN. ) ;
#167 = EDGE_LOOP ( 'NONE', ( #171, #5, #289, #142 ) ) ;
#168 = CARTESIAN_POINT ( 'NONE',  ( -4.000000000000000000, 0.000000000000000000, 505.0000000000000000 ) ) ;
#169 = DATE_TIME_ROLE ( 'classification_date' ) ;
#170 = AXIS2_PLACEMENT_3D ( 'NONE', #199, #101, #230 ) ;
#171 = ORIENTED_EDGE ( 'NONE', *, *, #149, .T. ) ;
#172 = AXIS2_PLACEMENT_3D ( 'NONE', #131, #83, #159 ) ;
#173 = DIRECTION ( 'NONE',  ( -0.000000000000000000, -0.000000000000000000, -1.000000000000000000 ) ) ;
#174 = CC_DESIGN_APPROVAL ( #247, ( #291 ) ) ;
#175 = ORIENTED_EDGE ( 'NONE', *, *, #293, .F. ) ;
#176 = ADVANCED_BREP_SHAPE_REPRESENTATION ( 'a216', ( #98, #266 ), #232 ) ;
#177 = CARTESIAN_POINT ( 'NONE',  ( 7.000000000000000000, 8.572527594031473190E-16, 5.000000000000000000 ) ) ;
#178 = ORIENTED_EDGE ( 'NONE', *, *, #63, .F. ) ;
#179 = EDGE_CURVE ( 'NONE', #235, #109, #357, .T. ) ;
#180 = CIRCLE ( 'NONE', #190, 0.5000000000000004441 ) ;
#181 = DIRECTION ( 'NONE',  ( 1.000000000000000000, 0.000000000000000000, 0.000000000000000000 ) ) ;
#182 = VECTOR ( 'NONE', #57, 1000.000000000000000 ) ;
#183 = CC_DESIGN_APPROVAL ( #66, ( #166 ) ) ;
#184 = CARTESIAN_POINT ( 'NONE',  ( -2.100000000000000089, 0.000000000000000000, 0.000000000000000000 ) ) ;
#185 = CARTESIAN_POINT ( 'NONE',  ( 2.100000000000000089, 2.571758278209441957E-16, 0.000000000000000000 ) ) ;
#186 = ADVANCED_FACE ( 'NONE', ( #1, #283 ), #288, .T. ) ;
#187 = EDGE_CURVE ( 'NONE', #235, #350, #208, .T. ) ;
#188 = DIRECTION ( 'NONE',  ( 1.000000000000000000, 0.000000000000000000, 0.000000000000000000 ) ) ;
#189 = APPROVAL_STATUS ( 'not_yet_approved' ) ;
#190 = AXIS2_PLACEMENT_3D ( 'NONE', #73, #274, #339 ) ;
#191 = DIRECTION ( 'NONE',  ( 0.000000000000000000, 0.000000000000000000, 1.000000000000000000 ) ) ;
#192 = AXIS2_PLACEMENT_3D ( 'NONE', #210, #313, #162 ) ;
#193 = DIRECTION ( 'NONE',  ( 0.000000000000000000, 0.000000000000000000, 1.000000000000000000 ) ) ;
#194 = PERSON ( 'NEURÈENÝ', 'NEURÈENÝ', 'NEURÈENÝ', ('NEURÈENÝ'), ('NEURÈENÝ'), ('NEURÈENÝ') ) ;
#195 =( NAMED_UNIT ( * ) SI_UNIT ( $, .STERADIAN. ) SOLID_ANGLE_UNIT ( ) );
#196 = ORIENTED_EDGE ( 'NONE', *, *, #293, .T. ) ;
#197 = DATE_AND_TIME ( #226, #221 ) ;
#198 = CC_DESIGN_PERSON_AND_ORGANIZATION_ASSIGNMENT ( #97, #154, ( #144 ) ) ;
#199 = CARTESIAN_POINT ( 'NONE',  ( 0.000000000000000000, 0.000000000000000000, 5.000000000000000000 ) ) ;
#200 = VECTOR ( 'NONE', #35, 1000.000000000000000 ) ;
#201 = LINE ( 'NONE', #311, #337 ) ;
#202 = DIRECTION ( 'NONE',  ( 0.000000000000000000, 0.000000000000000000, 1.000000000000000000 ) ) ;
#203 = CC_DESIGN_PERSON_AND_ORGANIZATION_ASSIGNMENT ( #158, #236, ( #120 ) ) ;
#204 = DIRECTION ( 'NONE',  ( -0.000000000000000000, -0.000000000000000000, -1.000000000000000000 ) ) ;
#205 = DATE_AND_TIME ( #106, #156 ) ;
#206 = EDGE_CURVE ( 'NONE', #24, #312, #146, .T. ) ;
#207 = ORIENTED_EDGE ( 'NONE', *, *, #206, .F. ) ;
#208 = LINE ( 'NONE', #52, #238 ) ;
#209 = VERTEX_POINT ( 'NONE', #32 ) ;
#210 = CARTESIAN_POINT ( 'NONE',  ( 0.000000000000000000, 0.000000000000000000, 505.0000000000000000 ) ) ;
#211 = EDGE_LOOP ( 'NONE', ( #214, #231 ) ) ;
#212 = APPROVAL_PERSON_ORGANIZATION ( #157, #66, #125 ) ;
#213 = ADVANCED_FACE ( 'NONE', ( #237 ), #135, .T. ) ;
#214 = ORIENTED_EDGE ( 'NONE', *, *, #261, .F. ) ;
#215 = APPLICATION_CONTEXT ( 'configuration controlled 3d designs of mechanical parts and assemblies' ) ;
#216 = ORIENTED_EDGE ( 'NONE', *, *, #105, .T. ) ;
#217 = PRODUCT_RELATED_PRODUCT_CATEGORY ( 'detail', '', ( #144 ) ) ;
#218 = AXIS2_PLACEMENT_3D ( 'NONE', #45, #273, #21 ) ;
#219 = ORIENTED_EDGE ( 'NONE', *, *, #248, .T. ) ;
#220 = DIRECTION ( 'NONE',  ( 0.000000000000000000, 0.000000000000000000, 1.000000000000000000 ) ) ;
#221 = LOCAL_TIME ( 17, 26, 25.00000000000000000, #367 ) ;
#222 = DIRECTION ( 'NONE',  ( 0.000000000000000000, 0.000000000000000000, 1.000000000000000000 ) ) ;
#223 = DIRECTION ( 'NONE',  ( -0.000000000000000000, -0.000000000000000000, -1.000000000000000000 ) ) ;
#224 = UNCERTAINTY_MEASURE_WITH_UNIT (LENGTH_MEASURE( 1.000000000000000082E-05 ), #14, 'distance_accuracy_value', 'NONE');
#225 = COORDINATED_UNIVERSAL_TIME_OFFSET ( 1, 0, .AHEAD. ) ;
#226 = CALENDAR_DATE ( 2022, 8, 7 ) ;
#227 = PERSON_AND_ORGANIZATION_ROLE ( 'creator' ) ;
#228 = DIRECTION ( 'NONE',  ( 1.000000000000000000, 0.000000000000000000, 0.000000000000000000 ) ) ;
#229 = ADVANCED_FACE ( 'NONE', ( #258 ), #264, .F. ) ;
#230 = DIRECTION ( 'NONE',  ( 1.000000000000000000, 0.000000000000000000, 0.000000000000000000 ) ) ;
#231 = ORIENTED_EDGE ( 'NONE', *, *, #46, .F. ) ;
#232 =( GEOMETRIC_REPRESENTATION_CONTEXT ( 3 ) GLOBAL_UNCERTAINTY_ASSIGNED_CONTEXT ( ( #224 ) ) GLOBAL_UNIT_ASSIGNED_CONTEXT ( ( #14, #74, #195 ) ) REPRESENTATION_CONTEXT ( 'NONE', 'WORKASPACE' ) );
#233 = DIRECTION ( 'NONE',  ( 0.000000000000000000, 0.000000000000000000, 1.000000000000000000 ) ) ;
#234 = CIRCLE ( 'NONE', #15, 7.000000000000000000 ) ;
#235 = VERTEX_POINT ( 'NONE', #292 ) ;
#236 = PERSON_AND_ORGANIZATION_ROLE ( 'classification_officer' ) ;
#237 = FACE_OUTER_BOUND ( 'NONE', #355, .T. ) ;
#238 = VECTOR ( 'NONE', #108, 1000.000000000000000 ) ;
#239 = APPROVAL_STATUS ( 'not_yet_approved' ) ;
#240 = CARTESIAN_POINT ( 'NONE',  ( 0.000000000000000000, 0.000000000000000000, 505.0000000000000000 ) ) ;
#241 = ORIENTED_EDGE ( 'NONE', *, *, #22, .F. ) ;
#242 = APPLICATION_CONTEXT ( 'configuration controlled 3d designs of mechanical parts and assemblies' ) ;
#243 = PLANE ( 'NONE',  #302 ) ;
#244 = CC_DESIGN_DATE_AND_TIME_ASSIGNMENT ( #205, #169, ( #120 ) ) ;
#245 = CIRCLE ( 'NONE', #170, 7.000000000000000000 ) ;
#246 = DIRECTION ( 'NONE',  ( -0.000000000000000000, -0.000000000000000000, -1.000000000000000000 ) ) ;
#247 = APPROVAL ( #189, 'NEURÈENÝ' ) ;
#248 = EDGE_CURVE ( 'NONE', #209, #36, #347, .T. ) ;
#249 = ADVANCED_FACE ( 'NONE', ( #284 ), #26, .T. ) ;
#250 = DESIGN_CONTEXT ( 'detailed design', #215, 'design' ) ;
#251 = APPROVAL_ROLE ( '' ) ;
#252 = AXIS2_PLACEMENT_3D ( 'NONE', #240, #233, #378 ) ;
#253 = AXIS2_PLACEMENT_3D ( 'NONE', #79, #204, #110 ) ;
#254 = APPROVAL_DATE_TIME ( #197, #247 ) ;
#255 = CARTESIAN_POINT ( 'NONE',  ( 0.000000000000000000, 0.000000000000000000, 5.500000000000005329 ) ) ;
#256 = DIRECTION ( 'NONE',  ( 1.000000000000000000, 0.000000000000000000, 0.000000000000000000 ) ) ;
#257 = EDGE_LOOP ( 'NONE', ( #89, #143 ) ) ;
#258 = FACE_OUTER_BOUND ( 'NONE', #167, .T. ) ;
#259 = CC_DESIGN_APPROVAL ( #164, ( #120 ) ) ;
#260 = DIRECTION ( 'NONE',  ( -1.000000000000000000, 0.000000000000000000, 0.000000000000000000 ) ) ;
#261 = EDGE_CURVE ( 'NONE', #85, #319, #6, .T. ) ;
#262 = AXIS2_PLACEMENT_3D ( 'NONE', #126, #310, #335 ) ;
#263 = EDGE_CURVE ( 'NONE', #312, #24, #155, .T. ) ;
#264 = CYLINDRICAL_SURFACE ( 'NONE', #192, 2.100000000000000089 ) ;
#265 = ORIENTED_EDGE ( 'NONE', *, *, #28, .F. ) ;
#266 = AXIS2_PLACEMENT_3D ( 'NONE', #17, #193, #121 ) ;
#267 = EDGE_LOOP ( 'NONE', ( #281, #381 ) ) ;
#268 = FACE_OUTER_BOUND ( 'NONE', #359, .T. ) ;
#269 = FACE_OUTER_BOUND ( 'NONE', #211, .T. ) ;
#270 = AXIS2_PLACEMENT_3D ( 'NONE', #129, #113, #260 ) ;
#271 = PRODUCT_DEFINITION_SHAPE ( 'NONE', 'NONE',  #291 ) ;
#272 = CARTESIAN_POINT ( 'NONE',  ( 7.000000000000000000, 8.572527594031473190E-16, 0.000000000000000000 ) ) ;
#273 = DIRECTION ( 'NONE',  ( -0.000000000000000000, -0.000000000000000000, -1.000000000000000000 ) ) ;
#274 = DIRECTION ( 'NONE',  ( 1.224646799147353207E-16, 1.000000000000000000, -0.000000000000000000 ) ) ;
#275 = TOROIDAL_SURFACE ( 'NONE', #342, 4.500000000000000888, 0.5000000000000000000 ) ;
#276 = CARTESIAN_POINT ( 'NONE',  ( 0.000000000000000000, 0.000000000000000000, 505.0000000000000000 ) ) ;
#277 = COORDINATED_UNIVERSAL_TIME_OFFSET ( 1, 0, .AHEAD. ) ;
#278 = EDGE_CURVE ( 'NONE', #87, #39, #280, .T. ) ;
#279 = EDGE_CURVE ( 'NONE', #87, #319, #82, .T. ) ;
#280 = CIRCLE ( 'NONE', #138, 7.000000000000000000 ) ;
#281 = ORIENTED_EDGE ( 'NONE', *, *, #81, .T. ) ;
#282 = CARTESIAN_POINT ( 'NONE',  ( -7.000000000000000000, 0.000000000000000000, 5.000000000000000000 ) ) ;
#283 = FACE_OUTER_BOUND ( 'NONE', #41, .T. ) ;
#284 = FACE_OUTER_BOUND ( 'NONE', #297, .T. ) ;
#285 = ORIENTED_EDGE ( 'NONE', *, *, #75, .F. ) ;
#286 = AXIS2_PLACEMENT_3D ( 'NONE', #150, #246, #304 ) ;
#287 = ADVANCED_FACE ( 'NONE', ( #329 ), #374, .F. ) ;
#288 = PLANE ( 'NONE',  #42 ) ;
#289 = ORIENTED_EDGE ( 'NONE', *, *, #333, .T. ) ;
#290 = DIRECTION ( 'NONE',  ( 1.000000000000000000, 0.000000000000000000, -0.000000000000000000 ) ) ;
#291 = PRODUCT_DEFINITION ( 'NEZNÁMÝ', '', #166, #250 ) ;
#292 = CARTESIAN_POINT ( 'NONE',  ( 4.000000000000000000, 4.898587196589412829E-16, 505.0000000000000000 ) ) ;
#293 = EDGE_CURVE ( 'NONE', #350, #312, #103, .T. ) ;
#294 = ORIENTED_EDGE ( 'NONE', *, *, #105, .F. ) ;
#295 = LOCAL_TIME ( 17, 26, 25.00000000000000000, #225 ) ;
#296 = DIRECTION ( 'NONE',  ( 1.000000000000000000, 0.000000000000000000, 0.000000000000000000 ) ) ;
#297 = EDGE_LOOP ( 'NONE', ( #299, #163, #115, #80 ) ) ;
#298 = CARTESIAN_POINT ( 'NONE',  ( 0.000000000000000000, 0.000000000000000000, 505.0000000000000000 ) ) ;
#299 = ORIENTED_EDGE ( 'NONE', *, *, #179, .F. ) ;
#300 = EDGE_LOOP ( 'NONE', ( #132, #285 ) ) ;
#301 = CARTESIAN_POINT ( 'NONE',  ( 0.000000000000000000, 0.000000000000000000, 5.000000000000000000 ) ) ;
#302 = AXIS2_PLACEMENT_3D ( 'NONE', #145, #220, #40 ) ;
#303 = CYLINDRICAL_SURFACE ( 'NONE', #218, 7.000000000000000000 ) ;
#304 = DIRECTION ( 'NONE',  ( -1.000000000000000000, 0.000000000000000000, 0.000000000000000000 ) ) ;
#305 = LINE ( 'NONE', #93, #107 ) ;
#306 = CALENDAR_DATE ( 2022, 8, 7 ) ;
#307 = ADVANCED_FACE ( 'NONE', ( #322, #141 ), #356, .T. ) ;
#308 = EDGE_LOOP ( 'NONE', ( #241, #102, #117, #175 ) ) ;
#309 = PERSON_AND_ORGANIZATION ( #194, #56 ) ;
#310 = DIRECTION ( 'NONE',  ( -0.000000000000000000, -0.000000000000000000, -1.000000000000000000 ) ) ;
#311 = CARTESIAN_POINT ( 'NONE',  ( -7.000000000000000000, 0.000000000000000000, 5.000000000000000000 ) ) ;
#312 = VERTEX_POINT ( 'NONE', #86 ) ;
#313 = DIRECTION ( 'NONE',  ( 0.000000000000000000, 0.000000000000000000, -1.000000000000000000 ) ) ;
#314 = ORIENTED_EDGE ( 'NONE', *, *, #16, .T. ) ;
#315 = CARTESIAN_POINT ( 'NONE',  ( 0.000000000000000000, 0.000000000000000000, 5.000000000000000000 ) ) ;
#316 = APPROVAL_PERSON_ORGANIZATION ( #123, #247, #251 ) ;
#317 = APPROVAL_DATE_TIME ( #344, #164 ) ;
#318 = LINE ( 'NONE', #352, #182 ) ;
#319 = VERTEX_POINT ( 'NONE', #272 ) ;
#320 = CARTESIAN_POINT ( 'NONE',  ( 0.000000000000000000, 0.000000000000000000, 5.000000000000000000 ) ) ;
#321 = ORIENTED_EDGE ( 'NONE', *, *, #278, .F. ) ;
#322 = FACE_BOUND ( 'NONE', #127, .T. ) ;
#323 = VERTEX_POINT ( 'NONE', #185 ) ;
#324 = CYLINDRICAL_SURFACE ( 'NONE', #286, 4.000000000000000000 ) ;
#325 = ORIENTED_EDGE ( 'NONE', *, *, #22, .T. ) ;
#326 = DIRECTION ( 'NONE',  ( 0.000000000000000000, 0.000000000000000000, 1.000000000000000000 ) ) ;
#327 = VERTEX_POINT ( 'NONE', #332 ) ;
#328 = CIRCLE ( 'NONE', #262, 2.100000000000000089 ) ;
#329 = FACE_OUTER_BOUND ( 'NONE', #372, .T. ) ;
#330 = VERTEX_POINT ( 'NONE', #10 ) ;
#331 = AXIS2_PLACEMENT_3D ( 'NONE', #376, #380, #104 ) ;
#332 = CARTESIAN_POINT ( 'NONE',  ( -4.000000000000000000, 0.000000000000000000, 5.500000000000005329 ) ) ;
#333 = EDGE_CURVE ( 'NONE', #323, #36, #33, .T. ) ;
#334 = CARTESIAN_POINT ( 'NONE',  ( 0.000000000000000000, 0.000000000000000000, 0.000000000000000000 ) ) ;
#335 = DIRECTION ( 'NONE',  ( 1.000000000000000000, 0.000000000000000000, 0.000000000000000000 ) ) ;
#336 = DATE_AND_TIME ( #151, #92 ) ;
#337 = VECTOR ( 'NONE', #147, 1000.000000000000000 ) ;
#338 = ADVANCED_FACE ( 'NONE', ( #268 ), #324, .T. ) ;
#339 = DIRECTION ( 'NONE',  ( -1.000000000000000000, 1.224646799147351482E-16, 0.000000000000000000 ) ) ;
#340 = PERSON_AND_ORGANIZATION_ROLE ( 'creator' ) ;
#341 = CARTESIAN_POINT ( 'NONE',  ( -7.000000000000000000, 0.000000000000000000, 0.000000000000000000 ) ) ;
#342 = AXIS2_PLACEMENT_3D ( 'NONE', #88, #326, #67 ) ;
#343 = ORIENTED_EDGE ( 'NONE', *, *, #187, .F. ) ;
#344 = DATE_AND_TIME ( #375, #19 ) ;
#345 = DIRECTION ( 'NONE',  ( -0.000000000000000000, -0.000000000000000000, -1.000000000000000000 ) ) ;
#346 = ADVANCED_FACE ( 'NONE', ( #358 ), #364, .F. ) ;
#347 = LINE ( 'NONE', #137, #48 ) ;
#348 = AXIS2_PLACEMENT_3D ( 'NONE', #49, #12, #188 ) ;
#349 = CARTESIAN_POINT ( 'NONE',  ( 0.000000000000000000, 0.000000000000000000, 5.000000000000000000 ) ) ;
#350 = VERTEX_POINT ( 'NONE', #114 ) ;
#351 = PERSON_AND_ORGANIZATION ( #194, #56 ) ;
#352 = CARTESIAN_POINT ( 'NONE',  ( 2.100000000000000089, 2.571758278209441957E-16, 505.0000000000000000 ) ) ;
#353 = CARTESIAN_POINT ( 'NONE',  ( 0.000000000000000000, 0.000000000000000000, 505.0000000000000000 ) ) ;
#354 = AXIS2_PLACEMENT_3D ( 'NONE', #255, #222, #148 ) ;
#355 = EDGE_LOOP ( 'NONE', ( #321, #65, #370, #294 ) ) ;
#356 = PLANE ( 'NONE',  #116 ) ;
#357 = CIRCLE ( 'NONE', #252, 4.000000000000000000 ) ;
#358 = FACE_OUTER_BOUND ( 'NONE', #2, .T. ) ;
#359 = EDGE_LOOP ( 'NONE', ( #343, #60, #84, #325 ) ) ;
#360 = CIRCLE ( 'NONE', #30, 2.100000000000000089 ) ;
#361 = DIRECTION ( 'NONE',  ( 0.000000000000000000, 0.000000000000000000, 1.000000000000000000 ) ) ;
#362 = CARTESIAN_POINT ( 'NONE',  ( -4.500000000000000888, 5.510910596163088569E-16, 5.000000000000002665 ) ) ;
#363 = AXIS2_PLACEMENT_3D ( 'NONE', #91, #173, #296 ) ;
#364 = CYLINDRICAL_SURFACE ( 'NONE', #62, 2.100000000000000089 ) ;
#365 = DIRECTION ( 'NONE',  ( 0.000000000000000000, 0.000000000000000000, 1.000000000000000000 ) ) ;
#366 = MECHANICAL_CONTEXT ( 'NONE', #242, 'mechanical' ) ;
#367 = COORDINATED_UNIVERSAL_TIME_OFFSET ( 1, 0, .AHEAD. ) ;
#368 = AXIS2_PLACEMENT_3D ( 'NONE', #315, #31, #78 ) ;
#369 = ADVANCED_FACE ( 'NONE', ( #38, #269 ), #243, .F. ) ;
#370 = ORIENTED_EDGE ( 'NONE', *, *, #46, .T. ) ;
#371 = ORIENTED_EDGE ( 'NONE', *, *, #263, .T. ) ;
#372 = EDGE_LOOP ( 'NONE', ( #265, #178, #196, #207 ) ) ;
#373 = SECURITY_CLASSIFICATION_LEVEL ( 'unclassified' ) ;
#374 = TOROIDAL_SURFACE ( 'NONE', #70, 4.500000000000000888, 0.5000000000000000000 ) ;
#375 = CALENDAR_DATE ( 2022, 8, 7 ) ;
#376 = CARTESIAN_POINT ( 'NONE',  ( 0.000000000000000000, 0.000000000000000000, 0.000000000000000000 ) ) ;
#377 = APPROVAL_ROLE ( '' ) ;
#378 = DIRECTION ( 'NONE',  ( 1.000000000000000000, 0.000000000000000000, 0.000000000000000000 ) ) ;
#379 = ADVANCED_FACE ( 'NONE', ( #118 ), #275, .F. ) ;
#380 = DIRECTION ( 'NONE',  ( 0.000000000000000000, 0.000000000000000000, 1.000000000000000000 ) ) ;
#381 = ORIENTED_EDGE ( 'NONE', *, *, #278, .T. ) ;
ENDSEC;
END-ISO-10303-21;
