ISO-10303-21;
HEADER;
FILE_DESCRIPTION (( 'STEP AP203' ),
    '1' );
FILE_NAME ('e2ad.STEP',
    '2022-07-08T15:43:52',
    ( '' ),
    ( '' ),
    'SwSTEP 2.0',
    'SolidWorks 2019',
    '' );
FILE_SCHEMA (( 'CONFIG_CONTROL_DESIGN' ));
ENDSEC;

DATA;
#1 = DIRECTION ( 'NONE',  ( -1.000000000000000000, 0.000000000000000000, 0.000000000000000000 ) ) ;
#2 = DIRECTION ( 'NONE',  ( -1.000000000000000000, 0.000000000000000000, 0.000000000000000000 ) ) ;
#3 = PRODUCT_DEFINITION_SHAPE ( 'NONE', 'NONE',  #141 ) ;
#4 = DIRECTION ( 'NONE',  ( 0.000000000000000000, 0.000000000000000000, 1.000000000000000000 ) ) ;
#5 = VECTOR ( 'NONE', #184, 1000.000000000000000 ) ;
#6 = VERTEX_POINT ( 'NONE', #221 ) ;
#7 = EDGE_CURVE ( 'NONE', #6, #332, #357, .T. ) ;
#8 = CARTESIAN_POINT ( 'NONE',  ( 0.000000000000000000, 0.000000000000000000, 0.000000000000000000 ) ) ;
#9 = VERTEX_POINT ( 'NONE', #38 ) ;
#10 = CIRCLE ( 'NONE', #235, 2.799999999999999822 ) ;
#11 = DIRECTION ( 'NONE',  ( 0.000000000000000000, 0.000000000000000000, -1.000000000000000000 ) ) ;
#12 = ORIENTED_EDGE ( 'NONE', *, *, #97, .T. ) ;
#13 = EDGE_LOOP ( 'NONE', ( #278, #102 ) ) ;
#14 = EDGE_CURVE ( 'NONE', #244, #313, #333, .T. ) ;
#15 = CC_DESIGN_SECURITY_CLASSIFICATION ( #206, ( #183 ) ) ;
#16 = ORIENTED_EDGE ( 'NONE', *, *, #41, .T. ) ;
#17 = PERSON_AND_ORGANIZATION ( #182, #237 ) ;
#18 = EDGE_LOOP ( 'NONE', ( #285, #49, #172, #274 ) ) ;
#19 = PERSON_AND_ORGANIZATION ( #182, #237 ) ;
#20 = AXIS2_PLACEMENT_3D ( 'NONE', #68, #159, #250 ) ;
#21 = CYLINDRICAL_SURFACE ( 'NONE', #158, 5.000000000000000000 ) ;
#22 = ORIENTED_EDGE ( 'NONE', *, *, #28, .F. ) ;
#23 = APPROVAL_DATE_TIME ( #279, #311 ) ;
#24 = CARTESIAN_POINT ( 'NONE',  ( 0.000000000000000000, 0.000000000000000000, 3.000000000000000000 ) ) ;
#25 = TOROIDAL_SURFACE ( 'NONE', #241, 2.799999999999999822, 0.2999999999999999889 ) ;
#26 = CARTESIAN_POINT ( 'NONE',  ( 5.000000000000000000, 6.123233995736766282E-16, 3.000000000000000000 ) ) ;
#27 = FACE_BOUND ( 'NONE', #283, .T. ) ;
#28 = EDGE_CURVE ( 'NONE', #226, #166, #94, .T. ) ;
#29 = CIRCLE ( 'NONE', #136, 1.500000000000000222 ) ;
#30 = CYLINDRICAL_SURFACE ( 'NONE', #114, 1.500000000000000222 ) ;
#31 = DIRECTION ( 'NONE',  ( 1.000000000000000000, 0.000000000000000000, 0.000000000000000000 ) ) ;
#32 = AXIS2_PLACEMENT_3D ( 'NONE', #232, #83, #349 ) ;
#33 = CIRCLE ( 'NONE', #277, 5.000000000000000000 ) ;
#34 = LINE ( 'NONE', #95, #87 ) ;
#35 = EDGE_LOOP ( 'NONE', ( #98, #253, #65, #80 ) ) ;
#36 = CARTESIAN_POINT ( 'NONE',  ( -2.500000000000000000, 0.000000000000000000, 3.300000000000025135 ) ) ;
#37 = EDGE_CURVE ( 'NONE', #313, #244, #163, .T. ) ;
#38 = CARTESIAN_POINT ( 'NONE',  ( 1.500000000000000222, 1.836970198721029934E-16, 453.0000000000000000 ) ) ;
#39 =( NAMED_UNIT ( * ) PLANE_ANGLE_UNIT ( ) SI_UNIT ( $, .RADIAN. ) );
#40 = DIRECTION ( 'NONE',  ( 1.000000000000000000, 0.000000000000000000, 0.000000000000000000 ) ) ;
#41 = EDGE_CURVE ( 'NONE', #313, #332, #195, .T. ) ;
#42 = AXIS2_PLACEMENT_3D ( 'NONE', #53, #46, #261 ) ;
#43 = PERSON_AND_ORGANIZATION_ROLE ( 'design_supplier' ) ;
#44 = VERTEX_POINT ( 'NONE', #119 ) ;
#45 = CALENDAR_DATE ( 2022, 8, 7 ) ;
#46 = DIRECTION ( 'NONE',  ( 0.000000000000000000, 0.000000000000000000, 1.000000000000000000 ) ) ;
#47 = EDGE_LOOP ( 'NONE', ( #134, #129 ) ) ;
#48 = CALENDAR_DATE ( 2022, 8, 7 ) ;
#49 = ORIENTED_EDGE ( 'NONE', *, *, #125, .T. ) ;
#50 = SECURITY_CLASSIFICATION_LEVEL ( 'unclassified' ) ;
#51 = CARTESIAN_POINT ( 'NONE',  ( 5.000000000000000000, 6.123233995736766282E-16, 0.000000000000000000 ) ) ;
#52 = DATE_AND_TIME ( #48, #148 ) ;
#53 = CARTESIAN_POINT ( 'NONE',  ( 0.000000000000000000, 0.000000000000000000, 0.000000000000000000 ) ) ;
#54 = CIRCLE ( 'NONE', #167, 1.500000000000000222 ) ;
#55 = DESIGN_CONTEXT ( 'detailed design', #121, 'design' ) ;
#56 = FACE_OUTER_BOUND ( 'NONE', #162, .T. ) ;
#57 = ADVANCED_FACE ( 'NONE', ( #56 ), #21, .T. ) ;
#58 = DIRECTION ( 'NONE',  ( 0.000000000000000000, 0.000000000000000000, 1.000000000000000000 ) ) ;
#59 = CC_DESIGN_APPROVAL ( #311, ( #183 ) ) ;
#60 = CARTESIAN_POINT ( 'NONE',  ( 0.000000000000000000, 0.000000000000000000, 3.000000000000000000 ) ) ;
#61 = DIRECTION ( 'NONE',  ( 1.000000000000000000, 0.000000000000000000, -0.000000000000000000 ) ) ;
#62 = CARTESIAN_POINT ( 'NONE',  ( -5.000000000000000000, 0.000000000000000000, 0.000000000000000000 ) ) ;
#63 = CARTESIAN_POINT ( 'NONE',  ( 5.000000000000000000, 6.123233995736766282E-16, 3.000000000000000000 ) ) ;
#64 = PRODUCT ( 'e2ad', 'e2ad', '', ( #340 ) ) ;
#65 = ORIENTED_EDGE ( 'NONE', *, *, #288, .T. ) ;
#66 = APPLICATION_CONTEXT ( 'configuration controlled 3d designs of mechanical parts and assemblies' ) ;
#67 = EDGE_CURVE ( 'NONE', #6, #217, #247, .T. ) ;
#68 = CARTESIAN_POINT ( 'NONE',  ( 0.000000000000000000, 0.000000000000000000, 453.0000000000000000 ) ) ;
#69 = LINE ( 'NONE', #63, #325 ) ;
#70 = EDGE_LOOP ( 'NONE', ( #71, #248 ) ) ;
#71 = ORIENTED_EDGE ( 'NONE', *, *, #271, .F. ) ;
#72 = DIRECTION ( 'NONE',  ( 1.000000000000000000, 0.000000000000000000, 0.000000000000000000 ) ) ;
#73 = PERSON_AND_ORGANIZATION ( #182, #237 ) ;
#74 = DIRECTION ( 'NONE',  ( -0.000000000000000000, -0.000000000000000000, -1.000000000000000000 ) ) ;
#75 = VERTEX_POINT ( 'NONE', #51 ) ;
#76 = PERSON_AND_ORGANIZATION ( #182, #237 ) ;
#77 = AXIS2_PLACEMENT_3D ( 'NONE', #186, #152, #93 ) ;
#78 = CIRCLE ( 'NONE', #320, 1.500000000000000222 ) ;
#79 = FACE_OUTER_BOUND ( 'NONE', #193, .T. ) ;
#80 = ORIENTED_EDGE ( 'NONE', *, *, #343, .T. ) ;
#81 = COORDINATED_UNIVERSAL_TIME_OFFSET ( 1, 0, .AHEAD. ) ;
#82 = EDGE_CURVE ( 'NONE', #135, #217, #10, .T. ) ;
#83 = DIRECTION ( 'NONE',  ( 0.000000000000000000, 0.000000000000000000, 1.000000000000000000 ) ) ;
#84 = DATE_AND_TIME ( #109, #291 ) ;
#85 = MANIFOLD_SOLID_BREP ( 'Odebrat vysunutím3', #108 ) ;
#86 = CARTESIAN_POINT ( 'NONE',  ( 2.799999999999999822, 0.000000000000000000, 3.300000000000025135 ) ) ;
#87 = VECTOR ( 'NONE', #194, 1000.000000000000000 ) ;
#88 = EDGE_CURVE ( 'NONE', #75, #228, #376, .T. ) ;
#89 = FACE_OUTER_BOUND ( 'NONE', #342, .T. ) ;
#90 = DIRECTION ( 'NONE',  ( 1.000000000000000000, 0.000000000000000000, -0.000000000000000000 ) ) ;
#91 = FACE_BOUND ( 'NONE', #219, .T. ) ;
#92 = CARTESIAN_POINT ( 'NONE',  ( 0.000000000000000000, 0.000000000000000000, 3.000000000000000000 ) ) ;
#93 = DIRECTION ( 'NONE',  ( 1.000000000000000000, 0.000000000000000000, 0.000000000000000000 ) ) ;
#94 = CIRCLE ( 'NONE', #323, 5.000000000000000000 ) ;
#95 = CARTESIAN_POINT ( 'NONE',  ( -1.500000000000000222, 0.000000000000000000, 453.0000000000000000 ) ) ;
#96 = AXIS2_PLACEMENT_3D ( 'NONE', #360, #354, #2 ) ;
#97 = EDGE_CURVE ( 'NONE', #332, #135, #263, .T. ) ;
#98 = ORIENTED_EDGE ( 'NONE', *, *, #328, .F. ) ;
#99 = EDGE_LOOP ( 'NONE', ( #200, #142, #362, #127 ) ) ;
#100 = VECTOR ( 'NONE', #165, 1000.000000000000000 ) ;
#101 = DIRECTION ( 'NONE',  ( -1.000000000000000000, 0.000000000000000000, 0.000000000000000000 ) ) ;
#102 = ORIENTED_EDGE ( 'NONE', *, *, #372, .F. ) ;
#103 = AXIS2_PLACEMENT_3D ( 'NONE', #60, #149, #31 ) ;
#104 = ORIENTED_EDGE ( 'NONE', *, *, #67, .F. ) ;
#105 = ORIENTED_EDGE ( 'NONE', *, *, #318, .F. ) ;
#106 = DIRECTION ( 'NONE',  ( 1.000000000000000000, 0.000000000000000000, 0.000000000000000000 ) ) ;
#107 = ORIENTED_EDGE ( 'NONE', *, *, #37, .T. ) ;
#108 = CLOSED_SHELL ( 'NONE', ( #282, #238, #297, #181, #57, #196, #249, #185, #155, #150, #264 ) ) ;
#109 = CALENDAR_DATE ( 2022, 8, 7 ) ;
#110 = DIRECTION ( 'NONE',  ( 1.224646799147353207E-16, 1.000000000000000000, -0.000000000000000000 ) ) ;
#111 = ORIENTED_EDGE ( 'NONE', *, *, #67, .T. ) ;
#112 = EDGE_CURVE ( 'NONE', #275, #9, #29, .T. ) ;
#113 = APPLICATION_PROTOCOL_DEFINITION ( 'international standard', 'config_control_design', 1994, #121 ) ;
#114 = AXIS2_PLACEMENT_3D ( 'NONE', #151, #268, #1 ) ;
#115 = CARTESIAN_POINT ( 'NONE',  ( -1.500000000000000222, 0.000000000000000000, 0.000000000000000000 ) ) ;
#116 = ORIENTED_EDGE ( 'NONE', *, *, #97, .F. ) ;
#117 = DIRECTION ( 'NONE',  ( 0.000000000000000000, -1.000000000000000000, 0.000000000000000000 ) ) ;
#118 = PERSON_AND_ORGANIZATION ( #182, #237 ) ;
#119 = CARTESIAN_POINT ( 'NONE',  ( 1.500000000000000222, 1.836970198721029934E-16, 0.000000000000000000 ) ) ;
#120 = CC_DESIGN_DATE_AND_TIME_ASSIGNMENT ( #84, #350, ( #141 ) ) ;
#121 = APPLICATION_CONTEXT ( 'configuration controlled 3d designs of mechanical parts and assemblies' ) ;
#122 = AXIS2_PLACEMENT_3D ( 'NONE', #207, #234, #260 ) ;
#123 = DIRECTION ( 'NONE',  ( 0.000000000000000000, 0.000000000000000000, 1.000000000000000000 ) ) ;
#124 = DIRECTION ( 'NONE',  ( -0.000000000000000000, -0.000000000000000000, -1.000000000000000000 ) ) ;
#125 = EDGE_CURVE ( 'NONE', #244, #6, #373, .T. ) ;
#126 = CARTESIAN_POINT ( 'NONE',  ( 0.000000000000000000, 0.000000000000000000, 0.000000000000000000 ) ) ;
#127 = ORIENTED_EDGE ( 'NONE', *, *, #288, .F. ) ;
#128 = CIRCLE ( 'NONE', #103, 5.000000000000000000 ) ;
#129 = ORIENTED_EDGE ( 'NONE', *, *, #218, .T. ) ;
#130 = DIRECTION ( 'NONE',  ( 0.000000000000000000, 0.000000000000000000, 1.000000000000000000 ) ) ;
#131 = CARTESIAN_POINT ( 'NONE',  ( 0.000000000000000000, 0.000000000000000000, 3.300000000000025135 ) ) ;
#132 = AXIS2_PLACEMENT_3D ( 'NONE', #86, #117, #257 ) ;
#133 = CARTESIAN_POINT ( 'NONE',  ( 0.000000000000000000, 0.000000000000000000, 0.000000000000000000 ) ) ;
#134 = ORIENTED_EDGE ( 'NONE', *, *, #28, .T. ) ;
#135 = VERTEX_POINT ( 'NONE', #308 ) ;
#136 = AXIS2_PLACEMENT_3D ( 'NONE', #178, #312, #289 ) ;
#137 = LOCAL_TIME ( 17, 43, 52.00000000000000000, #174 ) ;
#138 = ORIENTED_EDGE ( 'NONE', *, *, #82, .T. ) ;
#139 = ORIENTED_EDGE ( 'NONE', *, *, #218, .F. ) ;
#140 = PERSON_AND_ORGANIZATION_ROLE ( 'creator' ) ;
#141 = PRODUCT_DEFINITION ( 'NEZNÁMÝ', '', #183, #55 ) ;
#142 = ORIENTED_EDGE ( 'NONE', *, *, #328, .T. ) ;
#143 = APPROVAL_DATE_TIME ( #164, #251 ) ;
#144 = PLANE ( 'NONE',  #122 ) ;
#145 = SHAPE_DEFINITION_REPRESENTATION ( #3, #212 ) ;
#146 = DIRECTION ( 'NONE',  ( -0.000000000000000000, -0.000000000000000000, -1.000000000000000000 ) ) ;
#147 = LINE ( 'NONE', #327, #5 ) ;
#148 = LOCAL_TIME ( 17, 43, 52.00000000000000000, #310 ) ;
#149 = DIRECTION ( 'NONE',  ( 0.000000000000000000, 0.000000000000000000, 1.000000000000000000 ) ) ;
#150 = ADVANCED_FACE ( 'NONE', ( #236 ), #352, .F. ) ;
#151 = CARTESIAN_POINT ( 'NONE',  ( 0.000000000000000000, 0.000000000000000000, 453.0000000000000000 ) ) ;
#152 = DIRECTION ( 'NONE',  ( -0.000000000000000000, -0.000000000000000000, -1.000000000000000000 ) ) ;
#153 = AXIS2_PLACEMENT_3D ( 'NONE', #280, #317, #347 ) ;
#154 = CC_DESIGN_APPROVAL ( #380, ( #141 ) ) ;
#155 = ADVANCED_FACE ( 'NONE', ( #27, #79 ), #144, .T. ) ;
#156 = DIRECTION ( 'NONE',  ( -0.000000000000000000, -0.000000000000000000, -1.000000000000000000 ) ) ;
#157 = VERTEX_POINT ( 'NONE', #115 ) ;
#158 = AXIS2_PLACEMENT_3D ( 'NONE', #351, #341, #254 ) ;
#159 = DIRECTION ( 'NONE',  ( 0.000000000000000000, 0.000000000000000000, 1.000000000000000000 ) ) ;
#160 = APPLICATION_PROTOCOL_DEFINITION ( 'international standard', 'config_control_design', 1994, #66 ) ;
#161 = DIRECTION ( 'NONE',  ( 1.000000000000000000, 0.000000000000000000, 0.000000000000000000 ) ) ;
#162 = EDGE_LOOP ( 'NONE', ( #105, #22, #309, #300 ) ) ;
#163 = CIRCLE ( 'NONE', #173, 2.500000000000000000 ) ;
#164 = DATE_AND_TIME ( #176, #137 ) ;
#165 = DIRECTION ( 'NONE',  ( -0.000000000000000000, -0.000000000000000000, -1.000000000000000000 ) ) ;
#166 = VERTEX_POINT ( 'NONE', #26 ) ;
#167 = AXIS2_PLACEMENT_3D ( 'NONE', #294, #58, #322 ) ;
#168 = COORDINATED_UNIVERSAL_TIME_OFFSET ( 1, 0, .AHEAD. ) ;
#169 = EDGE_CURVE ( 'NONE', #332, #6, #319, .T. ) ;
#170 = CARTESIAN_POINT ( 'NONE',  ( 2.500000000000000000, 3.061616997868383141E-16, 453.0000000000000000 ) ) ;
#171 = APPROVAL_ROLE ( '' ) ;
#172 = ORIENTED_EDGE ( 'NONE', *, *, #7, .T. ) ;
#173 = AXIS2_PLACEMENT_3D ( 'NONE', #369, #338, #72 ) ;
#174 = COORDINATED_UNIVERSAL_TIME_OFFSET ( 1, 0, .AHEAD. ) ;
#175 = EDGE_LOOP ( 'NONE', ( #139, #302, #281, #198 ) ) ;
#176 = CALENDAR_DATE ( 2022, 8, 7 ) ;
#177 = CYLINDRICAL_SURFACE ( 'NONE', #329, 5.000000000000000000 ) ;
#178 = CARTESIAN_POINT ( 'NONE',  ( 0.000000000000000000, 0.000000000000000000, 453.0000000000000000 ) ) ;
#179 = DIRECTION ( 'NONE',  ( -1.000000000000000000, 0.000000000000000000, 0.000000000000000000 ) ) ;
#180 = FACE_OUTER_BOUND ( 'NONE', #70, .T. ) ;
#181 = ADVANCED_FACE ( 'NONE', ( #204 ), #177, .T. ) ;
#182 = PERSON ( 'NEURÈENÝ', 'NEURÈENÝ', 'NEURÈENÝ', ('NEURÈENÝ'), ('NEURÈENÝ'), ('NEURÈENÝ') ) ;
#183 = PRODUCT_DEFINITION_FORMATION_WITH_SPECIFIED_SOURCE ( 'LIBOVOLNÝ', '', #64, .NOT_KNOWN. ) ;
#184 = DIRECTION ( 'NONE',  ( -0.000000000000000000, -0.000000000000000000, -1.000000000000000000 ) ) ;
#185 = ADVANCED_FACE ( 'NONE', ( #89 ), #239, .T. ) ;
#186 = CARTESIAN_POINT ( 'NONE',  ( 0.000000000000000000, 0.000000000000000000, 3.000000000000000000 ) ) ;
#187 = DIRECTION ( 'NONE',  ( 1.000000000000000000, 0.000000000000000000, 0.000000000000000000 ) ) ;
#188 = ORIENTED_EDGE ( 'NONE', *, *, #169, .F. ) ;
#189 = EDGE_LOOP ( 'NONE', ( #116, #335, #111, #298 ) ) ;
#190 = CARTESIAN_POINT ( 'NONE',  ( 1.500000000000000222, 1.836970198721029934E-16, 453.0000000000000000 ) ) ;
#191 = DIRECTION ( 'NONE',  ( 0.000000000000000000, 0.000000000000000000, 1.000000000000000000 ) ) ;
#192 = FACE_OUTER_BOUND ( 'NONE', #99, .T. ) ;
#193 = EDGE_LOOP ( 'NONE', ( #107, #272 ) ) ;
#194 = DIRECTION ( 'NONE',  ( 0.000000000000000000, 0.000000000000000000, -1.000000000000000000 ) ) ;
#195 = LINE ( 'NONE', #306, #100 ) ;
#196 = ADVANCED_FACE ( 'NONE', ( #91, #381 ), #290, .T. ) ;
#197 = CARTESIAN_POINT ( 'NONE',  ( -2.799999999999999822, 3.429011037612588783E-16, 3.300000000000025135 ) ) ;
#198 = ORIENTED_EDGE ( 'NONE', *, *, #224, .F. ) ;
#199 = PERSON_AND_ORGANIZATION_ROLE ( 'classification_officer' ) ;
#200 = ORIENTED_EDGE ( 'NONE', *, *, #112, .T. ) ;
#201 = DATE_TIME_ROLE ( 'classification_date' ) ;
#202 = CC_DESIGN_DATE_AND_TIME_ASSIGNMENT ( #52, #201, ( #206 ) ) ;
#203 = ORIENTED_EDGE ( 'NONE', *, *, #125, .F. ) ;
#204 = FACE_OUTER_BOUND ( 'NONE', #175, .T. ) ;
#205 = CIRCLE ( 'NONE', #222, 1.500000000000000222 ) ;
#206 = SECURITY_CLASSIFICATION ( '', '', #50 ) ;
#207 = CARTESIAN_POINT ( 'NONE',  ( 0.000000000000000000, 0.000000000000000000, 453.0000000000000000 ) ) ;
#208 = FACE_OUTER_BOUND ( 'NONE', #258, .T. ) ;
#209 = EDGE_CURVE ( 'NONE', #217, #135, #243, .T. ) ;
#210 = DIRECTION ( 'NONE',  ( 0.000000000000000000, 0.000000000000000000, 1.000000000000000000 ) ) ;
#211 = AXIS2_PLACEMENT_3D ( 'NONE', #8, #130, #246 ) ;
#212 = ADVANCED_BREP_SHAPE_REPRESENTATION ( 'e2ad', ( #85, #211 ), #345 ) ;
#213 = CARTESIAN_POINT ( 'NONE',  ( -5.000000000000000000, 0.000000000000000000, 3.000000000000000000 ) ) ;
#214 = CARTESIAN_POINT ( 'NONE',  ( 2.799999999999999822, 0.000000000000000000, 3.000000000000012434 ) ) ;
#215 = CARTESIAN_POINT ( 'NONE',  ( -2.500000000000000000, 0.000000000000000000, 453.0000000000000000 ) ) ;
#216 = VECTOR ( 'NONE', #262, 1000.000000000000000 ) ;
#217 = VERTEX_POINT ( 'NONE', #214 ) ;
#218 = EDGE_CURVE ( 'NONE', #166, #226, #128, .T. ) ;
#219 = EDGE_LOOP ( 'NONE', ( #363, #138 ) ) ;
#220 = DIRECTION ( 'NONE',  ( -0.000000000000000000, -0.000000000000000000, -1.000000000000000000 ) ) ;
#221 = CARTESIAN_POINT ( 'NONE',  ( 2.500000000000000000, 3.061616997868383141E-16, 3.300000000000025135 ) ) ;
#222 = AXIS2_PLACEMENT_3D ( 'NONE', #133, #220, #367 ) ;
#223 = CYLINDRICAL_SURFACE ( 'NONE', #336, 1.500000000000000222 ) ;
#224 = EDGE_CURVE ( 'NONE', #226, #228, #147, .T. ) ;
#225 = PERSON_AND_ORGANIZATION_ROLE ( 'design_owner' ) ;
#226 = VERTEX_POINT ( 'NONE', #213 ) ;
#227 = APPROVAL_ROLE ( '' ) ;
#228 = VERTEX_POINT ( 'NONE', #62 ) ;
#229 = APPROVAL_PERSON_ORGANIZATION ( #19, #311, #227 ) ;
#230 = PERSON_AND_ORGANIZATION ( #182, #237 ) ;
#231 = CC_DESIGN_PERSON_AND_ORGANIZATION_ASSIGNMENT ( #230, #199, ( #206 ) ) ;
#232 = CARTESIAN_POINT ( 'NONE',  ( 0.000000000000000000, 0.000000000000000000, 3.300000000000025135 ) ) ;
#233 = PERSON_AND_ORGANIZATION ( #182, #237 ) ;
#234 = DIRECTION ( 'NONE',  ( 0.000000000000000000, 0.000000000000000000, 1.000000000000000000 ) ) ;
#235 = AXIS2_PLACEMENT_3D ( 'NONE', #24, #74, #106 ) ;
#236 = FACE_OUTER_BOUND ( 'NONE', #189, .T. ) ;
#237 = ORGANIZATION ( 'NEURÈENÝ', 'NEURÈENÝ', '' ) ;
#238 = ADVANCED_FACE ( 'NONE', ( #208 ), #25, .F. ) ;
#239 = CYLINDRICAL_SURFACE ( 'NONE', #96, 2.500000000000000000 ) ;
#240 = DIRECTION ( 'NONE',  ( 1.000000000000000000, 0.000000000000000000, 0.000000000000000000 ) ) ;
#241 = AXIS2_PLACEMENT_3D ( 'NONE', #293, #324, #266 ) ;
#242 = DIRECTION ( 'NONE',  ( -0.000000000000000000, -0.000000000000000000, -1.000000000000000000 ) ) ;
#243 = CIRCLE ( 'NONE', #77, 2.799999999999999822 ) ;
#244 = VERTEX_POINT ( 'NONE', #379 ) ;
#245 = EDGE_CURVE ( 'NONE', #9, #275, #54, .T. ) ;
#246 = DIRECTION ( 'NONE',  ( 1.000000000000000000, 0.000000000000000000, 0.000000000000000000 ) ) ;
#247 = CIRCLE ( 'NONE', #132, 0.2999999999999999334 ) ;
#248 = ORIENTED_EDGE ( 'NONE', *, *, #88, .F. ) ;
#249 = ADVANCED_FACE ( 'NONE', ( #359, #180 ), #292, .F. ) ;
#250 = DIRECTION ( 'NONE',  ( 1.000000000000000000, 0.000000000000000000, 0.000000000000000000 ) ) ;
#251 = APPROVAL ( #276, 'NEURÈENÝ' ) ;
#252 = APPROVAL_PERSON_ORGANIZATION ( #233, #380, #348 ) ;
#253 = ORIENTED_EDGE ( 'NONE', *, *, #245, .T. ) ;
#254 = DIRECTION ( 'NONE',  ( -1.000000000000000000, 0.000000000000000000, 0.000000000000000000 ) ) ;
#255 = ORIENTED_EDGE ( 'NONE', *, *, #169, .T. ) ;
#256 = PERSON_AND_ORGANIZATION_ROLE ( 'creator' ) ;
#257 = DIRECTION ( 'NONE',  ( 0.000000000000000000, 0.000000000000000000, -1.000000000000000000 ) ) ;
#258 = EDGE_LOOP ( 'NONE', ( #188, #12, #339, #104 ) ) ;
#259 = DATE_AND_TIME ( #45, #295 ) ;
#260 = DIRECTION ( 'NONE',  ( 1.000000000000000000, 0.000000000000000000, -0.000000000000000000 ) ) ;
#261 = DIRECTION ( 'NONE',  ( 1.000000000000000000, 0.000000000000000000, 0.000000000000000000 ) ) ;
#262 = DIRECTION ( 'NONE',  ( -0.000000000000000000, -0.000000000000000000, -1.000000000000000000 ) ) ;
#263 = CIRCLE ( 'NONE', #305, 0.2999999999999999334 ) ;
#264 = ADVANCED_FACE ( 'NONE', ( #326 ), #30, .F. ) ;
#265 = AXIS2_PLACEMENT_3D ( 'NONE', #92, #356, #90 ) ;
#266 = DIRECTION ( 'NONE',  ( 1.000000000000000000, 0.000000000000000000, 0.000000000000000000 ) ) ;
#267 = CARTESIAN_POINT ( 'NONE',  ( 0.000000000000000000, 0.000000000000000000, 0.000000000000000000 ) ) ;
#268 = DIRECTION ( 'NONE',  ( 0.000000000000000000, 0.000000000000000000, -1.000000000000000000 ) ) ;
#269 = AXIS2_PLACEMENT_3D ( 'NONE', #334, #242, #101 ) ;
#270 = CARTESIAN_POINT ( 'NONE',  ( 0.000000000000000000, 0.000000000000000000, 453.0000000000000000 ) ) ;
#271 = EDGE_CURVE ( 'NONE', #228, #75, #33, .T. ) ;
#272 = ORIENTED_EDGE ( 'NONE', *, *, #14, .T. ) ;
#273 = ORIENTED_EDGE ( 'NONE', *, *, #112, .F. ) ;
#274 = ORIENTED_EDGE ( 'NONE', *, *, #41, .F. ) ;
#275 = VERTEX_POINT ( 'NONE', #364 ) ;
#276 = APPROVAL_STATUS ( 'not_yet_approved' ) ;
#277 = AXIS2_PLACEMENT_3D ( 'NONE', #296, #123, #240 ) ;
#278 = ORIENTED_EDGE ( 'NONE', *, *, #343, .F. ) ;
#279 = DATE_AND_TIME ( #344, #370 ) ;
#280 = CARTESIAN_POINT ( 'NONE',  ( 0.000000000000000000, 0.000000000000000000, 3.300000000000025135 ) ) ;
#281 = ORIENTED_EDGE ( 'NONE', *, *, #88, .T. ) ;
#282 = ADVANCED_FACE ( 'NONE', ( #192 ), #223, .F. ) ;
#283 = EDGE_LOOP ( 'NONE', ( #273, #346 ) ) ;
#284 = APPROVAL_DATE_TIME ( #259, #380 ) ;
#285 = ORIENTED_EDGE ( 'NONE', *, *, #14, .F. ) ;
#286 = VECTOR ( 'NONE', #330, 1000.000000000000000 ) ;
#287 = CARTESIAN_POINT ( 'NONE',  ( 0.000000000000000000, 0.000000000000000000, 3.000000000000000000 ) ) ;
#288 = EDGE_CURVE ( 'NONE', #275, #157, #34, .T. ) ;
#289 = DIRECTION ( 'NONE',  ( 1.000000000000000000, 0.000000000000000000, 0.000000000000000000 ) ) ;
#290 = PLANE ( 'NONE',  #265 ) ;
#291 = LOCAL_TIME ( 17, 43, 52.00000000000000000, #168 ) ;
#292 = PLANE ( 'NONE',  #377 ) ;
#293 = CARTESIAN_POINT ( 'NONE',  ( 0.000000000000000000, 0.000000000000000000, 3.300000000000025135 ) ) ;
#294 = CARTESIAN_POINT ( 'NONE',  ( 0.000000000000000000, 0.000000000000000000, 453.0000000000000000 ) ) ;
#296 = CARTESIAN_POINT ( 'NONE',  ( 0.000000000000000000, 0.000000000000000000, 0.000000000000000000 ) ) ;
#295 = LOCAL_TIME ( 17, 43, 52.00000000000000000, #81 ) ;
#297 = ADVANCED_FACE ( 'NONE', ( #337 ), #366, .T. ) ;
#298 = ORIENTED_EDGE ( 'NONE', *, *, #82, .F. ) ;
#299 = DIRECTION ( 'NONE',  ( -1.000000000000000000, 0.000000000000000000, 0.000000000000000000 ) ) ;
#300 = ORIENTED_EDGE ( 'NONE', *, *, #271, .T. ) ;
#301 =( LENGTH_UNIT ( ) NAMED_UNIT ( * ) SI_UNIT ( .MILLI., .METRE. ) );
#302 = ORIENTED_EDGE ( 'NONE', *, *, #318, .T. ) ;
#303 =( NAMED_UNIT ( * ) SI_UNIT ( $, .STERADIAN. ) SOLID_ANGLE_UNIT ( ) );
#304 = APPROVAL_STATUS ( 'not_yet_approved' ) ;
#305 = AXIS2_PLACEMENT_3D ( 'NONE', #197, #110, #315 ) ;
#306 = CARTESIAN_POINT ( 'NONE',  ( -2.500000000000000000, 0.000000000000000000, 453.0000000000000000 ) ) ;
#307 = APPROVAL_STATUS ( 'not_yet_approved' ) ;
#308 = CARTESIAN_POINT ( 'NONE',  ( -2.799999999999999822, 3.429011037612589276E-16, 3.000000000000012434 ) ) ;
#309 = ORIENTED_EDGE ( 'NONE', *, *, #224, .T. ) ;
#310 = COORDINATED_UNIVERSAL_TIME_OFFSET ( 1, 0, .AHEAD. ) ;
#311 = APPROVAL ( #304, 'NEURÈENÝ' ) ;
#312 = DIRECTION ( 'NONE',  ( 0.000000000000000000, 0.000000000000000000, 1.000000000000000000 ) ) ;
#313 = VERTEX_POINT ( 'NONE', #215 ) ;
#314 = PERSON_AND_ORGANIZATION ( #182, #237 ) ;
#315 = DIRECTION ( 'NONE',  ( -1.000000000000000000, 1.224646799147353207E-16, 0.000000000000000000 ) ) ;
#316 = AXIS2_PLACEMENT_3D ( 'NONE', #131, #4, #40 ) ;
#317 = DIRECTION ( 'NONE',  ( 0.000000000000000000, 0.000000000000000000, 1.000000000000000000 ) ) ;
#318 = EDGE_CURVE ( 'NONE', #166, #75, #69, .T. ) ;
#319 = CIRCLE ( 'NONE', #32, 2.500000000000000000 ) ;
#320 = AXIS2_PLACEMENT_3D ( 'NONE', #126, #156, #187 ) ;
#321 = PRODUCT_RELATED_PRODUCT_CATEGORY ( 'detail', '', ( #64 ) ) ;
#322 = DIRECTION ( 'NONE',  ( 1.000000000000000000, 0.000000000000000000, 0.000000000000000000 ) ) ;
#323 = AXIS2_PLACEMENT_3D ( 'NONE', #365, #191, #161 ) ;
#324 = DIRECTION ( 'NONE',  ( 0.000000000000000000, 0.000000000000000000, 1.000000000000000000 ) ) ;
#325 = VECTOR ( 'NONE', #124, 1000.000000000000000 ) ;
#326 = FACE_OUTER_BOUND ( 'NONE', #35, .T. ) ;
#327 = CARTESIAN_POINT ( 'NONE',  ( -5.000000000000000000, 0.000000000000000000, 3.000000000000000000 ) ) ;
#328 = EDGE_CURVE ( 'NONE', #9, #44, #331, .T. ) ;
#329 = AXIS2_PLACEMENT_3D ( 'NONE', #287, #146, #179 ) ;
#330 = DIRECTION ( 'NONE',  ( 0.000000000000000000, 0.000000000000000000, -1.000000000000000000 ) ) ;
#331 = LINE ( 'NONE', #190, #286 ) ;
#332 = VERTEX_POINT ( 'NONE', #36 ) ;
#333 = CIRCLE ( 'NONE', #20, 2.500000000000000000 ) ;
#334 = CARTESIAN_POINT ( 'NONE',  ( 0.000000000000000000, 0.000000000000000000, 453.0000000000000000 ) ) ;
#335 = ORIENTED_EDGE ( 'NONE', *, *, #7, .F. ) ;
#336 = AXIS2_PLACEMENT_3D ( 'NONE', #270, #11, #299 ) ;
#337 = FACE_OUTER_BOUND ( 'NONE', #18, .T. ) ;
#338 = DIRECTION ( 'NONE',  ( 0.000000000000000000, 0.000000000000000000, 1.000000000000000000 ) ) ;
#339 = ORIENTED_EDGE ( 'NONE', *, *, #209, .F. ) ;
#340 = MECHANICAL_CONTEXT ( 'NONE', #66, 'mechanical' ) ;
#341 = DIRECTION ( 'NONE',  ( -0.000000000000000000, -0.000000000000000000, -1.000000000000000000 ) ) ;
#342 = EDGE_LOOP ( 'NONE', ( #203, #374, #16, #255 ) ) ;
#343 = EDGE_CURVE ( 'NONE', #157, #44, #205, .T. ) ;
#344 = CALENDAR_DATE ( 2022, 8, 7 ) ;
#345 =( GEOMETRIC_REPRESENTATION_CONTEXT ( 3 ) GLOBAL_UNCERTAINTY_ASSIGNED_CONTEXT ( ( #375 ) ) GLOBAL_UNIT_ASSIGNED_CONTEXT ( ( #301, #39, #303 ) ) REPRESENTATION_CONTEXT ( 'NONE', 'WORKASPACE' ) );
#346 = ORIENTED_EDGE ( 'NONE', *, *, #245, .F. ) ;
#347 = DIRECTION ( 'NONE',  ( 1.000000000000000000, 0.000000000000000000, 0.000000000000000000 ) ) ;
#348 = APPROVAL_ROLE ( '' ) ;
#349 = DIRECTION ( 'NONE',  ( 1.000000000000000000, 0.000000000000000000, 0.000000000000000000 ) ) ;
#350 = DATE_TIME_ROLE ( 'creation_date' ) ;
#351 = CARTESIAN_POINT ( 'NONE',  ( 0.000000000000000000, 0.000000000000000000, 3.000000000000000000 ) ) ;
#352 = TOROIDAL_SURFACE ( 'NONE', #153, 2.799999999999999822, 0.2999999999999999889 ) ;
#353 = CC_DESIGN_APPROVAL ( #251, ( #206 ) ) ;
#354 = DIRECTION ( 'NONE',  ( -0.000000000000000000, -0.000000000000000000, -1.000000000000000000 ) ) ;
#355 = CC_DESIGN_PERSON_AND_ORGANIZATION_ASSIGNMENT ( #118, #140, ( #183 ) ) ;
#356 = DIRECTION ( 'NONE',  ( 0.000000000000000000, 0.000000000000000000, 1.000000000000000000 ) ) ;
#357 = CIRCLE ( 'NONE', #316, 2.500000000000000000 ) ;
#358 = CC_DESIGN_PERSON_AND_ORGANIZATION_ASSIGNMENT ( #17, #225, ( #64 ) ) ;
#359 = FACE_BOUND ( 'NONE', #13, .T. ) ;
#360 = CARTESIAN_POINT ( 'NONE',  ( 0.000000000000000000, 0.000000000000000000, 453.0000000000000000 ) ) ;
#361 = CC_DESIGN_PERSON_AND_ORGANIZATION_ASSIGNMENT ( #73, #256, ( #141 ) ) ;
#362 = ORIENTED_EDGE ( 'NONE', *, *, #372, .T. ) ;
#363 = ORIENTED_EDGE ( 'NONE', *, *, #209, .T. ) ;
#364 = CARTESIAN_POINT ( 'NONE',  ( -1.500000000000000222, 0.000000000000000000, 453.0000000000000000 ) ) ;
#365 = CARTESIAN_POINT ( 'NONE',  ( 0.000000000000000000, 0.000000000000000000, 3.000000000000000000 ) ) ;
#366 = CYLINDRICAL_SURFACE ( 'NONE', #269, 2.500000000000000000 ) ;
#367 = DIRECTION ( 'NONE',  ( 1.000000000000000000, 0.000000000000000000, 0.000000000000000000 ) ) ;
#368 = APPROVAL_PERSON_ORGANIZATION ( #314, #251, #171 ) ;
#369 = CARTESIAN_POINT ( 'NONE',  ( 0.000000000000000000, 0.000000000000000000, 453.0000000000000000 ) ) ;
#370 = LOCAL_TIME ( 17, 43, 52.00000000000000000, #371 ) ;
#371 = COORDINATED_UNIVERSAL_TIME_OFFSET ( 1, 0, .AHEAD. ) ;
#372 = EDGE_CURVE ( 'NONE', #44, #157, #78, .T. ) ;
#373 = LINE ( 'NONE', #170, #216 ) ;
#374 = ORIENTED_EDGE ( 'NONE', *, *, #37, .F. ) ;
#375 = UNCERTAINTY_MEASURE_WITH_UNIT (LENGTH_MEASURE( 1.000000000000000082E-05 ), #301, 'distance_accuracy_value', 'NONE');
#376 = CIRCLE ( 'NONE', #42, 5.000000000000000000 ) ;
#377 = AXIS2_PLACEMENT_3D ( 'NONE', #267, #210, #61 ) ;
#378 = CC_DESIGN_PERSON_AND_ORGANIZATION_ASSIGNMENT ( #76, #43, ( #183 ) ) ;
#379 = CARTESIAN_POINT ( 'NONE',  ( 2.500000000000000000, 3.061616997868383141E-16, 453.0000000000000000 ) ) ;
#380 = APPROVAL ( #307, 'NEURÈENÝ' ) ;
#381 = FACE_OUTER_BOUND ( 'NONE', #47, .T. ) ;
ENDSEC;
END-ISO-10303-21;
