ISO-10303-21;
HEADER;
FILE_DESCRIPTION (( 'STEP AP203' ),
    '1' );
FILE_NAME ('3bb6.STEP',
    '2022-07-08T14:51:12',
    ( '' ),
    ( '' ),
    'SwSTEP 2.0',
    'SolidWorks 2019',
    '' );
FILE_SCHEMA (( 'CONFIG_CONTROL_DESIGN' ));
ENDSEC;

DATA;
#1 = PERSON ( 'NEURÈENÝ', 'NEURÈENÝ', 'NEURÈENÝ', ('NEURÈENÝ'), ('NEURÈENÝ'), ('NEURÈENÝ') ) ;
#2 = AXIS2_PLACEMENT_3D ( 'NONE', #328, #106, #379 ) ;
#3 = FACE_OUTER_BOUND ( 'NONE', #341, .T. ) ;
#4 = EDGE_CURVE ( 'NONE', #15, #180, #167, .T. ) ;
#5 = DIRECTION ( 'NONE',  ( -1.000000000000000000, 0.000000000000000000, 0.000000000000000000 ) ) ;
#6 = EDGE_CURVE ( 'NONE', #151, #347, #188, .T. ) ;
#7 = DIRECTION ( 'NONE',  ( -0.000000000000000000, -0.000000000000000000, -1.000000000000000000 ) ) ;
#8 = CARTESIAN_POINT ( 'NONE',  ( 0.000000000000000000, 0.000000000000000000, 0.000000000000000000 ) ) ;
#9 = CC_DESIGN_DATE_AND_TIME_ASSIGNMENT ( #256, #190, ( #273 ) ) ;
#10 = ORIENTED_EDGE ( 'NONE', *, *, #4, .F. ) ;
#11 = DIRECTION ( 'NONE',  ( 0.000000000000000000, 0.000000000000000000, -1.000000000000000000 ) ) ;
#12 = ADVANCED_BREP_SHAPE_REPRESENTATION ( '3bb6', ( #130, #36 ), #132 ) ;
#13 = CARTESIAN_POINT ( 'NONE',  ( 0.000000000000000000, 0.000000000000000000, 0.000000000000000000 ) ) ;
#14 = AXIS2_PLACEMENT_3D ( 'NONE', #159, #321, #11 ) ;
#15 = VERTEX_POINT ( 'NONE', #39 ) ;
#16 = DIRECTION ( 'NONE',  ( 0.000000000000000000, 0.000000000000000000, 1.000000000000000000 ) ) ;
#17 = PERSON_AND_ORGANIZATION ( #1, #98 ) ;
#18 = EDGE_LOOP ( 'NONE', ( #258, #343, #161, #222 ) ) ;
#19 = DIRECTION ( 'NONE',  ( -1.000000000000000000, 0.000000000000000000, 0.000000000000000000 ) ) ;
#20 = ORIENTED_EDGE ( 'NONE', *, *, #249, .F. ) ;
#21 = CC_DESIGN_PERSON_AND_ORGANIZATION_ASSIGNMENT ( #372, #135, ( #84 ) ) ;
#22 = VECTOR ( 'NONE', #137, 1000.000000000000000 ) ;
#23 = PERSON_AND_ORGANIZATION ( #1, #98 ) ;
#24 = DIRECTION ( 'NONE',  ( 1.000000000000000000, 0.000000000000000000, 0.000000000000000000 ) ) ;
#25 = PERSON_AND_ORGANIZATION ( #1, #98 ) ;
#26 = DIRECTION ( 'NONE',  ( 1.000000000000000000, 0.000000000000000000, -0.000000000000000000 ) ) ;
#27 = DIRECTION ( 'NONE',  ( 0.000000000000000000, 0.000000000000000000, 1.000000000000000000 ) ) ;
#28 = EDGE_CURVE ( 'NONE', #151, #15, #250, .T. ) ;
#29 = CIRCLE ( 'NONE', #14, 0.5000000000000004441 ) ;
#30 = PERSON_AND_ORGANIZATION ( #1, #98 ) ;
#31 = EDGE_CURVE ( 'NONE', #277, #316, #40, .T. ) ;
#32 = DIRECTION ( 'NONE',  ( 0.000000000000000000, 0.000000000000000000, 1.000000000000000000 ) ) ;
#33 = AXIS2_PLACEMENT_3D ( 'NONE', #255, #16, #187 ) ;
#34 = DIRECTION ( 'NONE',  ( 1.000000000000000000, 0.000000000000000000, 0.000000000000000000 ) ) ;
#35 = ORIENTED_EDGE ( 'NONE', *, *, #6, .T. ) ;
#36 = AXIS2_PLACEMENT_3D ( 'NONE', #69, #303, #34 ) ;
#37 = DIRECTION ( 'NONE',  ( 0.000000000000000000, 0.000000000000000000, 1.000000000000000000 ) ) ;
#38 = PERSON_AND_ORGANIZATION ( #1, #98 ) ;
#39 = CARTESIAN_POINT ( 'NONE',  ( 8.000000000000000000, 9.797174393178825657E-16, 5.000000000000000000 ) ) ;
#40 = CIRCLE ( 'NONE', #218, 5.500000000000000000 ) ;
#41 = LINE ( 'NONE', #174, #373 ) ;
#42 = AXIS2_PLACEMENT_3D ( 'NONE', #13, #213, #348 ) ;
#43 = EDGE_LOOP ( 'NONE', ( #233, #206, #99, #154 ) ) ;
#44 = FACE_OUTER_BOUND ( 'NONE', #245, .T. ) ;
#45 = ADVANCED_FACE ( 'NONE', ( #3 ), #95, .T. ) ;
#46 = ORIENTED_EDGE ( 'NONE', *, *, #31, .T. ) ;
#47 = EDGE_CURVE ( 'NONE', #347, #180, #300, .T. ) ;
#48 = FACE_OUTER_BOUND ( 'NONE', #79, .T. ) ;
#49 = CALENDAR_DATE ( 2022, 8, 7 ) ;
#50 = CIRCLE ( 'NONE', #92, 3.100000000000000089 ) ;
#51 = AXIS2_PLACEMENT_3D ( 'NONE', #331, #200, #148 ) ;
#52 = DATE_AND_TIME ( #264, #334 ) ;
#53 = ORIENTED_EDGE ( 'NONE', *, *, #31, .F. ) ;
#54 = CARTESIAN_POINT ( 'NONE',  ( 0.000000000000000000, 0.000000000000000000, 130.0000000000000000 ) ) ;
#55 = PLANE ( 'NONE',  #362 ) ;
#56 = PRODUCT_RELATED_PRODUCT_CATEGORY ( 'detail', '', ( #283 ) ) ;
#57 = EDGE_LOOP ( 'NONE', ( #279, #105 ) ) ;
#58 = VECTOR ( 'NONE', #275, 1000.000000000000000 ) ;
#59 = APPROVAL_STATUS ( 'not_yet_approved' ) ;
#60 = CARTESIAN_POINT ( 'NONE',  ( 3.100000000000000089, 3.796405077356794918E-16, 0.000000000000000000 ) ) ;
#61 = AXIS2_PLACEMENT_3D ( 'NONE', #332, #32, #357 ) ;
#62 = CYLINDRICAL_SURFACE ( 'NONE', #117, 3.100000000000000089 ) ;
#63 = APPLICATION_PROTOCOL_DEFINITION ( 'international standard', 'config_control_design', 1994, #274 ) ;
#64 = CARTESIAN_POINT ( 'NONE',  ( 0.000000000000000000, 0.000000000000000000, 5.500000000000005329 ) ) ;
#65 = DIRECTION ( 'NONE',  ( 0.000000000000000000, 0.000000000000000000, 1.000000000000000000 ) ) ;
#66 = DIRECTION ( 'NONE',  ( 1.000000000000000000, 0.000000000000000000, 0.000000000000000000 ) ) ;
#67 = AXIS2_PLACEMENT_3D ( 'NONE', #111, #232, #355 ) ;
#68 = DIRECTION ( 'NONE',  ( 0.000000000000000000, 0.000000000000000000, 1.000000000000000000 ) ) ;
#69 = CARTESIAN_POINT ( 'NONE',  ( 0.000000000000000000, 0.000000000000000000, 0.000000000000000000 ) ) ;
#70 = CARTESIAN_POINT ( 'NONE',  ( 0.000000000000000000, 0.000000000000000000, 130.0000000000000000 ) ) ;
#71 = CALENDAR_DATE ( 2022, 8, 7 ) ;
#72 = ORIENTED_EDGE ( 'NONE', *, *, #4, .T. ) ;
#73 = CARTESIAN_POINT ( 'NONE',  ( -3.100000000000000089, 0.000000000000000000, 130.0000000000000000 ) ) ;
#74 = EDGE_CURVE ( 'NONE', #15, #151, #162, .T. ) ;
#75 = ORIENTED_EDGE ( 'NONE', *, *, #257, .F. ) ;
#76 = VERTEX_POINT ( 'NONE', #335 ) ;
#77 = DIRECTION ( 'NONE',  ( 1.000000000000000000, 0.000000000000000000, -0.000000000000000000 ) ) ;
#78 = COORDINATED_UNIVERSAL_TIME_OFFSET ( 1, 0, .AHEAD. ) ;
#79 = EDGE_LOOP ( 'NONE', ( #282, #121 ) ) ;
#80 = DIRECTION ( 'NONE',  ( 0.000000000000000000, 0.000000000000000000, 1.000000000000000000 ) ) ;
#81 = ADVANCED_FACE ( 'NONE', ( #208 ), #143, .F. ) ;
#82 = EDGE_LOOP ( 'NONE', ( #252, #158 ) ) ;
#83 = DIRECTION ( 'NONE',  ( -0.000000000000000000, -0.000000000000000000, -1.000000000000000000 ) ) ;
#84 = SECURITY_CLASSIFICATION ( '', '', #353 ) ;
#85 = EDGE_CURVE ( 'NONE', #142, #314, #356, .T. ) ;
#86 = DIRECTION ( 'NONE',  ( 0.000000000000000000, 0.000000000000000000, 1.000000000000000000 ) ) ;
#87 = CARTESIAN_POINT ( 'NONE',  ( 0.000000000000000000, 0.000000000000000000, 0.000000000000000000 ) ) ;
#88 = ORIENTED_EDGE ( 'NONE', *, *, #359, .T. ) ;
#89 =( NAMED_UNIT ( * ) PLANE_ANGLE_UNIT ( ) SI_UNIT ( $, .RADIAN. ) );
#90 = DIRECTION ( 'NONE',  ( -0.000000000000000000, -0.000000000000000000, -1.000000000000000000 ) ) ;
#91 = DIRECTION ( 'NONE',  ( 0.000000000000000000, 0.000000000000000000, 1.000000000000000000 ) ) ;
#92 = AXIS2_PLACEMENT_3D ( 'NONE', #170, #27, #293 ) ;
#93 = CC_DESIGN_APPROVAL ( #114, ( #84 ) ) ;
#94 = MECHANICAL_CONTEXT ( 'NONE', #274, 'mechanical' ) ;
#95 = CYLINDRICAL_SURFACE ( 'NONE', #276, 8.000000000000000000 ) ;
#96 = VERTEX_POINT ( 'NONE', #244 ) ;
#97 = DIRECTION ( 'NONE',  ( 1.000000000000000000, 0.000000000000000000, 0.000000000000000000 ) ) ;
#98 = ORGANIZATION ( 'NEURÈENÝ', 'NEURÈENÝ', '' ) ;
#99 = ORIENTED_EDGE ( 'NONE', *, *, #149, .T. ) ;
#100 = APPROVAL_DATE_TIME ( #52, #194 ) ;
#101 = EDGE_LOOP ( 'NONE', ( #113, #183, #337, #201 ) ) ;
#102 = ORIENTED_EDGE ( 'NONE', *, *, #47, .T. ) ;
#103 = CYLINDRICAL_SURFACE ( 'NONE', #326, 5.000000000000000000 ) ;
#104 = CALENDAR_DATE ( 2022, 8, 7 ) ;
#105 = ORIENTED_EDGE ( 'NONE', *, *, #74, .T. ) ;
#106 = DIRECTION ( 'NONE',  ( 0.000000000000000000, 0.000000000000000000, 1.000000000000000000 ) ) ;
#107 = PERSON_AND_ORGANIZATION_ROLE ( 'design_supplier' ) ;
#108 = PLANE ( 'NONE',  #271 ) ;
#109 = EDGE_CURVE ( 'NONE', #96, #291, #179, .T. ) ;
#110 = ADVANCED_FACE ( 'NONE', ( #309 ), #124, .F. ) ;
#111 = CARTESIAN_POINT ( 'NONE',  ( -5.500000000000000000, 6.735557395310442023E-16, 5.500000000000005329 ) ) ;
#112 = EDGE_CURVE ( 'NONE', #314, #312, #41, .T. ) ;
#113 = ORIENTED_EDGE ( 'NONE', *, *, #236, .F. ) ;
#114 = APPROVAL ( #375, 'NEURÈENÝ' ) ;
#115 =( LENGTH_UNIT ( ) NAMED_UNIT ( * ) SI_UNIT ( .MILLI., .METRE. ) );
#116 = CARTESIAN_POINT ( 'NONE',  ( 0.000000000000000000, 0.000000000000000000, 5.000000000000000000 ) ) ;
#117 = AXIS2_PLACEMENT_3D ( 'NONE', #144, #195, #374 ) ;
#118 = EDGE_LOOP ( 'NONE', ( #209, #75 ) ) ;
#119 = CARTESIAN_POINT ( 'NONE',  ( 0.000000000000000000, 0.000000000000000000, 0.000000000000000000 ) ) ;
#120 = DIRECTION ( 'NONE',  ( 1.000000000000000000, 0.000000000000000000, 0.000000000000000000 ) ) ;
#121 = ORIENTED_EDGE ( 'NONE', *, *, #359, .F. ) ;
#122 = DIRECTION ( 'NONE',  ( -0.000000000000000000, -0.000000000000000000, -1.000000000000000000 ) ) ;
#123 = EDGE_CURVE ( 'NONE', #266, #96, #319, .T. ) ;
#124 = CYLINDRICAL_SURFACE ( 'NONE', #333, 3.100000000000000089 ) ;
#125 = VECTOR ( 'NONE', #122, 1000.000000000000000 ) ;
#126 = DIRECTION ( 'NONE',  ( 1.000000000000000000, 0.000000000000000000, 0.000000000000000000 ) ) ;
#127 = ADVANCED_FACE ( 'NONE', ( #358 ), #241, .T. ) ;
#128 = DIRECTION ( 'NONE',  ( -0.000000000000000000, -0.000000000000000000, -1.000000000000000000 ) ) ;
#129 = CIRCLE ( 'NONE', #354, 3.100000000000000089 ) ;
#130 = MANIFOLD_SOLID_BREP ( 'Odebrat vysunutím3', #192 ) ;
#131 = DIRECTION ( 'NONE',  ( -0.000000000000000000, -0.000000000000000000, -1.000000000000000000 ) ) ;
#132 =( GEOMETRIC_REPRESENTATION_CONTEXT ( 3 ) GLOBAL_UNCERTAINTY_ASSIGNED_CONTEXT ( ( #160 ) ) GLOBAL_UNIT_ASSIGNED_CONTEXT ( ( #115, #89, #240 ) ) REPRESENTATION_CONTEXT ( 'NONE', 'WORKASPACE' ) );
#133 = ORIENTED_EDGE ( 'NONE', *, *, #109, .T. ) ;
#134 = EDGE_LOOP ( 'NONE', ( #217, #181, #323, #20 ) ) ;
#135 = PERSON_AND_ORGANIZATION_ROLE ( 'classification_officer' ) ;
#136 = CARTESIAN_POINT ( 'NONE',  ( 8.000000000000000000, 9.797174393178825657E-16, 5.000000000000000000 ) ) ;
#137 = DIRECTION ( 'NONE',  ( 0.000000000000000000, 0.000000000000000000, -1.000000000000000000 ) ) ;
#138 = AXIS2_PLACEMENT_3D ( 'NONE', #304, #278, #207 ) ;
#139 = DATE_AND_TIME ( #104, #306 ) ;
#140 = COORDINATED_UNIVERSAL_TIME_OFFSET ( 1, 0, .AHEAD. ) ;
#141 = CARTESIAN_POINT ( 'NONE',  ( -8.000000000000000000, 0.000000000000000000, 0.000000000000000000 ) ) ;
#142 = VERTEX_POINT ( 'NONE', #361 ) ;
#143 = TOROIDAL_SURFACE ( 'NONE', #152, 5.500000000000000000, 0.5000000000000000000 ) ;
#144 = CARTESIAN_POINT ( 'NONE',  ( 0.000000000000000000, 0.000000000000000000, 130.0000000000000000 ) ) ;
#145 = DIRECTION ( 'NONE',  ( 1.000000000000000000, 0.000000000000000000, 0.000000000000000000 ) ) ;
#146 = DIRECTION ( 'NONE',  ( -0.000000000000000000, -0.000000000000000000, -1.000000000000000000 ) ) ;
#147 = CIRCLE ( 'NONE', #368, 3.100000000000000089 ) ;
#148 = DIRECTION ( 'NONE',  ( 1.000000000000000000, 0.000000000000000000, 0.000000000000000000 ) ) ;
#149 = EDGE_CURVE ( 'NONE', #266, #320, #364, .T. ) ;
#150 = DIRECTION ( 'NONE',  ( 1.000000000000000000, 0.000000000000000000, 0.000000000000000000 ) ) ;
#151 = VERTEX_POINT ( 'NONE', #216 ) ;
#152 = AXIS2_PLACEMENT_3D ( 'NONE', #64, #91, #238 ) ;
#153 = DIRECTION ( 'NONE',  ( 0.000000000000000000, 0.000000000000000000, -1.000000000000000000 ) ) ;
#154 = ORIENTED_EDGE ( 'NONE', *, *, #236, .T. ) ;
#155 = CARTESIAN_POINT ( 'NONE',  ( 0.000000000000000000, 0.000000000000000000, 130.0000000000000000 ) ) ;
#156 = CC_DESIGN_PERSON_AND_ORGANIZATION_ASSIGNMENT ( #25, #227, ( #251 ) ) ;
#157 = CC_DESIGN_PERSON_AND_ORGANIZATION_ASSIGNMENT ( #315, #107, ( #251 ) ) ;
#158 = ORIENTED_EDGE ( 'NONE', *, *, #231, .F. ) ;
#159 = CARTESIAN_POINT ( 'NONE',  ( 5.500000000000000000, 0.000000000000000000, 5.500000000000005329 ) ) ;
#160 = UNCERTAINTY_MEASURE_WITH_UNIT (LENGTH_MEASURE( 1.000000000000000082E-05 ), #115, 'distance_accuracy_value', 'NONE');
#161 = ORIENTED_EDGE ( 'NONE', *, *, #249, .T. ) ;
#162 = CIRCLE ( 'NONE', #138, 8.000000000000000000 ) ;
#163 = APPROVAL_PERSON_ORGANIZATION ( #23, #225, #294 ) ;
#164 = EDGE_CURVE ( 'NONE', #96, #266, #305, .T. ) ;
#165 = DATE_AND_TIME ( #71, #269 ) ;
#166 = CARTESIAN_POINT ( 'NONE',  ( 8.000000000000000000, 9.797174393178825657E-16, 0.000000000000000000 ) ) ;
#167 = LINE ( 'NONE', #136, #263 ) ;
#168 = AXIS2_PLACEMENT_3D ( 'NONE', #246, #365, #97 ) ;
#169 = CARTESIAN_POINT ( 'NONE',  ( -5.000000000000000000, 0.000000000000000000, 130.0000000000000000 ) ) ;
#170 = CARTESIAN_POINT ( 'NONE',  ( 0.000000000000000000, 0.000000000000000000, 130.0000000000000000 ) ) ;
#171 = CARTESIAN_POINT ( 'NONE',  ( 3.100000000000000089, 3.796405077356794918E-16, 130.0000000000000000 ) ) ;
#172 = DIRECTION ( 'NONE',  ( -0.000000000000000000, -0.000000000000000000, -1.000000000000000000 ) ) ;
#173 = ADVANCED_FACE ( 'NONE', ( #338, #44 ), #55, .T. ) ;
#174 = CARTESIAN_POINT ( 'NONE',  ( 3.100000000000000089, 3.796405077356794918E-16, 130.0000000000000000 ) ) ;
#175 = ORIENTED_EDGE ( 'NONE', *, *, #74, .F. ) ;
#176 = CARTESIAN_POINT ( 'NONE',  ( 0.000000000000000000, 0.000000000000000000, 130.0000000000000000 ) ) ;
#177 = ADVANCED_FACE ( 'NONE', ( #367 ), #103, .T. ) ;
#178 = CC_DESIGN_DATE_AND_TIME_ASSIGNMENT ( #139, #349, ( #84 ) ) ;
#179 = LINE ( 'NONE', #272, #58 ) ;
#180 = VERTEX_POINT ( 'NONE', #166 ) ;
#181 = ORIENTED_EDGE ( 'NONE', *, *, #112, .T. ) ;
#182 = ADVANCED_FACE ( 'NONE', ( #317, #48 ), #313, .F. ) ;
#183 = ORIENTED_EDGE ( 'NONE', *, *, #325, .T. ) ;
#184 = DIRECTION ( 'NONE',  ( -1.000000000000000000, 0.000000000000000000, 0.000000000000000000 ) ) ;
#185 = PERSON_AND_ORGANIZATION ( #1, #98 ) ;
#186 = ORIENTED_EDGE ( 'NONE', *, *, #325, .F. ) ;
#187 = DIRECTION ( 'NONE',  ( 1.000000000000000000, 0.000000000000000000, 0.000000000000000000 ) ) ;
#188 = LINE ( 'NONE', #262, #125 ) ;
#189 = FACE_OUTER_BOUND ( 'NONE', #280, .T. ) ;
#190 = DATE_TIME_ROLE ( 'creation_date' ) ;
#191 = CARTESIAN_POINT ( 'NONE',  ( -5.500000000000000000, 6.735557395310442023E-16, 5.000000000000002665 ) ) ;
#192 = CLOSED_SHELL ( 'NONE', ( #110, #81, #177, #127, #45, #329, #182, #220, #173, #267, #296 ) ) ;
#193 = APPROVAL_PERSON_ORGANIZATION ( #30, #194, #289 ) ;
#194 = APPROVAL ( #346, 'NEURÈENÝ' ) ;
#195 = DIRECTION ( 'NONE',  ( 0.000000000000000000, 0.000000000000000000, -1.000000000000000000 ) ) ;
#196 = CARTESIAN_POINT ( 'NONE',  ( 5.000000000000000000, 6.123233995736766282E-16, 5.500000000000005329 ) ) ;
#197 = ORIENTED_EDGE ( 'NONE', *, *, #123, .T. ) ;
#198 = AXIS2_PLACEMENT_3D ( 'NONE', #116, #7, #330 ) ;
#199 = CC_DESIGN_APPROVAL ( #225, ( #251 ) ) ;
#200 = DIRECTION ( 'NONE',  ( -0.000000000000000000, -0.000000000000000000, -1.000000000000000000 ) ) ;
#201 = ORIENTED_EDGE ( 'NONE', *, *, #214, .F. ) ;
#202 = CARTESIAN_POINT ( 'NONE',  ( 0.000000000000000000, 0.000000000000000000, 130.0000000000000000 ) ) ;
#203 = DIRECTION ( 'NONE',  ( 1.000000000000000000, 0.000000000000000000, 0.000000000000000000 ) ) ;
#204 = AXIS2_PLACEMENT_3D ( 'NONE', #54, #286, #19 ) ;
#205 = LOCAL_TIME ( 16, 51, 12.00000000000000000, #322 ) ;
#206 = ORIENTED_EDGE ( 'NONE', *, *, #123, .F. ) ;
#207 = DIRECTION ( 'NONE',  ( 1.000000000000000000, 0.000000000000000000, 0.000000000000000000 ) ) ;
#208 = FACE_OUTER_BOUND ( 'NONE', #101, .T. ) ;
#209 = ORIENTED_EDGE ( 'NONE', *, *, #85, .F. ) ;
#210 = LINE ( 'NONE', #73, #22 ) ;
#211 = CIRCLE ( 'NONE', #67, 0.5000000000000004441 ) ;
#212 = ORIENTED_EDGE ( 'NONE', *, *, #164, .F. ) ;
#213 = DIRECTION ( 'NONE',  ( 0.000000000000000000, 0.000000000000000000, 1.000000000000000000 ) ) ;
#214 = EDGE_CURVE ( 'NONE', #291, #316, #29, .T. ) ;
#215 = ORIENTED_EDGE ( 'NONE', *, *, #6, .F. ) ;
#216 = CARTESIAN_POINT ( 'NONE',  ( -8.000000000000000000, 0.000000000000000000, 5.000000000000000000 ) ) ;
#217 = ORIENTED_EDGE ( 'NONE', *, *, #85, .T. ) ;
#218 = AXIS2_PLACEMENT_3D ( 'NONE', #239, #90, #66 ) ;
#219 = AXIS2_PLACEMENT_3D ( 'NONE', #87, #65, #145 ) ;
#220 = ADVANCED_FACE ( 'NONE', ( #342 ), #248, .T. ) ;
#221 = COORDINATED_UNIVERSAL_TIME_OFFSET ( 1, 0, .AHEAD. ) ;
#222 = ORIENTED_EDGE ( 'NONE', *, *, #352, .T. ) ;
#223 = FACE_BOUND ( 'NONE', #288, .T. ) ;
#224 = APPROVAL_ROLE ( '' ) ;
#225 = APPROVAL ( #59, 'NEURÈENÝ' ) ;
#226 = CARTESIAN_POINT ( 'NONE',  ( 0.000000000000000000, 0.000000000000000000, 5.000000000000000000 ) ) ;
#227 = PERSON_AND_ORGANIZATION_ROLE ( 'creator' ) ;
#228 = APPLICATION_CONTEXT ( 'configuration controlled 3d designs of mechanical parts and assemblies' ) ;
#229 = CIRCLE ( 'NONE', #168, 5.000000000000000000 ) ;
#230 = CC_DESIGN_SECURITY_CLASSIFICATION ( #84, ( #251 ) ) ;
#231 = EDGE_CURVE ( 'NONE', #312, #76, #129, .T. ) ;
#232 = DIRECTION ( 'NONE',  ( 1.224646799147353207E-16, 1.000000000000000000, -0.000000000000000000 ) ) ;
#233 = ORIENTED_EDGE ( 'NONE', *, *, #109, .F. ) ;
#234 = CARTESIAN_POINT ( 'NONE',  ( -5.000000000000000000, 0.000000000000000000, 5.500000000000005329 ) ) ;
#235 = CARTESIAN_POINT ( 'NONE',  ( -5.000000000000000000, 0.000000000000000000, 130.0000000000000000 ) ) ;
#236 = EDGE_CURVE ( 'NONE', #320, #291, #229, .T. ) ;
#237 = AXIS2_PLACEMENT_3D ( 'NONE', #351, #86, #24 ) ;
#238 = DIRECTION ( 'NONE',  ( 1.000000000000000000, 0.000000000000000000, 0.000000000000000000 ) ) ;
#239 = CARTESIAN_POINT ( 'NONE',  ( 0.000000000000000000, 0.000000000000000000, 5.000000000000000000 ) ) ;
#240 =( NAMED_UNIT ( * ) SI_UNIT ( $, .STERADIAN. ) SOLID_ANGLE_UNIT ( ) );
#241 = CYLINDRICAL_SURFACE ( 'NONE', #198, 8.000000000000000000 ) ;
#242 = PERSON_AND_ORGANIZATION_ROLE ( 'design_owner' ) ;
#243 = PRODUCT_DEFINITION_SHAPE ( 'NONE', 'NONE',  #273 ) ;
#244 = CARTESIAN_POINT ( 'NONE',  ( 5.000000000000000000, 6.123233995736766282E-16, 130.0000000000000000 ) ) ;
#245 = EDGE_LOOP ( 'NONE', ( #197, #254 ) ) ;
#246 = CARTESIAN_POINT ( 'NONE',  ( 0.000000000000000000, 0.000000000000000000, 5.500000000000005329 ) ) ;
#247 = ORIENTED_EDGE ( 'NONE', *, *, #214, .T. ) ;
#248 = CYLINDRICAL_SURFACE ( 'NONE', #204, 5.000000000000000000 ) ;
#249 = EDGE_CURVE ( 'NONE', #142, #76, #210, .T. ) ;
#250 = CIRCLE ( 'NONE', #61, 8.000000000000000000 ) ;
#251 = PRODUCT_DEFINITION_FORMATION_WITH_SPECIFIED_SOURCE ( 'LIBOVOLNÝ', '', #283, .NOT_KNOWN. ) ;
#252 = ORIENTED_EDGE ( 'NONE', *, *, #352, .F. ) ;
#253 = COORDINATED_UNIVERSAL_TIME_OFFSET ( 1, 0, .AHEAD. ) ;
#254 = ORIENTED_EDGE ( 'NONE', *, *, #164, .T. ) ;
#255 = CARTESIAN_POINT ( 'NONE',  ( 0.000000000000000000, 0.000000000000000000, 130.0000000000000000 ) ) ;
#256 = DATE_AND_TIME ( #49, #205 ) ;
#257 = EDGE_CURVE ( 'NONE', #314, #142, #50, .T. ) ;
#258 = ORIENTED_EDGE ( 'NONE', *, *, #112, .F. ) ;
#259 = DIRECTION ( 'NONE',  ( 1.000000000000000000, 0.000000000000000000, 0.000000000000000000 ) ) ;
#260 = DATE_AND_TIME ( #344, #378 ) ;
#261 = AXIS2_PLACEMENT_3D ( 'NONE', #176, #336, #203 ) ;
#262 = CARTESIAN_POINT ( 'NONE',  ( -8.000000000000000000, 0.000000000000000000, 5.000000000000000000 ) ) ;
#263 = VECTOR ( 'NONE', #83, 1000.000000000000000 ) ;
#264 = CALENDAR_DATE ( 2022, 8, 7 ) ;
#265 = CARTESIAN_POINT ( 'NONE',  ( 0.000000000000000000, 0.000000000000000000, 0.000000000000000000 ) ) ;
#266 = VERTEX_POINT ( 'NONE', #169 ) ;
#267 = ADVANCED_FACE ( 'NONE', ( #189 ), #268, .F. ) ;
#268 = TOROIDAL_SURFACE ( 'NONE', #237, 5.500000000000000000, 0.5000000000000000000 ) ;
#269 = LOCAL_TIME ( 16, 51, 12.00000000000000000, #140 ) ;
#270 = DIRECTION ( 'NONE',  ( -1.000000000000000000, 0.000000000000000000, 0.000000000000000000 ) ) ;
#271 = AXIS2_PLACEMENT_3D ( 'NONE', #226, #295, #26 ) ;
#272 = CARTESIAN_POINT ( 'NONE',  ( 5.000000000000000000, 6.123233995736766282E-16, 130.0000000000000000 ) ) ;
#273 = PRODUCT_DEFINITION ( 'NEZNÁMÝ', '', #251, #369 ) ;
#274 = APPLICATION_CONTEXT ( 'configuration controlled 3d designs of mechanical parts and assemblies' ) ;
#275 = DIRECTION ( 'NONE',  ( -0.000000000000000000, -0.000000000000000000, -1.000000000000000000 ) ) ;
#276 = AXIS2_PLACEMENT_3D ( 'NONE', #360, #146, #5 ) ;
#277 = VERTEX_POINT ( 'NONE', #191 ) ;
#278 = DIRECTION ( 'NONE',  ( 0.000000000000000000, 0.000000000000000000, 1.000000000000000000 ) ) ;
#279 = ORIENTED_EDGE ( 'NONE', *, *, #28, .T. ) ;
#280 = EDGE_LOOP ( 'NONE', ( #186, #307, #247, #53 ) ) ;
#281 = APPROVAL_DATE_TIME ( #165, #114 ) ;
#282 = ORIENTED_EDGE ( 'NONE', *, *, #47, .F. ) ;
#283 = PRODUCT ( '3bb6', '3bb6', '', ( #94 ) ) ;
#284 = SHAPE_DEFINITION_REPRESENTATION ( #243, #12 ) ;
#285 = ORIENTED_EDGE ( 'NONE', *, *, #301, .T. ) ;
#286 = DIRECTION ( 'NONE',  ( -0.000000000000000000, -0.000000000000000000, -1.000000000000000000 ) ) ;
#287 = PERSON_AND_ORGANIZATION_ROLE ( 'creator' ) ;
#288 = EDGE_LOOP ( 'NONE', ( #297, #46 ) ) ;
#289 = APPROVAL_ROLE ( '' ) ;
#290 = AXIS2_PLACEMENT_3D ( 'NONE', #70, #37, #150 ) ;
#291 = VERTEX_POINT ( 'NONE', #196 ) ;
#292 = CIRCLE ( 'NONE', #51, 5.500000000000000000 ) ;
#293 = DIRECTION ( 'NONE',  ( 1.000000000000000000, 0.000000000000000000, 0.000000000000000000 ) ) ;
#294 = APPROVAL_ROLE ( '' ) ;
#295 = DIRECTION ( 'NONE',  ( 0.000000000000000000, 0.000000000000000000, 1.000000000000000000 ) ) ;
#296 = ADVANCED_FACE ( 'NONE', ( #327 ), #62, .F. ) ;
#297 = ORIENTED_EDGE ( 'NONE', *, *, #363, .T. ) ;
#298 = CARTESIAN_POINT ( 'NONE',  ( 5.500000000000000000, 0.000000000000000000, 5.000000000000002665 ) ) ;
#299 = ORIENTED_EDGE ( 'NONE', *, *, #28, .F. ) ;
#300 = CIRCLE ( 'NONE', #310, 8.000000000000000000 ) ;
#301 = EDGE_CURVE ( 'NONE', #291, #320, #339, .T. ) ;
#302 = APPLICATION_PROTOCOL_DEFINITION ( 'international standard', 'config_control_design', 1994, #228 ) ;
#303 = DIRECTION ( 'NONE',  ( 0.000000000000000000, 0.000000000000000000, 1.000000000000000000 ) ) ;
#304 = CARTESIAN_POINT ( 'NONE',  ( 0.000000000000000000, 0.000000000000000000, 5.000000000000000000 ) ) ;
#305 = CIRCLE ( 'NONE', #33, 5.000000000000000000 ) ;
#306 = LOCAL_TIME ( 16, 51, 12.00000000000000000, #253 ) ;
#307 = ORIENTED_EDGE ( 'NONE', *, *, #301, .F. ) ;
#308 = DIRECTION ( 'NONE',  ( 0.000000000000000000, 0.000000000000000000, -1.000000000000000000 ) ) ;
#309 = FACE_OUTER_BOUND ( 'NONE', #134, .T. ) ;
#310 = AXIS2_PLACEMENT_3D ( 'NONE', #119, #68, #126 ) ;
#311 = APPROVAL_PERSON_ORGANIZATION ( #17, #114, #224 ) ;
#312 = VERTEX_POINT ( 'NONE', #60 ) ;
#313 = PLANE ( 'NONE',  #42 ) ;
#314 = VERTEX_POINT ( 'NONE', #171 ) ;
#315 = PERSON_AND_ORGANIZATION ( #1, #98 ) ;
#316 = VERTEX_POINT ( 'NONE', #298 ) ;
#317 = FACE_BOUND ( 'NONE', #82, .T. ) ;
#318 = APPROVAL_DATE_TIME ( #260, #225 ) ;
#319 = CIRCLE ( 'NONE', #290, 5.000000000000000000 ) ;
#320 = VERTEX_POINT ( 'NONE', #234 ) ;
#321 = DIRECTION ( 'NONE',  ( 0.000000000000000000, -1.000000000000000000, 0.000000000000000000 ) ) ;
#322 = COORDINATED_UNIVERSAL_TIME_OFFSET ( 1, 0, .AHEAD. ) ;
#323 = ORIENTED_EDGE ( 'NONE', *, *, #231, .T. ) ;
#324 = CARTESIAN_POINT ( 'NONE',  ( 0.000000000000000000, 0.000000000000000000, 130.0000000000000000 ) ) ;
#325 = EDGE_CURVE ( 'NONE', #320, #277, #211, .T. ) ;
#326 = AXIS2_PLACEMENT_3D ( 'NONE', #324, #131, #184 ) ;
#327 = FACE_OUTER_BOUND ( 'NONE', #18, .T. ) ;
#328 = CARTESIAN_POINT ( 'NONE',  ( 0.000000000000000000, 0.000000000000000000, 5.500000000000005329 ) ) ;
#329 = ADVANCED_FACE ( 'NONE', ( #223, #381 ), #108, .T. ) ;
#330 = DIRECTION ( 'NONE',  ( -1.000000000000000000, 0.000000000000000000, 0.000000000000000000 ) ) ;
#331 = CARTESIAN_POINT ( 'NONE',  ( 0.000000000000000000, 0.000000000000000000, 5.000000000000000000 ) ) ;
#332 = CARTESIAN_POINT ( 'NONE',  ( 0.000000000000000000, 0.000000000000000000, 5.000000000000000000 ) ) ;
#333 = AXIS2_PLACEMENT_3D ( 'NONE', #202, #308, #270 ) ;
#334 = LOCAL_TIME ( 16, 51, 12.00000000000000000, #221 ) ;
#335 = CARTESIAN_POINT ( 'NONE',  ( -3.100000000000000089, 0.000000000000000000, 0.000000000000000000 ) ) ;
#336 = DIRECTION ( 'NONE',  ( 0.000000000000000000, 0.000000000000000000, 1.000000000000000000 ) ) ;
#337 = ORIENTED_EDGE ( 'NONE', *, *, #363, .F. ) ;
#338 = FACE_BOUND ( 'NONE', #118, .T. ) ;
#339 = CIRCLE ( 'NONE', #2, 5.000000000000000000 ) ;
#340 = CC_DESIGN_APPROVAL ( #194, ( #273 ) ) ;
#341 = EDGE_LOOP ( 'NONE', ( #10, #299, #35, #102 ) ) ;
#342 = FACE_OUTER_BOUND ( 'NONE', #43, .T. ) ;
#343 = ORIENTED_EDGE ( 'NONE', *, *, #257, .T. ) ;
#344 = CALENDAR_DATE ( 2022, 8, 7 ) ;
#345 = CC_DESIGN_PERSON_AND_ORGANIZATION_ASSIGNMENT ( #38, #242, ( #283 ) ) ;
#346 = APPROVAL_STATUS ( 'not_yet_approved' ) ;
#347 = VERTEX_POINT ( 'NONE', #141 ) ;
#348 = DIRECTION ( 'NONE',  ( 1.000000000000000000, 0.000000000000000000, -0.000000000000000000 ) ) ;
#349 = DATE_TIME_ROLE ( 'classification_date' ) ;
#350 = ORIENTED_EDGE ( 'NONE', *, *, #149, .F. ) ;
#351 = CARTESIAN_POINT ( 'NONE',  ( 0.000000000000000000, 0.000000000000000000, 5.500000000000005329 ) ) ;
#352 = EDGE_CURVE ( 'NONE', #76, #312, #147, .T. ) ;
#353 = SECURITY_CLASSIFICATION_LEVEL ( 'unclassified' ) ;
#354 = AXIS2_PLACEMENT_3D ( 'NONE', #8, #128, #259 ) ;
#355 = DIRECTION ( 'NONE',  ( -1.000000000000000000, 1.224646799147351482E-16, 0.000000000000000000 ) ) ;
#356 = CIRCLE ( 'NONE', #261, 3.100000000000000089 ) ;
#357 = DIRECTION ( 'NONE',  ( 1.000000000000000000, 0.000000000000000000, 0.000000000000000000 ) ) ;
#358 = FACE_OUTER_BOUND ( 'NONE', #366, .T. ) ;
#359 = EDGE_CURVE ( 'NONE', #180, #347, #370, .T. ) ;
#360 = CARTESIAN_POINT ( 'NONE',  ( 0.000000000000000000, 0.000000000000000000, 5.000000000000000000 ) ) ;
#361 = CARTESIAN_POINT ( 'NONE',  ( -3.100000000000000089, 0.000000000000000000, 130.0000000000000000 ) ) ;
#362 = AXIS2_PLACEMENT_3D ( 'NONE', #155, #80, #77 ) ;
#363 = EDGE_CURVE ( 'NONE', #316, #277, #292, .T. ) ;
#364 = LINE ( 'NONE', #235, #377 ) ;
#365 = DIRECTION ( 'NONE',  ( 0.000000000000000000, 0.000000000000000000, 1.000000000000000000 ) ) ;
#366 = EDGE_LOOP ( 'NONE', ( #175, #72, #88, #215 ) ) ;
#367 = FACE_OUTER_BOUND ( 'NONE', #371, .T. ) ;
#368 = AXIS2_PLACEMENT_3D ( 'NONE', #265, #376, #120 ) ;
#369 = DESIGN_CONTEXT ( 'detailed design', #228, 'design' ) ;
#370 = CIRCLE ( 'NONE', #219, 8.000000000000000000 ) ;
#371 = EDGE_LOOP ( 'NONE', ( #212, #133, #285, #350 ) ) ;
#372 = PERSON_AND_ORGANIZATION ( #1, #98 ) ;
#373 = VECTOR ( 'NONE', #153, 1000.000000000000000 ) ;
#374 = DIRECTION ( 'NONE',  ( -1.000000000000000000, 0.000000000000000000, 0.000000000000000000 ) ) ;
#375 = APPROVAL_STATUS ( 'not_yet_approved' ) ;
#376 = DIRECTION ( 'NONE',  ( -0.000000000000000000, -0.000000000000000000, -1.000000000000000000 ) ) ;
#377 = VECTOR ( 'NONE', #172, 1000.000000000000000 ) ;
#378 = LOCAL_TIME ( 16, 51, 12.00000000000000000, #78 ) ;
#379 = DIRECTION ( 'NONE',  ( 1.000000000000000000, 0.000000000000000000, 0.000000000000000000 ) ) ;
#380 = CC_DESIGN_PERSON_AND_ORGANIZATION_ASSIGNMENT ( #185, #287, ( #273 ) ) ;
#381 = FACE_OUTER_BOUND ( 'NONE', #57, .T. ) ;
ENDSEC;
END-ISO-10303-21;
