ISO-10303-21;
HEADER;
FILE_DESCRIPTION (( 'STEP AP203' ),
    '1' );
FILE_NAME ('3681.STEP',
    '2022-07-08T15:23:51',
    ( '' ),
    ( '' ),
    'SwSTEP 2.0',
    'SolidWorks 2019',
    '' );
FILE_SCHEMA (( 'CONFIG_CONTROL_DESIGN' ));
ENDSEC;

DATA;
#1 = DIRECTION ( 'NONE',  ( -0.000000000000000000, -0.000000000000000000, -1.000000000000000000 ) ) ;
#2 = DIRECTION ( 'NONE',  ( 0.000000000000000000, 0.000000000000000000, 1.000000000000000000 ) ) ;
#3 = APPROVAL_PERSON_ORGANIZATION ( #82, #323, #173 ) ;
#4 = APPROVAL_PERSON_ORGANIZATION ( #313, #325, #284 ) ;
#5 = ADVANCED_FACE ( 'NONE', ( #246 ), #335, .F. ) ;
#6 = DIRECTION ( 'NONE',  ( 1.000000000000000000, 0.000000000000000000, 0.000000000000000000 ) ) ;
#7 = EDGE_CURVE ( 'NONE', #72, #212, #324, .T. ) ;
#8 = DIRECTION ( 'NONE',  ( -1.000000000000000000, 0.000000000000000000, 0.000000000000000000 ) ) ;
#9 = ORIENTED_EDGE ( 'NONE', *, *, #71, .T. ) ;
#10 = CARTESIAN_POINT ( 'NONE',  ( -7.000000000000000000, 0.000000000000000000, 0.000000000000000000 ) ) ;
#11 = CIRCLE ( 'NONE', #373, 2.250000000000000000 ) ;
#12 = CC_DESIGN_DATE_AND_TIME_ASSIGNMENT ( #167, #283, ( #189 ) ) ;
#13 = DIRECTION ( 'NONE',  ( 1.000000000000000000, 0.000000000000000000, 0.000000000000000000 ) ) ;
#14 = ORIENTED_EDGE ( 'NONE', *, *, #241, .F. ) ;
#15 = APPROVAL_ROLE ( '' ) ;
#16 = VERTEX_POINT ( 'NONE', #10 ) ;
#17 = EDGE_LOOP ( 'NONE', ( #122, #342, #53, #216 ) ) ;
#18 = DATE_AND_TIME ( #253, #370 ) ;
#19 = ADVANCED_FACE ( 'NONE', ( #165, #363 ), #75, .F. ) ;
#20 = PERSON_AND_ORGANIZATION_ROLE ( 'classification_officer' ) ;
#21 = PERSON_AND_ORGANIZATION_ROLE ( 'creator' ) ;
#22 = EDGE_LOOP ( 'NONE', ( #38, #201, #9, #281 ) ) ;
#23 = DIRECTION ( 'NONE',  ( -0.000000000000000000, -0.000000000000000000, -1.000000000000000000 ) ) ;
#24 = CARTESIAN_POINT ( 'NONE',  ( 0.000000000000000000, 0.000000000000000000, 5.000000000000000000 ) ) ;
#25 = LINE ( 'NONE', #184, #304 ) ;
#26 = ORIENTED_EDGE ( 'NONE', *, *, #84, .T. ) ;
#27 = CC_DESIGN_PERSON_AND_ORGANIZATION_ASSIGNMENT ( #260, #21, ( #151 ) ) ;
#28 = CIRCLE ( 'NONE', #79, 0.5000000000000004441 ) ;
#29 = DIRECTION ( 'NONE',  ( -1.000000000000000000, 0.000000000000000000, 0.000000000000000000 ) ) ;
#30 = PRODUCT ( '3681', '3681', '', ( #140 ) ) ;
#31 = DIRECTION ( 'NONE',  ( 1.000000000000000000, 0.000000000000000000, 0.000000000000000000 ) ) ;
#32 = CARTESIAN_POINT ( 'NONE',  ( -4.000000000000000000, 0.000000000000000000, 5.500000000000005329 ) ) ;
#33 = CARTESIAN_POINT ( 'NONE',  ( -7.000000000000000000, 0.000000000000000000, 5.000000000000000000 ) ) ;
#34 = FACE_OUTER_BOUND ( 'NONE', #254, .T. ) ;
#35 = CARTESIAN_POINT ( 'NONE',  ( 2.250000000000000000, 2.755455298081544285E-16, 0.000000000000000000 ) ) ;
#36 = EDGE_CURVE ( 'NONE', #39, #293, #41, .T. ) ;
#37 = EDGE_LOOP ( 'NONE', ( #364, #218 ) ) ;
#38 = ORIENTED_EDGE ( 'NONE', *, *, #213, .F. ) ;
#39 = VERTEX_POINT ( 'NONE', #132 ) ;
#40 = DIRECTION ( 'NONE',  ( 1.000000000000000000, 0.000000000000000000, 0.000000000000000000 ) ) ;
#41 = CIRCLE ( 'NONE', #256, 2.250000000000000000 ) ;
#42 = AXIS2_PLACEMENT_3D ( 'NONE', #24, #157, #268 ) ;
#43 = DIRECTION ( 'NONE',  ( -0.000000000000000000, -0.000000000000000000, -1.000000000000000000 ) ) ;
#44 = CIRCLE ( 'NONE', #365, 2.250000000000000000 ) ;
#45 = PERSON_AND_ORGANIZATION ( #101, #171 ) ;
#46 = ADVANCED_FACE ( 'NONE', ( #305 ), #98, .F. ) ;
#47 = CC_DESIGN_APPROVAL ( #325, ( #189 ) ) ;
#48 = VERTEX_POINT ( 'NONE', #273 ) ;
#49 = DIRECTION ( 'NONE',  ( 1.000000000000000000, 0.000000000000000000, 0.000000000000000000 ) ) ;
#50 = EDGE_LOOP ( 'NONE', ( #178, #96 ) ) ;
#51 = APPROVAL_STATUS ( 'not_yet_approved' ) ;
#52 = PRODUCT_DEFINITION_SHAPE ( 'NONE', 'NONE',  #151 ) ;
#53 = ORIENTED_EDGE ( 'NONE', *, *, #376, .T. ) ;
#54 = APPLICATION_PROTOCOL_DEFINITION ( 'international standard', 'config_control_design', 1994, #261 ) ;
#55 = CC_DESIGN_APPROVAL ( #323, ( #151 ) ) ;
#56 = LOCAL_TIME ( 17, 23, 51.00000000000000000, #344 ) ;
#57 = APPROVAL_STATUS ( 'not_yet_approved' ) ;
#58 = DIRECTION ( 'NONE',  ( -0.000000000000000000, -0.000000000000000000, -1.000000000000000000 ) ) ;
#59 = CARTESIAN_POINT ( 'NONE',  ( 4.000000000000000000, 4.898587196589412829E-16, 5.500000000000005329 ) ) ;
#60 = LINE ( 'NONE', #264, #196 ) ;
#61 = ORIENTED_EDGE ( 'NONE', *, *, #239, .T. ) ;
#62 = CARTESIAN_POINT ( 'NONE',  ( 0.000000000000000000, 0.000000000000000000, 5.000000000000000000 ) ) ;
#63 = CARTESIAN_POINT ( 'NONE',  ( 0.000000000000000000, 0.000000000000000000, 255.0000000000000000 ) ) ;
#64 = AXIS2_PLACEMENT_3D ( 'NONE', #90, #67, #181 ) ;
#65 = CARTESIAN_POINT ( 'NONE',  ( 0.000000000000000000, 0.000000000000000000, 5.000000000000000000 ) ) ;
#66 = ADVANCED_FACE ( 'NONE', ( #367 ), #128, .T. ) ;
#67 = DIRECTION ( 'NONE',  ( 0.000000000000000000, 0.000000000000000000, 1.000000000000000000 ) ) ;
#68 = DIRECTION ( 'NONE',  ( -1.000000000000000000, 0.000000000000000000, 0.000000000000000000 ) ) ;
#69 = APPLICATION_CONTEXT ( 'configuration controlled 3d designs of mechanical parts and assemblies' ) ;
#70 = DIRECTION ( 'NONE',  ( 0.000000000000000000, 0.000000000000000000, -1.000000000000000000 ) ) ;
#71 = EDGE_CURVE ( 'NONE', #211, #16, #322, .T. ) ;
#72 = VERTEX_POINT ( 'NONE', #354 ) ;
#73 = EDGE_CURVE ( 'NONE', #39, #74, #180, .T. ) ;
#74 = VERTEX_POINT ( 'NONE', #269 ) ;
#75 = PLANE ( 'NONE',  #107 ) ;
#76 = ADVANCED_FACE ( 'NONE', ( #294 ), #319, .F. ) ;
#77 = APPROVAL_DATE_TIME ( #309, #323 ) ;
#78 =( NAMED_UNIT ( * ) SI_UNIT ( $, .STERADIAN. ) SOLID_ANGLE_UNIT ( ) );
#79 = AXIS2_PLACEMENT_3D ( 'NONE', #227, #326, #199 ) ;
#80 = CC_DESIGN_APPROVAL ( #215, ( #108 ) ) ;
#81 = EDGE_LOOP ( 'NONE', ( #161, #352 ) ) ;
#82 = PERSON_AND_ORGANIZATION ( #101, #171 ) ;
#83 = APPROVAL_DATE_TIME ( #170, #325 ) ;
#84 = EDGE_CURVE ( 'NONE', #72, #341, #25, .T. ) ;
#85 = AXIS2_PLACEMENT_3D ( 'NONE', #182, #330, #272 ) ;
#86 = LINE ( 'NONE', #238, #92 ) ;
#87 = EDGE_LOOP ( 'NONE', ( #375, #106, #112, #187 ) ) ;
#88 = CARTESIAN_POINT ( 'NONE',  ( 0.000000000000000000, 0.000000000000000000, 5.000000000000000000 ) ) ;
#89 = FACE_OUTER_BOUND ( 'NONE', #81, .T. ) ;
#90 = CARTESIAN_POINT ( 'NONE',  ( 0.000000000000000000, 0.000000000000000000, 5.500000000000005329 ) ) ;
#91 = CARTESIAN_POINT ( 'NONE',  ( 4.500000000000000888, 0.000000000000000000, 5.000000000000002665 ) ) ;
#92 = VECTOR ( 'NONE', #299, 1000.000000000000000 ) ;
#93 = LINE ( 'NONE', #298, #204 ) ;
#94 = PLANE ( 'NONE',  #349 ) ;
#95 = EDGE_CURVE ( 'NONE', #211, #209, #139, .T. ) ;
#96 = ORIENTED_EDGE ( 'NONE', *, *, #239, .F. ) ;
#97 = ORIENTED_EDGE ( 'NONE', *, *, #213, .T. ) ;
#98 = TOROIDAL_SURFACE ( 'NONE', #129, 4.500000000000000888, 0.5000000000000000000 ) ;
#99 = ORIENTED_EDGE ( 'NONE', *, *, #7, .T. ) ;
#100 = AXIS2_PLACEMENT_3D ( 'NONE', #334, #160, #40 ) ;
#101 = PERSON ( 'NEURÈENÝ', 'NEURÈENÝ', 'NEURÈENÝ', ('NEURÈENÝ'), ('NEURÈENÝ'), ('NEURÈENÝ') ) ;
#102 = AXIS2_PLACEMENT_3D ( 'NONE', #176, #115, #31 ) ;
#103 = MANIFOLD_SOLID_BREP ( 'Odebrat vysunutím3', #166 ) ;
#104 = DIRECTION ( 'NONE',  ( 1.000000000000000000, 0.000000000000000000, -0.000000000000000000 ) ) ;
#105 = ORIENTED_EDGE ( 'NONE', *, *, #7, .F. ) ;
#106 = ORIENTED_EDGE ( 'NONE', *, *, #144, .T. ) ;
#107 = AXIS2_PLACEMENT_3D ( 'NONE', #130, #366, #104 ) ;
#108 = PRODUCT_DEFINITION_FORMATION_WITH_SPECIFIED_SOURCE ( 'LIBOVOLNÝ', '', #30, .NOT_KNOWN. ) ;
#109 = EDGE_CURVE ( 'NONE', #212, #72, #368, .T. ) ;
#110 = PERSON_AND_ORGANIZATION_ROLE ( 'design_supplier' ) ;
#111 = CC_DESIGN_PERSON_AND_ORGANIZATION_ASSIGNMENT ( #193, #20, ( #189 ) ) ;
#112 = ORIENTED_EDGE ( 'NONE', *, *, #133, .F. ) ;
#113 = CIRCLE ( 'NONE', #42, 7.000000000000000000 ) ;
#114 = DATE_TIME_ROLE ( 'creation_date' ) ;
#115 = DIRECTION ( 'NONE',  ( 0.000000000000000000, 0.000000000000000000, 1.000000000000000000 ) ) ;
#116 = ORIENTED_EDGE ( 'NONE', *, *, #73, .T. ) ;
#117 = EDGE_LOOP ( 'NONE', ( #208, #333, #150, #280 ) ) ;
#118 = CYLINDRICAL_SURFACE ( 'NONE', #136, 4.000000000000000000 ) ;
#119 = CARTESIAN_POINT ( 'NONE',  ( -4.500000000000000888, 5.510910596163089556E-16, 5.500000000000005329 ) ) ;
#120 = DIRECTION ( 'NONE',  ( 1.000000000000000000, 0.000000000000000000, 0.000000000000000000 ) ) ;
#121 = DIRECTION ( 'NONE',  ( 0.000000000000000000, 0.000000000000000000, -1.000000000000000000 ) ) ;
#122 = ORIENTED_EDGE ( 'NONE', *, *, #144, .F. ) ;
#123 = FACE_OUTER_BOUND ( 'NONE', #235, .T. ) ;
#124 = UNCERTAINTY_MEASURE_WITH_UNIT (LENGTH_MEASURE( 1.000000000000000082E-05 ), #321, 'distance_accuracy_value', 'NONE');
#125 = PLANE ( 'NONE',  #252 ) ;
#126 = AXIS2_PLACEMENT_3D ( 'NONE', #347, #195, #49 ) ;
#127 = CARTESIAN_POINT ( 'NONE',  ( -7.000000000000000000, 0.000000000000000000, 5.000000000000000000 ) ) ;
#128 = CYLINDRICAL_SURFACE ( 'NONE', #146, 7.000000000000000000 ) ;
#129 = AXIS2_PLACEMENT_3D ( 'NONE', #185, #301, #249 ) ;
#130 = CARTESIAN_POINT ( 'NONE',  ( 0.000000000000000000, 0.000000000000000000, 0.000000000000000000 ) ) ;
#131 = AXIS2_PLACEMENT_3D ( 'NONE', #317, #292, #153 ) ;
#132 = CARTESIAN_POINT ( 'NONE',  ( -2.250000000000000000, 0.000000000000000000, 255.0000000000000000 ) ) ;
#133 = EDGE_CURVE ( 'NONE', #138, #48, #311, .T. ) ;
#134 = ADVANCED_FACE ( 'NONE', ( #174, #381 ), #94, .T. ) ;
#135 = AXIS2_PLACEMENT_3D ( 'NONE', #63, #200, #68 ) ;
#136 = AXIS2_PLACEMENT_3D ( 'NONE', #355, #1, #380 ) ;
#137 = COORDINATED_UNIVERSAL_TIME_OFFSET ( 1, 0, .AHEAD. ) ;
#138 = VERTEX_POINT ( 'NONE', #91 ) ;
#139 = CIRCLE ( 'NONE', #286, 7.000000000000000000 ) ;
#140 = MECHANICAL_CONTEXT ( 'NONE', #261, 'mechanical' ) ;
#141 = AXIS2_PLACEMENT_3D ( 'NONE', #378, #353, #230 ) ;
#142 = EDGE_CURVE ( 'NONE', #293, #231, #60, .T. ) ;
#143 = COORDINATED_UNIVERSAL_TIME_OFFSET ( 1, 0, .AHEAD. ) ;
#144 = EDGE_CURVE ( 'NONE', #320, #48, #287, .T. ) ;
#145 = CARTESIAN_POINT ( 'NONE',  ( 7.000000000000000000, 8.572527594031473190E-16, 5.000000000000000000 ) ) ;
#146 = AXIS2_PLACEMENT_3D ( 'NONE', #217, #43, #8 ) ;
#147 = DIRECTION ( 'NONE',  ( 1.000000000000000000, 0.000000000000000000, 0.000000000000000000 ) ) ;
#148 = AXIS2_PLACEMENT_3D ( 'NONE', #328, #229, #360 ) ;
#149 = DIRECTION ( 'NONE',  ( -0.000000000000000000, -0.000000000000000000, -1.000000000000000000 ) ) ;
#150 = ORIENTED_EDGE ( 'NONE', *, *, #241, .T. ) ;
#151 = PRODUCT_DEFINITION ( 'NEZNÁMÝ', '', #108, #359 ) ;
#152 = CARTESIAN_POINT ( 'NONE',  ( 2.250000000000000000, 2.755455298081544285E-16, 255.0000000000000000 ) ) ;
#153 = DIRECTION ( 'NONE',  ( 1.000000000000000000, 0.000000000000000000, 0.000000000000000000 ) ) ;
#154 = ORIENTED_EDGE ( 'NONE', *, *, #248, .F. ) ;
#155 = DIRECTION ( 'NONE',  ( -0.000000000000000000, -0.000000000000000000, -1.000000000000000000 ) ) ;
#156 = CARTESIAN_POINT ( 'NONE',  ( -4.000000000000000000, 0.000000000000000000, 255.0000000000000000 ) ) ;
#157 = DIRECTION ( 'NONE',  ( 0.000000000000000000, 0.000000000000000000, 1.000000000000000000 ) ) ;
#158 = DIRECTION ( 'NONE',  ( 0.000000000000000000, 0.000000000000000000, 1.000000000000000000 ) ) ;
#159 = APPROVAL_PERSON_ORGANIZATION ( #45, #215, #15 ) ;
#160 = DIRECTION ( 'NONE',  ( 0.000000000000000000, 0.000000000000000000, 1.000000000000000000 ) ) ;
#161 = ORIENTED_EDGE ( 'NONE', *, *, #95, .T. ) ;
#162 = CARTESIAN_POINT ( 'NONE',  ( 0.000000000000000000, 0.000000000000000000, 255.0000000000000000 ) ) ;
#163 = CIRCLE ( 'NONE', #224, 2.250000000000000000 ) ;
#164 = TOROIDAL_SURFACE ( 'NONE', #85, 4.500000000000000888, 0.5000000000000000000 ) ;
#165 = FACE_BOUND ( 'NONE', #220, .T. ) ;
#166 = CLOSED_SHELL ( 'NONE', ( #76, #46, #250, #282, #66, #210, #19, #310, #134, #194, #5 ) ) ;
#167 = DATE_AND_TIME ( #372, #56 ) ;
#168 = ORIENTED_EDGE ( 'NONE', *, *, #307, .T. ) ;
#169 = PERSON_AND_ORGANIZATION_ROLE ( 'creator' ) ;
#170 = DATE_AND_TIME ( #374, #191 ) ;
#171 = ORGANIZATION ( 'NEURÈENÝ', 'NEURÈENÝ', '' ) ;
#172 = EDGE_CURVE ( 'NONE', #320, #341, #315, .T. ) ;
#173 = APPROVAL_ROLE ( '' ) ;
#174 = FACE_BOUND ( 'NONE', #37, .T. ) ;
#175 = DIRECTION ( 'NONE',  ( -0.000000000000000000, -0.000000000000000000, -1.000000000000000000 ) ) ;
#176 = CARTESIAN_POINT ( 'NONE',  ( 0.000000000000000000, 0.000000000000000000, 255.0000000000000000 ) ) ;
#177 = EDGE_LOOP ( 'NONE', ( #331, #302, #168, #242 ) ) ;
#178 = ORIENTED_EDGE ( 'NONE', *, *, #337, .F. ) ;
#179 = DIRECTION ( 'NONE',  ( -0.000000000000000000, -0.000000000000000000, -1.000000000000000000 ) ) ;
#180 = LINE ( 'NONE', #262, #314 ) ;
#181 = DIRECTION ( 'NONE',  ( 1.000000000000000000, 0.000000000000000000, 0.000000000000000000 ) ) ;
#182 = CARTESIAN_POINT ( 'NONE',  ( 0.000000000000000000, 0.000000000000000000, 5.500000000000005329 ) ) ;
#183 = CARTESIAN_POINT ( 'NONE',  ( 0.000000000000000000, 0.000000000000000000, 0.000000000000000000 ) ) ;
#184 = CARTESIAN_POINT ( 'NONE',  ( 4.000000000000000000, 4.898587196589412829E-16, 255.0000000000000000 ) ) ;
#185 = CARTESIAN_POINT ( 'NONE',  ( 0.000000000000000000, 0.000000000000000000, 5.500000000000005329 ) ) ;
#186 = EDGE_LOOP ( 'NONE', ( #303, #99 ) ) ;
#187 = ORIENTED_EDGE ( 'NONE', *, *, #376, .F. ) ;
#188 = ORIENTED_EDGE ( 'NONE', *, *, #133, .T. ) ;
#189 = SECURITY_CLASSIFICATION ( '', '', #312 ) ;
#190 = DATE_AND_TIME ( #345, #271 ) ;
#191 = LOCAL_TIME ( 17, 23, 51.00000000000000000, #258 ) ;
#192 = APPROVAL_STATUS ( 'not_yet_approved' ) ;
#193 = PERSON_AND_ORGANIZATION ( #101, #171 ) ;
#194 = ADVANCED_FACE ( 'NONE', ( #377 ), #164, .F. ) ;
#195 = DIRECTION ( 'NONE',  ( 0.000000000000000000, 0.000000000000000000, 1.000000000000000000 ) ) ;
#196 = VECTOR ( 'NONE', #240, 1000.000000000000000 ) ;
#197 = CARTESIAN_POINT ( 'NONE',  ( 0.000000000000000000, 0.000000000000000000, 0.000000000000000000 ) ) ;
#198 = ADVANCED_BREP_SHAPE_REPRESENTATION ( '3681', ( #103, #126 ), #237 ) ;
#199 = DIRECTION ( 'NONE',  ( 0.000000000000000000, 0.000000000000000000, -1.000000000000000000 ) ) ;
#200 = DIRECTION ( 'NONE',  ( 0.000000000000000000, 0.000000000000000000, -1.000000000000000000 ) ) ;
#201 = ORIENTED_EDGE ( 'NONE', *, *, #95, .F. ) ;
#202 = CARTESIAN_POINT ( 'NONE',  ( 0.000000000000000000, 0.000000000000000000, 5.000000000000000000 ) ) ;
#203 = FACE_OUTER_BOUND ( 'NONE', #177, .T. ) ;
#204 = VECTOR ( 'NONE', #155, 1000.000000000000000 ) ;
#205 = DIRECTION ( 'NONE',  ( -1.000000000000000000, 1.224646799147351482E-16, 0.000000000000000000 ) ) ;
#206 = CARTESIAN_POINT ( 'NONE',  ( 0.000000000000000000, 0.000000000000000000, 255.0000000000000000 ) ) ;
#207 = FACE_BOUND ( 'NONE', #285, .T. ) ;
#208 = ORIENTED_EDGE ( 'NONE', *, *, #36, .T. ) ;
#209 = VERTEX_POINT ( 'NONE', #145 ) ;
#210 = ADVANCED_FACE ( 'NONE', ( #207, #89 ), #125, .T. ) ;
#211 = VERTEX_POINT ( 'NONE', #33 ) ;
#212 = VERTEX_POINT ( 'NONE', #156 ) ;
#213 = EDGE_CURVE ( 'NONE', #209, #297, #86, .T. ) ;
#214 = ORIENTED_EDGE ( 'NONE', *, *, #142, .F. ) ;
#215 = APPROVAL ( #192, 'NEURÈENÝ' ) ;
#216 = ORIENTED_EDGE ( 'NONE', *, *, #348, .F. ) ;
#217 = CARTESIAN_POINT ( 'NONE',  ( 0.000000000000000000, 0.000000000000000000, 5.000000000000000000 ) ) ;
#218 = ORIENTED_EDGE ( 'NONE', *, *, #270, .F. ) ;
#219 = LOCAL_TIME ( 17, 23, 51.00000000000000000, #289 ) ;
#220 = EDGE_LOOP ( 'NONE', ( #154, #14 ) ) ;
#221 = APPROVAL_DATE_TIME ( #18, #215 ) ;
#222 = CIRCLE ( 'NONE', #64, 4.000000000000000000 ) ;
#223 = PERSON_AND_ORGANIZATION ( #101, #171 ) ;
#224 = AXIS2_PLACEMENT_3D ( 'NONE', #197, #58, #358 ) ;
#225 = PERSON_AND_ORGANIZATION ( #101, #171 ) ;
#226 = ORIENTED_EDGE ( 'NONE', *, *, #307, .F. ) ;
#227 = CARTESIAN_POINT ( 'NONE',  ( 4.500000000000000888, 0.000000000000000000, 5.500000000000005329 ) ) ;
#228 = PRODUCT_RELATED_PRODUCT_CATEGORY ( 'detail', '', ( #30 ) ) ;
#229 = DIRECTION ( 'NONE',  ( 0.000000000000000000, 0.000000000000000000, 1.000000000000000000 ) ) ;
#230 = DIRECTION ( 'NONE',  ( 1.000000000000000000, 0.000000000000000000, 0.000000000000000000 ) ) ;
#231 = VERTEX_POINT ( 'NONE', #35 ) ;
#232 = CYLINDRICAL_SURFACE ( 'NONE', #247, 7.000000000000000000 ) ;
#233 = CARTESIAN_POINT ( 'NONE',  ( 0.000000000000000000, 0.000000000000000000, 255.0000000000000000 ) ) ;
#234 = ORIENTED_EDGE ( 'NONE', *, *, #71, .F. ) ;
#235 = EDGE_LOOP ( 'NONE', ( #105, #26, #369, #226 ) ) ;
#236 = DIRECTION ( 'NONE',  ( 0.000000000000000000, 0.000000000000000000, 1.000000000000000000 ) ) ;
#237 =( GEOMETRIC_REPRESENTATION_CONTEXT ( 3 ) GLOBAL_UNCERTAINTY_ASSIGNED_CONTEXT ( ( #124 ) ) GLOBAL_UNIT_ASSIGNED_CONTEXT ( ( #321, #255, #78 ) ) REPRESENTATION_CONTEXT ( 'NONE', 'WORKASPACE' ) );
#238 = CARTESIAN_POINT ( 'NONE',  ( 7.000000000000000000, 8.572527594031473190E-16, 5.000000000000000000 ) ) ;
#239 = EDGE_CURVE ( 'NONE', #297, #16, #306, .T. ) ;
#240 = DIRECTION ( 'NONE',  ( 0.000000000000000000, 0.000000000000000000, -1.000000000000000000 ) ) ;
#241 = EDGE_CURVE ( 'NONE', #231, #74, #163, .T. ) ;
#242 = ORIENTED_EDGE ( 'NONE', *, *, #172, .T. ) ;
#243 = EDGE_LOOP ( 'NONE', ( #214, #361, #116, #276 ) ) ;
#244 = VECTOR ( 'NONE', #23, 1000.000000000000000 ) ;
#245 = CC_DESIGN_DATE_AND_TIME_ASSIGNMENT ( #190, #114, ( #151 ) ) ;
#246 = FACE_OUTER_BOUND ( 'NONE', #243, .T. ) ;
#247 = AXIS2_PLACEMENT_3D ( 'NONE', #62, #175, #29 ) ;
#248 = EDGE_CURVE ( 'NONE', #74, #231, #11, .T. ) ;
#249 = DIRECTION ( 'NONE',  ( 1.000000000000000000, 0.000000000000000000, 0.000000000000000000 ) ) ;
#250 = ADVANCED_FACE ( 'NONE', ( #123 ), #118, .T. ) ;
#251 = CC_DESIGN_PERSON_AND_ORGANIZATION_ASSIGNMENT ( #225, #259, ( #30 ) ) ;
#252 = AXIS2_PLACEMENT_3D ( 'NONE', #65, #290, #296 ) ;
#253 = CALENDAR_DATE ( 2022, 8, 7 ) ;
#254 = EDGE_LOOP ( 'NONE', ( #346, #97, #61, #234 ) ) ;
#255 =( NAMED_UNIT ( * ) PLANE_ANGLE_UNIT ( ) SI_UNIT ( $, .RADIAN. ) );
#256 = AXIS2_PLACEMENT_3D ( 'NONE', #162, #277, #13 ) ;
#257 = CIRCLE ( 'NONE', #141, 7.000000000000000000 ) ;
#258 = COORDINATED_UNIVERSAL_TIME_OFFSET ( 1, 0, .AHEAD. ) ;
#259 = PERSON_AND_ORGANIZATION_ROLE ( 'design_owner' ) ;
#260 = PERSON_AND_ORGANIZATION ( #101, #171 ) ;
#261 = APPLICATION_CONTEXT ( 'configuration controlled 3d designs of mechanical parts and assemblies' ) ;
#262 = CARTESIAN_POINT ( 'NONE',  ( -2.250000000000000000, 0.000000000000000000, 255.0000000000000000 ) ) ;
#263 = CARTESIAN_POINT ( 'NONE',  ( 0.000000000000000000, 0.000000000000000000, 255.0000000000000000 ) ) ;
#264 = CARTESIAN_POINT ( 'NONE',  ( 2.250000000000000000, 2.755455298081544285E-16, 255.0000000000000000 ) ) ;
#265 = CYLINDRICAL_SURFACE ( 'NONE', #279, 4.000000000000000000 ) ;
#266 = DIRECTION ( 'NONE',  ( 1.000000000000000000, 0.000000000000000000, 0.000000000000000000 ) ) ;
#267 = ORIENTED_EDGE ( 'NONE', *, *, #348, .T. ) ;
#268 = DIRECTION ( 'NONE',  ( 1.000000000000000000, 0.000000000000000000, 0.000000000000000000 ) ) ;
#269 = CARTESIAN_POINT ( 'NONE',  ( -2.250000000000000000, 0.000000000000000000, 0.000000000000000000 ) ) ;
#270 = EDGE_CURVE ( 'NONE', #293, #39, #44, .T. ) ;
#271 = LOCAL_TIME ( 17, 23, 51.00000000000000000, #143 ) ;
#272 = DIRECTION ( 'NONE',  ( 1.000000000000000000, 0.000000000000000000, 0.000000000000000000 ) ) ;
#273 = CARTESIAN_POINT ( 'NONE',  ( -4.500000000000000888, 5.510910596163088569E-16, 5.000000000000002665 ) ) ;
#274 = CC_DESIGN_PERSON_AND_ORGANIZATION_ASSIGNMENT ( #371, #110, ( #108 ) ) ;
#275 = DIRECTION ( 'NONE',  ( -1.000000000000000000, 0.000000000000000000, 0.000000000000000000 ) ) ;
#276 = ORIENTED_EDGE ( 'NONE', *, *, #248, .T. ) ;
#277 = DIRECTION ( 'NONE',  ( 0.000000000000000000, 0.000000000000000000, 1.000000000000000000 ) ) ;
#278 = AXIS2_PLACEMENT_3D ( 'NONE', #119, #362, #205 ) ;
#279 = AXIS2_PLACEMENT_3D ( 'NONE', #263, #350, #329 ) ;
#280 = ORIENTED_EDGE ( 'NONE', *, *, #73, .F. ) ;
#281 = ORIENTED_EDGE ( 'NONE', *, *, #337, .T. ) ;
#282 = ADVANCED_FACE ( 'NONE', ( #34 ), #232, .T. ) ;
#283 = DATE_TIME_ROLE ( 'classification_date' ) ;
#284 = APPROVAL_ROLE ( '' ) ;
#285 = EDGE_LOOP ( 'NONE', ( #188, #267 ) ) ;
#286 = AXIS2_PLACEMENT_3D ( 'NONE', #202, #379, #266 ) ;
#287 = CIRCLE ( 'NONE', #278, 0.5000000000000004441 ) ;
#288 = SHAPE_DEFINITION_REPRESENTATION ( #52, #198 ) ;
#289 = COORDINATED_UNIVERSAL_TIME_OFFSET ( 1, 0, .AHEAD. ) ;
#290 = DIRECTION ( 'NONE',  ( 0.000000000000000000, 0.000000000000000000, 1.000000000000000000 ) ) ;
#291 = CARTESIAN_POINT ( 'NONE',  ( 7.000000000000000000, 8.572527594031473190E-16, 0.000000000000000000 ) ) ;
#292 = DIRECTION ( 'NONE',  ( -0.000000000000000000, -0.000000000000000000, -1.000000000000000000 ) ) ;
#293 = VERTEX_POINT ( 'NONE', #152 ) ;
#294 = FACE_OUTER_BOUND ( 'NONE', #117, .T. ) ;
#295 = DIRECTION ( 'NONE',  ( -0.000000000000000000, -0.000000000000000000, -1.000000000000000000 ) ) ;
#296 = DIRECTION ( 'NONE',  ( 1.000000000000000000, 0.000000000000000000, -0.000000000000000000 ) ) ;
#297 = VERTEX_POINT ( 'NONE', #291 ) ;
#298 = CARTESIAN_POINT ( 'NONE',  ( -4.000000000000000000, 0.000000000000000000, 255.0000000000000000 ) ) ;
#299 = DIRECTION ( 'NONE',  ( -0.000000000000000000, -0.000000000000000000, -1.000000000000000000 ) ) ;
#300 = AXIS2_PLACEMENT_3D ( 'NONE', #351, #158, #6 ) ;
#301 = DIRECTION ( 'NONE',  ( 0.000000000000000000, 0.000000000000000000, 1.000000000000000000 ) ) ;
#302 = ORIENTED_EDGE ( 'NONE', *, *, #109, .F. ) ;
#303 = ORIENTED_EDGE ( 'NONE', *, *, #109, .T. ) ;
#304 = VECTOR ( 'NONE', #149, 1000.000000000000000 ) ;
#305 = FACE_OUTER_BOUND ( 'NONE', #87, .T. ) ;
#306 = CIRCLE ( 'NONE', #300, 7.000000000000000000 ) ;
#307 = EDGE_CURVE ( 'NONE', #212, #320, #93, .T. ) ;
#308 = EDGE_CURVE ( 'NONE', #341, #320, #222, .T. ) ;
#309 = DATE_AND_TIME ( #340, #219 ) ;
#310 = ADVANCED_FACE ( 'NONE', ( #203 ), #265, .T. ) ;
#311 = CIRCLE ( 'NONE', #131, 4.500000000000000888 ) ;
#312 = SECURITY_CLASSIFICATION_LEVEL ( 'unclassified' ) ;
#313 = PERSON_AND_ORGANIZATION ( #101, #171 ) ;
#314 = VECTOR ( 'NONE', #121, 1000.000000000000000 ) ;
#315 = CIRCLE ( 'NONE', #148, 4.000000000000000000 ) ;
#316 = APPLICATION_PROTOCOL_DEFINITION ( 'international standard', 'config_control_design', 1994, #69 ) ;
#317 = CARTESIAN_POINT ( 'NONE',  ( 0.000000000000000000, 0.000000000000000000, 5.000000000000000000 ) ) ;
#318 = DIRECTION ( 'NONE',  ( 1.000000000000000000, 0.000000000000000000, 0.000000000000000000 ) ) ;
#319 = CYLINDRICAL_SURFACE ( 'NONE', #135, 2.250000000000000000 ) ;
#320 = VERTEX_POINT ( 'NONE', #32 ) ;
#321 =( LENGTH_UNIT ( ) NAMED_UNIT ( * ) SI_UNIT ( .MILLI., .METRE. ) );
#322 = LINE ( 'NONE', #127, #244 ) ;
#323 = APPROVAL ( #57, 'NEURÈENÝ' ) ;
#324 = CIRCLE ( 'NONE', #100, 4.000000000000000000 ) ;
#325 = APPROVAL ( #51, 'NEURÈENÝ' ) ;
#326 = DIRECTION ( 'NONE',  ( 0.000000000000000000, -1.000000000000000000, 0.000000000000000000 ) ) ;
#327 = CIRCLE ( 'NONE', #357, 4.500000000000000888 ) ;
#328 = CARTESIAN_POINT ( 'NONE',  ( 0.000000000000000000, 0.000000000000000000, 5.500000000000005329 ) ) ;
#329 = DIRECTION ( 'NONE',  ( -1.000000000000000000, 0.000000000000000000, 0.000000000000000000 ) ) ;
#330 = DIRECTION ( 'NONE',  ( 0.000000000000000000, 0.000000000000000000, 1.000000000000000000 ) ) ;
#331 = ORIENTED_EDGE ( 'NONE', *, *, #84, .F. ) ;
#332 = CARTESIAN_POINT ( 'NONE',  ( 0.000000000000000000, 0.000000000000000000, 255.0000000000000000 ) ) ;
#333 = ORIENTED_EDGE ( 'NONE', *, *, #142, .T. ) ;
#334 = CARTESIAN_POINT ( 'NONE',  ( 0.000000000000000000, 0.000000000000000000, 255.0000000000000000 ) ) ;
#335 = CYLINDRICAL_SURFACE ( 'NONE', #339, 2.250000000000000000 ) ;
#336 = EDGE_CURVE ( 'NONE', #209, #211, #113, .T. ) ;
#337 = EDGE_CURVE ( 'NONE', #16, #297, #257, .T. ) ;
#338 = CC_DESIGN_PERSON_AND_ORGANIZATION_ASSIGNMENT ( #223, #169, ( #108 ) ) ;
#339 = AXIS2_PLACEMENT_3D ( 'NONE', #332, #70, #275 ) ;
#340 = CALENDAR_DATE ( 2022, 8, 7 ) ;
#341 = VERTEX_POINT ( 'NONE', #59 ) ;
#342 = ORIENTED_EDGE ( 'NONE', *, *, #308, .F. ) ;
#343 = CC_DESIGN_SECURITY_CLASSIFICATION ( #189, ( #108 ) ) ;
#344 = COORDINATED_UNIVERSAL_TIME_OFFSET ( 1, 0, .AHEAD. ) ;
#345 = CALENDAR_DATE ( 2022, 8, 7 ) ;
#346 = ORIENTED_EDGE ( 'NONE', *, *, #336, .F. ) ;
#347 = CARTESIAN_POINT ( 'NONE',  ( 0.000000000000000000, 0.000000000000000000, 0.000000000000000000 ) ) ;
#348 = EDGE_CURVE ( 'NONE', #48, #138, #327, .T. ) ;
#349 = AXIS2_PLACEMENT_3D ( 'NONE', #233, #2, #356 ) ;
#350 = DIRECTION ( 'NONE',  ( -0.000000000000000000, -0.000000000000000000, -1.000000000000000000 ) ) ;
#351 = CARTESIAN_POINT ( 'NONE',  ( 0.000000000000000000, 0.000000000000000000, 0.000000000000000000 ) ) ;
#352 = ORIENTED_EDGE ( 'NONE', *, *, #336, .T. ) ;
#353 = DIRECTION ( 'NONE',  ( 0.000000000000000000, 0.000000000000000000, 1.000000000000000000 ) ) ;
#354 = CARTESIAN_POINT ( 'NONE',  ( 4.000000000000000000, 4.898587196589412829E-16, 255.0000000000000000 ) ) ;
#355 = CARTESIAN_POINT ( 'NONE',  ( 0.000000000000000000, 0.000000000000000000, 255.0000000000000000 ) ) ;
#356 = DIRECTION ( 'NONE',  ( 1.000000000000000000, 0.000000000000000000, -0.000000000000000000 ) ) ;
#357 = AXIS2_PLACEMENT_3D ( 'NONE', #88, #179, #120 ) ;
#358 = DIRECTION ( 'NONE',  ( 1.000000000000000000, 0.000000000000000000, 0.000000000000000000 ) ) ;
#359 = DESIGN_CONTEXT ( 'detailed design', #69, 'design' ) ;
#360 = DIRECTION ( 'NONE',  ( 1.000000000000000000, 0.000000000000000000, 0.000000000000000000 ) ) ;
#361 = ORIENTED_EDGE ( 'NONE', *, *, #270, .T. ) ;
#362 = DIRECTION ( 'NONE',  ( 1.224646799147353207E-16, 1.000000000000000000, -0.000000000000000000 ) ) ;
#363 = FACE_OUTER_BOUND ( 'NONE', #50, .T. ) ;
#364 = ORIENTED_EDGE ( 'NONE', *, *, #36, .F. ) ;
#365 = AXIS2_PLACEMENT_3D ( 'NONE', #206, #236, #147 ) ;
#366 = DIRECTION ( 'NONE',  ( 0.000000000000000000, 0.000000000000000000, 1.000000000000000000 ) ) ;
#367 = FACE_OUTER_BOUND ( 'NONE', #22, .T. ) ;
#368 = CIRCLE ( 'NONE', #102, 4.000000000000000000 ) ;
#369 = ORIENTED_EDGE ( 'NONE', *, *, #308, .T. ) ;
#370 = LOCAL_TIME ( 17, 23, 51.00000000000000000, #137 ) ;
#371 = PERSON_AND_ORGANIZATION ( #101, #171 ) ;
#372 = CALENDAR_DATE ( 2022, 8, 7 ) ;
#373 = AXIS2_PLACEMENT_3D ( 'NONE', #183, #295, #318 ) ;
#374 = CALENDAR_DATE ( 2022, 8, 7 ) ;
#375 = ORIENTED_EDGE ( 'NONE', *, *, #172, .F. ) ;
#376 = EDGE_CURVE ( 'NONE', #341, #138, #28, .T. ) ;
#377 = FACE_OUTER_BOUND ( 'NONE', #17, .T. ) ;
#378 = CARTESIAN_POINT ( 'NONE',  ( 0.000000000000000000, 0.000000000000000000, 0.000000000000000000 ) ) ;
#379 = DIRECTION ( 'NONE',  ( 0.000000000000000000, 0.000000000000000000, 1.000000000000000000 ) ) ;
#380 = DIRECTION ( 'NONE',  ( -1.000000000000000000, 0.000000000000000000, 0.000000000000000000 ) ) ;
#381 = FACE_OUTER_BOUND ( 'NONE', #186, .T. ) ;
ENDSEC;
END-ISO-10303-21;
