ISO-10303-21;
HEADER;
FILE_DESCRIPTION (( 'STEP AP203' ),
    '1' );
FILE_NAME ('3b28.STEP',
    '2022-07-08T14:49:14',
    ( '' ),
    ( '' ),
    'SwSTEP 2.0',
    'SolidWorks 2019',
    '' );
FILE_SCHEMA (( 'CONFIG_CONTROL_DESIGN' ));
ENDSEC;

DATA;
#1 = ORIENTED_EDGE ( 'NONE', *, *, #341, .T. ) ;
#2 = EDGE_LOOP ( 'NONE', ( #376, #245 ) ) ;
#3 = EDGE_LOOP ( 'NONE', ( #84, #354, #25, #349 ) ) ;
#4 = EDGE_CURVE ( 'NONE', #207, #90, #339, .T. ) ;
#5 = DIRECTION ( 'NONE',  ( -0.000000000000000000, -0.000000000000000000, -1.000000000000000000 ) ) ;
#6 = EDGE_LOOP ( 'NONE', ( #238, #158, #229, #223 ) ) ;
#7 = CIRCLE ( 'NONE', #348, 3.100000000000000089 ) ;
#8 = FACE_OUTER_BOUND ( 'NONE', #320, .T. ) ;
#9 = VERTEX_POINT ( 'NONE', #15 ) ;
#10 = CARTESIAN_POINT ( 'NONE',  ( 0.000000000000000000, 0.000000000000000000, 455.0000000000000000 ) ) ;
#11 = CARTESIAN_POINT ( 'NONE',  ( 0.000000000000000000, 0.000000000000000000, 5.500000000000005329 ) ) ;
#12 = DIRECTION ( 'NONE',  ( 1.000000000000000000, 0.000000000000000000, 0.000000000000000000 ) ) ;
#13 = AXIS2_PLACEMENT_3D ( 'NONE', #249, #338, #67 ) ;
#14 = DIRECTION ( 'NONE',  ( -0.000000000000000000, -0.000000000000000000, -1.000000000000000000 ) ) ;
#15 = CARTESIAN_POINT ( 'NONE',  ( -8.000000000000000000, 0.000000000000000000, 5.000000000000000000 ) ) ;
#16 = DIRECTION ( 'NONE',  ( 1.224646799147353207E-16, 1.000000000000000000, -0.000000000000000000 ) ) ;
#17 = ORIENTED_EDGE ( 'NONE', *, *, #241, .T. ) ;
#18 = CARTESIAN_POINT ( 'NONE',  ( 0.000000000000000000, 0.000000000000000000, 5.000000000000000000 ) ) ;
#19 = VECTOR ( 'NONE', #58, 1000.000000000000000 ) ;
#20 = LINE ( 'NONE', #138, #220 ) ;
#21 = COORDINATED_UNIVERSAL_TIME_OFFSET ( 1, 0, .AHEAD. ) ;
#22 = CALENDAR_DATE ( 2022, 8, 7 ) ;
#23 = CIRCLE ( 'NONE', #362, 5.500000000000000000 ) ;
#24 = PERSON_AND_ORGANIZATION ( #289, #203 ) ;
#25 = ORIENTED_EDGE ( 'NONE', *, *, #172, .T. ) ;
#26 = AXIS2_PLACEMENT_3D ( 'NONE', #221, #247, #248 ) ;
#27 = APPROVAL_DATE_TIME ( #91, #105 ) ;
#28 = ORIENTED_EDGE ( 'NONE', *, *, #331, .F. ) ;
#29 = EDGE_LOOP ( 'NONE', ( #235, #179 ) ) ;
#30 = CYLINDRICAL_SURFACE ( 'NONE', #292, 8.000000000000000000 ) ;
#31 = CC_DESIGN_PERSON_AND_ORGANIZATION_ASSIGNMENT ( #24, #310, ( #64 ) ) ;
#32 = ORIENTED_EDGE ( 'NONE', *, *, #341, .F. ) ;
#33 = APPROVAL_PERSON_ORGANIZATION ( #381, #358, #340 ) ;
#34 = EDGE_CURVE ( 'NONE', #90, #187, #23, .T. ) ;
#35 = DIRECTION ( 'NONE',  ( 0.000000000000000000, 0.000000000000000000, 1.000000000000000000 ) ) ;
#36 = CARTESIAN_POINT ( 'NONE',  ( 5.000000000000000000, 6.123233995736766282E-16, 455.0000000000000000 ) ) ;
#37 = CARTESIAN_POINT ( 'NONE',  ( -5.000000000000000000, 0.000000000000000000, 5.500000000000005329 ) ) ;
#38 = PLANE ( 'NONE',  #79 ) ;
#39 = CARTESIAN_POINT ( 'NONE',  ( 8.000000000000000000, 9.797174393178825657E-16, 5.000000000000000000 ) ) ;
#40 = CARTESIAN_POINT ( 'NONE',  ( 0.000000000000000000, 0.000000000000000000, 455.0000000000000000 ) ) ;
#41 = AXIS2_PLACEMENT_3D ( 'NONE', #70, #222, #302 ) ;
#42 = DIRECTION ( 'NONE',  ( 0.000000000000000000, 0.000000000000000000, 1.000000000000000000 ) ) ;
#43 = DIRECTION ( 'NONE',  ( 0.000000000000000000, 0.000000000000000000, -1.000000000000000000 ) ) ;
#44 = APPLICATION_CONTEXT ( 'configuration controlled 3d designs of mechanical parts and assemblies' ) ;
#45 = DIRECTION ( 'NONE',  ( 0.000000000000000000, 0.000000000000000000, 1.000000000000000000 ) ) ;
#46 = EDGE_LOOP ( 'NONE', ( #151, #32 ) ) ;
#47 = COORDINATED_UNIVERSAL_TIME_OFFSET ( 1, 0, .AHEAD. ) ;
#48 = PERSON_AND_ORGANIZATION ( #289, #203 ) ;
#49 = VECTOR ( 'NONE', #131, 1000.000000000000000 ) ;
#50 = PERSON_AND_ORGANIZATION ( #289, #203 ) ;
#51 = AXIS2_PLACEMENT_3D ( 'NONE', #226, #94, #130 ) ;
#52 = DATE_AND_TIME ( #22, #258 ) ;
#53 = ORIENTED_EDGE ( 'NONE', *, *, #199, .F. ) ;
#54 = CARTESIAN_POINT ( 'NONE',  ( -5.500000000000000000, 6.735557395310442023E-16, 5.000000000000002665 ) ) ;
#55 = ORIENTED_EDGE ( 'NONE', *, *, #127, .T. ) ;
#56 = ADVANCED_FACE ( 'NONE', ( #277 ), #330, .T. ) ;
#57 = ORIENTED_EDGE ( 'NONE', *, *, #209, .T. ) ;
#58 = DIRECTION ( 'NONE',  ( -0.000000000000000000, -0.000000000000000000, -1.000000000000000000 ) ) ;
#59 = DIRECTION ( 'NONE',  ( -1.000000000000000000, 0.000000000000000000, 0.000000000000000000 ) ) ;
#60 = EDGE_LOOP ( 'NONE', ( #240, #357, #261, #351 ) ) ;
#61 = CIRCLE ( 'NONE', #283, 8.000000000000000000 ) ;
#62 = DIRECTION ( 'NONE',  ( -1.000000000000000000, 0.000000000000000000, 0.000000000000000000 ) ) ;
#63 = CARTESIAN_POINT ( 'NONE',  ( 3.100000000000000089, 3.796405077356793932E-16, 0.000000000000000000 ) ) ;
#64 = PRODUCT_DEFINITION_FORMATION_WITH_SPECIFIED_SOURCE ( 'LIBOVOLNÝ', '', #139, .NOT_KNOWN. ) ;
#65 = DIRECTION ( 'NONE',  ( 0.000000000000000000, 0.000000000000000000, 1.000000000000000000 ) ) ;
#66 = LINE ( 'NONE', #95, #49 ) ;
#67 = DIRECTION ( 'NONE',  ( 1.000000000000000000, 0.000000000000000000, 0.000000000000000000 ) ) ;
#68 = CARTESIAN_POINT ( 'NONE',  ( 5.500000000000000000, 0.000000000000000000, 5.000000000000002665 ) ) ;
#69 = ADVANCED_FACE ( 'NONE', ( #125 ), #217, .F. ) ;
#70 = CARTESIAN_POINT ( 'NONE',  ( 0.000000000000000000, 0.000000000000000000, 455.0000000000000000 ) ) ;
#71 = CARTESIAN_POINT ( 'NONE',  ( 0.000000000000000000, 0.000000000000000000, 455.0000000000000000 ) ) ;
#72 = AXIS2_PLACEMENT_3D ( 'NONE', #115, #5, #62 ) ;
#73 = CARTESIAN_POINT ( 'NONE',  ( 0.000000000000000000, 0.000000000000000000, 0.000000000000000000 ) ) ;
#74 = DATE_TIME_ROLE ( 'creation_date' ) ;
#75 = DATE_AND_TIME ( #232, #136 ) ;
#76 = DESIGN_CONTEXT ( 'detailed design', #174, 'design' ) ;
#77 =( NAMED_UNIT ( * ) PLANE_ANGLE_UNIT ( ) SI_UNIT ( $, .RADIAN. ) );
#78 = EDGE_CURVE ( 'NONE', #82, #121, #234, .T. ) ;
#79 = AXIS2_PLACEMENT_3D ( 'NONE', #40, #280, #368 ) ;
#80 = APPROVAL_STATUS ( 'not_yet_approved' ) ;
#81 = CC_DESIGN_APPROVAL ( #358, ( #186 ) ) ;
#82 = VERTEX_POINT ( 'NONE', #63 ) ;
#83 = CARTESIAN_POINT ( 'NONE',  ( 3.100000000000000089, 3.796405077356793932E-16, 455.0000000000000000 ) ) ;
#84 = ORIENTED_EDGE ( 'NONE', *, *, #183, .F. ) ;
#85 = CARTESIAN_POINT ( 'NONE',  ( 8.000000000000000000, 9.797174393178825657E-16, 5.000000000000000000 ) ) ;
#86 = ORIENTED_EDGE ( 'NONE', *, *, #375, .T. ) ;
#87 = FACE_OUTER_BOUND ( 'NONE', #274, .T. ) ;
#88 = ORIENTED_EDGE ( 'NONE', *, *, #307, .T. ) ;
#89 = DIRECTION ( 'NONE',  ( -0.000000000000000000, -0.000000000000000000, -1.000000000000000000 ) ) ;
#90 = VERTEX_POINT ( 'NONE', #68 ) ;
#91 = DATE_AND_TIME ( #214, #250 ) ;
#92 = DIRECTION ( 'NONE',  ( 1.000000000000000000, 0.000000000000000000, 0.000000000000000000 ) ) ;
#93 = DIRECTION ( 'NONE',  ( 1.000000000000000000, 0.000000000000000000, 0.000000000000000000 ) ) ;
#94 = DIRECTION ( 'NONE',  ( 0.000000000000000000, 0.000000000000000000, -1.000000000000000000 ) ) ;
#95 = CARTESIAN_POINT ( 'NONE',  ( -8.000000000000000000, 0.000000000000000000, 5.000000000000000000 ) ) ;
#96 = ADVANCED_FACE ( 'NONE', ( #124 ), #128, .T. ) ;
#97 = PLANE ( 'NONE',  #378 ) ;
#98 = CARTESIAN_POINT ( 'NONE',  ( 3.100000000000000089, 3.796405077356793932E-16, 455.0000000000000000 ) ) ;
#99 = CC_DESIGN_PERSON_AND_ORGANIZATION_ASSIGNMENT ( #147, #202, ( #139 ) ) ;
#100 = DIRECTION ( 'NONE',  ( -0.000000000000000000, -0.000000000000000000, -1.000000000000000000 ) ) ;
#101 = CIRCLE ( 'NONE', #13, 8.000000000000000000 ) ;
#102 = CARTESIAN_POINT ( 'NONE',  ( 0.000000000000000000, 0.000000000000000000, 455.0000000000000000 ) ) ;
#103 = EDGE_CURVE ( 'NONE', #187, #90, #304, .T. ) ;
#104 = PERSON_AND_ORGANIZATION ( #289, #203 ) ;
#105 = APPROVAL ( #80, 'NEURÈENÝ' ) ;
#106 = AXIS2_PLACEMENT_3D ( 'NONE', #301, #360, #224 ) ;
#107 = AXIS2_PLACEMENT_3D ( 'NONE', #334, #164, #92 ) ;
#108 =( NAMED_UNIT ( * ) SI_UNIT ( $, .STERADIAN. ) SOLID_ANGLE_UNIT ( ) );
#109 = VERTEX_POINT ( 'NONE', #36 ) ;
#110 = CALENDAR_DATE ( 2022, 8, 7 ) ;
#111 = CIRCLE ( 'NONE', #169, 5.000000000000000000 ) ;
#112 = CC_DESIGN_APPROVAL ( #137, ( #64 ) ) ;
#113 = ORIENTED_EDGE ( 'NONE', *, *, #216, .F. ) ;
#114 = MANIFOLD_SOLID_BREP ( 'Odebrat vysunutím3', #178 ) ;
#115 = CARTESIAN_POINT ( 'NONE',  ( 0.000000000000000000, 0.000000000000000000, 455.0000000000000000 ) ) ;
#116 = ORIENTED_EDGE ( 'NONE', *, *, #4, .T. ) ;
#117 = CARTESIAN_POINT ( 'NONE',  ( 0.000000000000000000, 0.000000000000000000, 5.500000000000005329 ) ) ;
#118 = CC_DESIGN_APPROVAL ( #105, ( #328 ) ) ;
#119 = VERTEX_POINT ( 'NONE', #193 ) ;
#120 = TOROIDAL_SURFACE ( 'NONE', #225, 5.500000000000000000, 0.5000000000000000000 ) ;
#121 = VERTEX_POINT ( 'NONE', #251 ) ;
#122 = EDGE_CURVE ( 'NONE', #352, #207, #264, .T. ) ;
#123 = DIRECTION ( 'NONE',  ( 0.000000000000000000, 0.000000000000000000, 1.000000000000000000 ) ) ;
#124 = FACE_OUTER_BOUND ( 'NONE', #140, .T. ) ;
#125 = FACE_OUTER_BOUND ( 'NONE', #6, .T. ) ;
#126 = DIRECTION ( 'NONE',  ( 1.000000000000000000, 0.000000000000000000, -0.000000000000000000 ) ) ;
#127 = EDGE_CURVE ( 'NONE', #9, #205, #66, .T. ) ;
#128 = CYLINDRICAL_SURFACE ( 'NONE', #26, 5.000000000000000000 ) ;
#129 = AXIS2_PLACEMENT_3D ( 'NONE', #102, #65, #168 ) ;
#130 = DIRECTION ( 'NONE',  ( -1.000000000000000000, 0.000000000000000000, 0.000000000000000000 ) ) ;
#131 = DIRECTION ( 'NONE',  ( -0.000000000000000000, -0.000000000000000000, -1.000000000000000000 ) ) ;
#132 = DIRECTION ( 'NONE',  ( -1.000000000000000000, 1.224646799147351482E-16, 0.000000000000000000 ) ) ;
#133 = VERTEX_POINT ( 'NONE', #303 ) ;
#134 = DIRECTION ( 'NONE',  ( 1.000000000000000000, 0.000000000000000000, 0.000000000000000000 ) ) ;
#135 = AXIS2_PLACEMENT_3D ( 'NONE', #117, #152, #316 ) ;
#136 = LOCAL_TIME ( 16, 49, 14.00000000000000000, #231 ) ;
#137 = APPROVAL ( #171, 'NEURÈENÝ' ) ;
#138 = CARTESIAN_POINT ( 'NONE',  ( -3.100000000000000089, 0.000000000000000000, 455.0000000000000000 ) ) ;
#139 = PRODUCT ( '3b28', '3b28', '', ( #260 ) ) ;
#140 = EDGE_LOOP ( 'NONE', ( #294, #113, #88, #314 ) ) ;
#141 = PERSON_AND_ORGANIZATION ( #289, #203 ) ;
#142 = AXIS2_PLACEMENT_3D ( 'NONE', #71, #327, #281 ) ;
#143 = CC_DESIGN_SECURITY_CLASSIFICATION ( #328, ( #64 ) ) ;
#144 = ADVANCED_FACE ( 'NONE', ( #191, #335 ), #38, .T. ) ;
#145 = ORIENTED_EDGE ( 'NONE', *, *, #78, .F. ) ;
#146 = DATE_AND_TIME ( #287, #170 ) ;
#147 = PERSON_AND_ORGANIZATION ( #289, #203 ) ;
#148 = AXIS2_PLACEMENT_3D ( 'NONE', #11, #366, #93 ) ;
#149 = ORIENTED_EDGE ( 'NONE', *, *, #172, .F. ) ;
#150 = CARTESIAN_POINT ( 'NONE',  ( 0.000000000000000000, 0.000000000000000000, 5.000000000000000000 ) ) ;
#151 = ORIENTED_EDGE ( 'NONE', *, *, #241, .F. ) ;
#152 = DIRECTION ( 'NONE',  ( 0.000000000000000000, 0.000000000000000000, 1.000000000000000000 ) ) ;
#153 = ORIENTED_EDGE ( 'NONE', *, *, #127, .F. ) ;
#154 = VERTEX_POINT ( 'NONE', #98 ) ;
#155 = AXIS2_PLACEMENT_3D ( 'NONE', #194, #306, #359 ) ;
#156 = CARTESIAN_POINT ( 'NONE',  ( -3.100000000000000089, 0.000000000000000000, 455.0000000000000000 ) ) ;
#157 =( GEOMETRIC_REPRESENTATION_CONTEXT ( 3 ) GLOBAL_UNCERTAINTY_ASSIGNED_CONTEXT ( ( #257 ) ) GLOBAL_UNIT_ASSIGNED_CONTEXT ( ( #343, #77, #108 ) ) REPRESENTATION_CONTEXT ( 'NONE', 'WORKASPACE' ) );
#158 = ORIENTED_EDGE ( 'NONE', *, *, #363, .T. ) ;
#159 = CC_DESIGN_PERSON_AND_ORGANIZATION_ASSIGNMENT ( #141, #311, ( #186 ) ) ;
#160 = DIRECTION ( 'NONE',  ( 0.000000000000000000, 0.000000000000000000, 1.000000000000000000 ) ) ;
#161 = CARTESIAN_POINT ( 'NONE',  ( 5.500000000000000000, 0.000000000000000000, 5.500000000000005329 ) ) ;
#162 = CC_DESIGN_DATE_AND_TIME_ASSIGNMENT ( #146, #262, ( #328 ) ) ;
#163 = LINE ( 'NONE', #219, #180 ) ;
#164 = DIRECTION ( 'NONE',  ( 0.000000000000000000, 0.000000000000000000, 1.000000000000000000 ) ) ;
#165 = DIRECTION ( 'NONE',  ( 1.000000000000000000, 0.000000000000000000, 0.000000000000000000 ) ) ;
#166 = DIRECTION ( 'NONE',  ( 1.000000000000000000, 0.000000000000000000, -0.000000000000000000 ) ) ;
#167 = CARTESIAN_POINT ( 'NONE',  ( 0.000000000000000000, 0.000000000000000000, 5.000000000000000000 ) ) ;
#168 = DIRECTION ( 'NONE',  ( 1.000000000000000000, 0.000000000000000000, 0.000000000000000000 ) ) ;
#169 = AXIS2_PLACEMENT_3D ( 'NONE', #10, #160, #242 ) ;
#170 = LOCAL_TIME ( 16, 49, 14.00000000000000000, #47 ) ;
#171 = APPROVAL_STATUS ( 'not_yet_approved' ) ;
#172 = EDGE_CURVE ( 'NONE', #207, #352, #312, .T. ) ;
#173 = DIRECTION ( 'NONE',  ( 1.000000000000000000, 0.000000000000000000, 0.000000000000000000 ) ) ;
#174 = APPLICATION_CONTEXT ( 'configuration controlled 3d designs of mechanical parts and assemblies' ) ;
#175 = AXIS2_PLACEMENT_3D ( 'NONE', #210, #324, #239 ) ;
#176 = ADVANCED_FACE ( 'NONE', ( #8 ), #295, .F. ) ;
#177 = ORIENTED_EDGE ( 'NONE', *, *, #34, .F. ) ;
#178 = CLOSED_SHELL ( 'NONE', ( #355, #176, #227, #56, #246, #315, #370, #96, #144, #233, #69 ) ) ;
#179 = ORIENTED_EDGE ( 'NONE', *, *, #363, .F. ) ;
#180 = VECTOR ( 'NONE', #195, 1000.000000000000000 ) ;
#181 = DIRECTION ( 'NONE',  ( 0.000000000000000000, 0.000000000000000000, -1.000000000000000000 ) ) ;
#182 = ORIENTED_EDGE ( 'NONE', *, *, #375, .F. ) ;
#183 = EDGE_CURVE ( 'NONE', #109, #133, #218, .T. ) ;
#184 = ORIENTED_EDGE ( 'NONE', *, *, #297, .F. ) ;
#185 = CARTESIAN_POINT ( 'NONE',  ( 0.000000000000000000, 0.000000000000000000, 5.500000000000005329 ) ) ;
#186 = PRODUCT_DEFINITION ( 'NEZNÁMÝ', '', #64, #76 ) ;
#187 = VERTEX_POINT ( 'NONE', #54 ) ;
#188 = VECTOR ( 'NONE', #181, 1000.000000000000000 ) ;
#189 = DIRECTION ( 'NONE',  ( -0.000000000000000000, -0.000000000000000000, -1.000000000000000000 ) ) ;
#190 = EDGE_CURVE ( 'NONE', #154, #82, #326, .T. ) ;
#191 = FACE_BOUND ( 'NONE', #29, .T. ) ;
#192 = DIRECTION ( 'NONE',  ( 0.000000000000000000, 0.000000000000000000, 1.000000000000000000 ) ) ;
#193 = CARTESIAN_POINT ( 'NONE',  ( 8.000000000000000000, 9.797174393178825657E-16, 0.000000000000000000 ) ) ;
#194 = CARTESIAN_POINT ( 'NONE',  ( 0.000000000000000000, 0.000000000000000000, 5.500000000000005329 ) ) ;
#195 = DIRECTION ( 'NONE',  ( -0.000000000000000000, -0.000000000000000000, -1.000000000000000000 ) ) ;
#196 = APPLICATION_PROTOCOL_DEFINITION ( 'international standard', 'config_control_design', 1994, #44 ) ;
#197 = ADVANCED_BREP_SHAPE_REPRESENTATION ( '3b28', ( #114, #278 ), #157 ) ;
#198 = APPROVAL_PERSON_ORGANIZATION ( #104, #137, #201 ) ;
#199 = EDGE_CURVE ( 'NONE', #272, #119, #212, .T. ) ;
#200 = PERSON_AND_ORGANIZATION_ROLE ( 'creator' ) ;
#201 = APPROVAL_ROLE ( '' ) ;
#202 = PERSON_AND_ORGANIZATION_ROLE ( 'design_owner' ) ;
#203 = ORGANIZATION ( 'NEURÈENÝ', 'NEURÈENÝ', '' ) ;
#204 = APPROVAL_ROLE ( '' ) ;
#205 = VERTEX_POINT ( 'NONE', #267 ) ;
#206 = CARTESIAN_POINT ( 'NONE',  ( 5.000000000000000000, 6.123233995736766282E-16, 5.500000000000005329 ) ) ;
#207 = VERTEX_POINT ( 'NONE', #206 ) ;
#208 = EDGE_LOOP ( 'NONE', ( #184, #290, #1, #153 ) ) ;
#209 = EDGE_CURVE ( 'NONE', #9, #272, #61, .T. ) ;
#210 = CARTESIAN_POINT ( 'NONE',  ( 0.000000000000000000, 0.000000000000000000, 0.000000000000000000 ) ) ;
#211 = EDGE_LOOP ( 'NONE', ( #53, #323, #55, #17 ) ) ;
#212 = LINE ( 'NONE', #85, #19 ) ;
#213 = ORIENTED_EDGE ( 'NONE', *, *, #103, .T. ) ;
#214 = CALENDAR_DATE ( 2022, 8, 7 ) ;
#215 = FACE_OUTER_BOUND ( 'NONE', #3, .T. ) ;
#216 = EDGE_CURVE ( 'NONE', #133, #109, #111, .T. ) ;
#217 = CYLINDRICAL_SURFACE ( 'NONE', #142, 3.100000000000000089 ) ;
#218 = CIRCLE ( 'NONE', #344, 5.000000000000000000 ) ;
#219 = CARTESIAN_POINT ( 'NONE',  ( -5.000000000000000000, 0.000000000000000000, 455.0000000000000000 ) ) ;
#220 = VECTOR ( 'NONE', #256, 1000.000000000000000 ) ;
#221 = CARTESIAN_POINT ( 'NONE',  ( 0.000000000000000000, 0.000000000000000000, 455.0000000000000000 ) ) ;
#222 = DIRECTION ( 'NONE',  ( 0.000000000000000000, 0.000000000000000000, 1.000000000000000000 ) ) ;
#223 = ORIENTED_EDGE ( 'NONE', *, *, #331, .T. ) ;
#224 = DIRECTION ( 'NONE',  ( -1.000000000000000000, 0.000000000000000000, 0.000000000000000000 ) ) ;
#225 = AXIS2_PLACEMENT_3D ( 'NONE', #185, #319, #271 ) ;
#226 = CARTESIAN_POINT ( 'NONE',  ( 0.000000000000000000, 0.000000000000000000, 455.0000000000000000 ) ) ;
#227 = ADVANCED_FACE ( 'NONE', ( #215 ), #353, .T. ) ;
#228 = DATE_AND_TIME ( #110, #284 ) ;
#229 = ORIENTED_EDGE ( 'NONE', *, *, #279, .T. ) ;
#230 = CIRCLE ( 'NONE', #236, 0.5000000000000004441 ) ;
#231 = COORDINATED_UNIVERSAL_TIME_OFFSET ( 1, 0, .AHEAD. ) ;
#232 = CALENDAR_DATE ( 2022, 8, 7 ) ;
#233 = ADVANCED_FACE ( 'NONE', ( #87 ), #120, .F. ) ;
#234 = CIRCLE ( 'NONE', #286, 3.100000000000000089 ) ;
#235 = ORIENTED_EDGE ( 'NONE', *, *, #347, .F. ) ;
#236 = AXIS2_PLACEMENT_3D ( 'NONE', #308, #16, #132 ) ;
#237 = CC_DESIGN_DATE_AND_TIME_ASSIGNMENT ( #75, #74, ( #186 ) ) ;
#238 = ORIENTED_EDGE ( 'NONE', *, *, #190, .F. ) ;
#239 = DIRECTION ( 'NONE',  ( 1.000000000000000000, 0.000000000000000000, 0.000000000000000000 ) ) ;
#240 = ORIENTED_EDGE ( 'NONE', *, *, #347, .T. ) ;
#241 = EDGE_CURVE ( 'NONE', #205, #119, #337, .T. ) ;
#242 = DIRECTION ( 'NONE',  ( 1.000000000000000000, 0.000000000000000000, 0.000000000000000000 ) ) ;
#243 = EDGE_LOOP ( 'NONE', ( #28, #145 ) ) ;
#244 = FACE_OUTER_BOUND ( 'NONE', #211, .T. ) ;
#245 = ORIENTED_EDGE ( 'NONE', *, *, #183, .T. ) ;
#246 = ADVANCED_FACE ( 'NONE', ( #244 ), #30, .T. ) ;
#247 = DIRECTION ( 'NONE',  ( -0.000000000000000000, -0.000000000000000000, -1.000000000000000000 ) ) ;
#248 = DIRECTION ( 'NONE',  ( -1.000000000000000000, 0.000000000000000000, 0.000000000000000000 ) ) ;
#249 = CARTESIAN_POINT ( 'NONE',  ( 0.000000000000000000, 0.000000000000000000, 0.000000000000000000 ) ) ;
#250 = LOCAL_TIME ( 16, 49, 14.00000000000000000, #288 ) ;
#251 = CARTESIAN_POINT ( 'NONE',  ( -3.100000000000000089, 0.000000000000000000, 0.000000000000000000 ) ) ;
#252 = FACE_BOUND ( 'NONE', #243, .T. ) ;
#253 = CARTESIAN_POINT ( 'NONE',  ( 0.000000000000000000, 0.000000000000000000, 0.000000000000000000 ) ) ;
#254 = LINE ( 'NONE', #369, #273 ) ;
#255 = DIRECTION ( 'NONE',  ( -0.000000000000000000, -0.000000000000000000, -1.000000000000000000 ) ) ;
#256 = DIRECTION ( 'NONE',  ( 0.000000000000000000, 0.000000000000000000, -1.000000000000000000 ) ) ;
#257 = UNCERTAINTY_MEASURE_WITH_UNIT (LENGTH_MEASURE( 1.000000000000000082E-05 ), #343, 'distance_accuracy_value', 'NONE');
#258 = LOCAL_TIME ( 16, 49, 14.00000000000000000, #285 ) ;
#259 = PERSON_AND_ORGANIZATION ( #289, #203 ) ;
#260 = MECHANICAL_CONTEXT ( 'NONE', #44, 'mechanical' ) ;
#261 = ORIENTED_EDGE ( 'NONE', *, *, #78, .T. ) ;
#262 = DATE_TIME_ROLE ( 'classification_date' ) ;
#263 = APPROVAL_DATE_TIME ( #52, #358 ) ;
#264 = CIRCLE ( 'NONE', #148, 5.000000000000000000 ) ;
#265 = ORIENTED_EDGE ( 'NONE', *, *, #297, .T. ) ;
#266 = AXIS2_PLACEMENT_3D ( 'NONE', #18, #192, #126 ) ;
#267 = CARTESIAN_POINT ( 'NONE',  ( -8.000000000000000000, 0.000000000000000000, 0.000000000000000000 ) ) ;
#268 = VERTEX_POINT ( 'NONE', #156 ) ;
#269 = DIRECTION ( 'NONE',  ( 1.000000000000000000, 0.000000000000000000, 0.000000000000000000 ) ) ;
#270 = ORIENTED_EDGE ( 'NONE', *, *, #4, .F. ) ;
#271 = DIRECTION ( 'NONE',  ( 1.000000000000000000, 0.000000000000000000, 0.000000000000000000 ) ) ;
#272 = VERTEX_POINT ( 'NONE', #39 ) ;
#273 = VECTOR ( 'NONE', #100, 1000.000000000000000 ) ;
#274 = EDGE_LOOP ( 'NONE', ( #182, #149, #116, #291 ) ) ;
#275 = DIRECTION ( 'NONE',  ( 1.000000000000000000, 0.000000000000000000, 0.000000000000000000 ) ) ;
#276 = DIRECTION ( 'NONE',  ( -0.000000000000000000, -0.000000000000000000, -1.000000000000000000 ) ) ;
#277 = FACE_OUTER_BOUND ( 'NONE', #208, .T. ) ;
#278 = AXIS2_PLACEMENT_3D ( 'NONE', #342, #45, #173 ) ;
#279 = EDGE_CURVE ( 'NONE', #268, #121, #20, .T. ) ;
#280 = DIRECTION ( 'NONE',  ( 0.000000000000000000, 0.000000000000000000, 1.000000000000000000 ) ) ;
#281 = DIRECTION ( 'NONE',  ( -1.000000000000000000, 0.000000000000000000, 0.000000000000000000 ) ) ;
#282 = FACE_OUTER_BOUND ( 'NONE', #317, .T. ) ;
#283 = AXIS2_PLACEMENT_3D ( 'NONE', #150, #35, #269 ) ;
#284 = LOCAL_TIME ( 16, 49, 14.00000000000000000, #21 ) ;
#285 = COORDINATED_UNIVERSAL_TIME_OFFSET ( 1, 0, .AHEAD. ) ;
#286 = AXIS2_PLACEMENT_3D ( 'NONE', #253, #255, #12 ) ;
#287 = CALENDAR_DATE ( 2022, 8, 7 ) ;
#288 = COORDINATED_UNIVERSAL_TIME_OFFSET ( 1, 0, .AHEAD. ) ;
#289 = PERSON ( 'NEURÈENÝ', 'NEURÈENÝ', 'NEURÈENÝ', ('NEURÈENÝ'), ('NEURÈENÝ'), ('NEURÈENÝ') ) ;
#290 = ORIENTED_EDGE ( 'NONE', *, *, #199, .T. ) ;
#291 = ORIENTED_EDGE ( 'NONE', *, *, #103, .F. ) ;
#292 = AXIS2_PLACEMENT_3D ( 'NONE', #356, #89, #59 ) ;
#293 = ORIENTED_EDGE ( 'NONE', *, *, #34, .T. ) ;
#294 = ORIENTED_EDGE ( 'NONE', *, *, #380, .F. ) ;
#295 = TOROIDAL_SURFACE ( 'NONE', #135, 5.500000000000000000, 0.5000000000000000000 ) ;
#296 = EDGE_LOOP ( 'NONE', ( #293, #213 ) ) ;
#297 = EDGE_CURVE ( 'NONE', #272, #9, #305, .T. ) ;
#298 = SHAPE_DEFINITION_REPRESENTATION ( #318, #197 ) ;
#299 = DIRECTION ( 'NONE',  ( 1.000000000000000000, 0.000000000000000000, 0.000000000000000000 ) ) ;
#300 = PLANE ( 'NONE',  #266 ) ;
#301 = CARTESIAN_POINT ( 'NONE',  ( 0.000000000000000000, 0.000000000000000000, 5.000000000000000000 ) ) ;
#302 = DIRECTION ( 'NONE',  ( 1.000000000000000000, 0.000000000000000000, 0.000000000000000000 ) ) ;
#303 = CARTESIAN_POINT ( 'NONE',  ( -5.000000000000000000, 0.000000000000000000, 455.0000000000000000 ) ) ;
#304 = CIRCLE ( 'NONE', #336, 5.500000000000000000 ) ;
#305 = CIRCLE ( 'NONE', #107, 8.000000000000000000 ) ;
#306 = DIRECTION ( 'NONE',  ( 0.000000000000000000, 0.000000000000000000, 1.000000000000000000 ) ) ;
#307 = EDGE_CURVE ( 'NONE', #133, #352, #163, .T. ) ;
#308 = CARTESIAN_POINT ( 'NONE',  ( -5.500000000000000000, 6.735557395310442023E-16, 5.500000000000005329 ) ) ;
#309 = APPROVAL_PERSON_ORGANIZATION ( #50, #105, #204 ) ;
#310 = PERSON_AND_ORGANIZATION_ROLE ( 'design_supplier' ) ;
#311 = PERSON_AND_ORGANIZATION_ROLE ( 'creator' ) ;
#312 = CIRCLE ( 'NONE', #155, 5.000000000000000000 ) ;
#313 = APPROVAL_DATE_TIME ( #228, #137 ) ;
#314 = ORIENTED_EDGE ( 'NONE', *, *, #122, .T. ) ;
#315 = ADVANCED_FACE ( 'NONE', ( #329, #282 ), #300, .T. ) ;
#316 = DIRECTION ( 'NONE',  ( 1.000000000000000000, 0.000000000000000000, 0.000000000000000000 ) ) ;
#317 = EDGE_LOOP ( 'NONE', ( #57, #265 ) ) ;
#318 = PRODUCT_DEFINITION_SHAPE ( 'NONE', 'NONE',  #186 ) ;
#319 = DIRECTION ( 'NONE',  ( 0.000000000000000000, 0.000000000000000000, 1.000000000000000000 ) ) ;
#320 = EDGE_LOOP ( 'NONE', ( #325, #86, #177, #270 ) ) ;
#321 = CIRCLE ( 'NONE', #129, 3.100000000000000089 ) ;
#322 = CARTESIAN_POINT ( 'NONE',  ( 0.000000000000000000, 0.000000000000000000, 455.0000000000000000 ) ) ;
#323 = ORIENTED_EDGE ( 'NONE', *, *, #209, .F. ) ;
#324 = DIRECTION ( 'NONE',  ( 0.000000000000000000, 0.000000000000000000, 1.000000000000000000 ) ) ;
#325 = ORIENTED_EDGE ( 'NONE', *, *, #122, .F. ) ;
#326 = LINE ( 'NONE', #83, #188 ) ;
#327 = DIRECTION ( 'NONE',  ( 0.000000000000000000, 0.000000000000000000, -1.000000000000000000 ) ) ;
#328 = SECURITY_CLASSIFICATION ( '', '', #379 ) ;
#329 = FACE_BOUND ( 'NONE', #296, .T. ) ;
#330 = CYLINDRICAL_SURFACE ( 'NONE', #106, 8.000000000000000000 ) ;
#331 = EDGE_CURVE ( 'NONE', #121, #82, #7, .T. ) ;
#332 = CARTESIAN_POINT ( 'NONE',  ( 0.000000000000000000, 0.000000000000000000, 0.000000000000000000 ) ) ;
#333 = DIRECTION ( 'NONE',  ( 0.000000000000000000, -1.000000000000000000, 0.000000000000000000 ) ) ;
#334 = CARTESIAN_POINT ( 'NONE',  ( 0.000000000000000000, 0.000000000000000000, 5.000000000000000000 ) ) ;
#335 = FACE_OUTER_BOUND ( 'NONE', #2, .T. ) ;
#336 = AXIS2_PLACEMENT_3D ( 'NONE', #364, #189, #299 ) ;
#337 = CIRCLE ( 'NONE', #175, 8.000000000000000000 ) ;
#338 = DIRECTION ( 'NONE',  ( 0.000000000000000000, 0.000000000000000000, 1.000000000000000000 ) ) ;
#339 = CIRCLE ( 'NONE', #361, 0.5000000000000004441 ) ;
#340 = APPROVAL_ROLE ( '' ) ;
#341 = EDGE_CURVE ( 'NONE', #119, #205, #101, .T. ) ;
#342 = CARTESIAN_POINT ( 'NONE',  ( 0.000000000000000000, 0.000000000000000000, 0.000000000000000000 ) ) ;
#343 =( LENGTH_UNIT ( ) NAMED_UNIT ( * ) SI_UNIT ( .MILLI., .METRE. ) );
#344 = AXIS2_PLACEMENT_3D ( 'NONE', #322, #123, #275 ) ;
#345 = PERSON_AND_ORGANIZATION_ROLE ( 'classification_officer' ) ;
#346 = CC_DESIGN_PERSON_AND_ORGANIZATION_ASSIGNMENT ( #259, #345, ( #328 ) ) ;
#347 = EDGE_CURVE ( 'NONE', #268, #154, #321, .T. ) ;
#348 = AXIS2_PLACEMENT_3D ( 'NONE', #332, #14, #134 ) ;
#349 = ORIENTED_EDGE ( 'NONE', *, *, #307, .F. ) ;
#350 = CC_DESIGN_PERSON_AND_ORGANIZATION_ASSIGNMENT ( #48, #200, ( #64 ) ) ;
#351 = ORIENTED_EDGE ( 'NONE', *, *, #279, .F. ) ;
#352 = VERTEX_POINT ( 'NONE', #37 ) ;
#353 = CYLINDRICAL_SURFACE ( 'NONE', #72, 5.000000000000000000 ) ;
#354 = ORIENTED_EDGE ( 'NONE', *, *, #380, .T. ) ;
#355 = ADVANCED_FACE ( 'NONE', ( #372 ), #365, .F. ) ;
#356 = CARTESIAN_POINT ( 'NONE',  ( 0.000000000000000000, 0.000000000000000000, 5.000000000000000000 ) ) ;
#357 = ORIENTED_EDGE ( 'NONE', *, *, #190, .T. ) ;
#358 = APPROVAL ( #377, 'NEURÈENÝ' ) ;
#359 = DIRECTION ( 'NONE',  ( 1.000000000000000000, 0.000000000000000000, 0.000000000000000000 ) ) ;
#360 = DIRECTION ( 'NONE',  ( -0.000000000000000000, -0.000000000000000000, -1.000000000000000000 ) ) ;
#361 = AXIS2_PLACEMENT_3D ( 'NONE', #161, #333, #43 ) ;
#362 = AXIS2_PLACEMENT_3D ( 'NONE', #167, #276, #165 ) ;
#363 = EDGE_CURVE ( 'NONE', #154, #268, #371, .T. ) ;
#364 = CARTESIAN_POINT ( 'NONE',  ( 0.000000000000000000, 0.000000000000000000, 5.000000000000000000 ) ) ;
#365 = CYLINDRICAL_SURFACE ( 'NONE', #51, 3.100000000000000089 ) ;
#366 = DIRECTION ( 'NONE',  ( 0.000000000000000000, 0.000000000000000000, 1.000000000000000000 ) ) ;
#367 = FACE_OUTER_BOUND ( 'NONE', #46, .T. ) ;
#368 = DIRECTION ( 'NONE',  ( 1.000000000000000000, 0.000000000000000000, -0.000000000000000000 ) ) ;
#369 = CARTESIAN_POINT ( 'NONE',  ( 5.000000000000000000, 6.123233995736766282E-16, 455.0000000000000000 ) ) ;
#370 = ADVANCED_FACE ( 'NONE', ( #252, #367 ), #97, .F. ) ;
#371 = CIRCLE ( 'NONE', #41, 3.100000000000000089 ) ;
#372 = FACE_OUTER_BOUND ( 'NONE', #60, .T. ) ;
#373 = APPLICATION_PROTOCOL_DEFINITION ( 'international standard', 'config_control_design', 1994, #174 ) ;
#374 = PRODUCT_RELATED_PRODUCT_CATEGORY ( 'detail', '', ( #139 ) ) ;
#375 = EDGE_CURVE ( 'NONE', #352, #187, #230, .T. ) ;
#376 = ORIENTED_EDGE ( 'NONE', *, *, #216, .T. ) ;
#377 = APPROVAL_STATUS ( 'not_yet_approved' ) ;
#378 = AXIS2_PLACEMENT_3D ( 'NONE', #73, #42, #166 ) ;
#379 = SECURITY_CLASSIFICATION_LEVEL ( 'unclassified' ) ;
#380 = EDGE_CURVE ( 'NONE', #109, #207, #254, .T. ) ;
#381 = PERSON_AND_ORGANIZATION ( #289, #203 ) ;
ENDSEC;
END-ISO-10303-21;
