ISO-10303-21;
HEADER;
FILE_DESCRIPTION (( 'STEP AP203' ),
    '1' );
FILE_NAME ('50ef.STEP',
    '2022-07-08T14:29:17',
    ( '' ),
    ( '' ),
    'SwSTEP 2.0',
    'SolidWorks 2019',
    '' );
FILE_SCHEMA (( 'CONFIG_CONTROL_DESIGN' ));
ENDSEC;

DATA;
#1 = DIRECTION ( 'NONE',  ( 0.000000000000000000, 0.000000000000000000, 1.000000000000000000 ) ) ;
#2 = CC_DESIGN_DATE_AND_TIME_ASSIGNMENT ( #136, #108, ( #368 ) ) ;
#3 = EDGE_CURVE ( 'NONE', #273, #212, #107, .T. ) ;
#4 = CARTESIAN_POINT ( 'NONE',  ( 0.000000000000000000, 0.000000000000000000, 657.0000000000000000 ) ) ;
#5 = LOCAL_TIME ( 16, 29, 17.00000000000000000, #140 ) ;
#6 = FACE_OUTER_BOUND ( 'NONE', #213, .T. ) ;
#7 = APPLICATION_PROTOCOL_DEFINITION ( 'international standard', 'config_control_design', 1994, #316 ) ;
#8 = EDGE_CURVE ( 'NONE', #130, #378, #274, .T. ) ;
#9 = ORIENTED_EDGE ( 'NONE', *, *, #359, .F. ) ;
#10 = CIRCLE ( 'NONE', #70, 0.7000000000000000666 ) ;
#11 = ADVANCED_FACE ( 'NONE', ( #224 ), #76, .T. ) ;
#12 = DIRECTION ( 'NONE',  ( 1.000000000000000000, 0.000000000000000000, 0.000000000000000000 ) ) ;
#13 = EDGE_CURVE ( 'NONE', #200, #312, #371, .T. ) ;
#14 = ORIENTED_EDGE ( 'NONE', *, *, #284, .T. ) ;
#15 = DIRECTION ( 'NONE',  ( -1.000000000000000000, 0.000000000000000000, 0.000000000000000000 ) ) ;
#16 = CARTESIAN_POINT ( 'NONE',  ( -6.700000000000001066, 8.205133554287267548E-16, 7.700000000000040146 ) ) ;
#17 = EDGE_LOOP ( 'NONE', ( #303, #152 ) ) ;
#18 = COORDINATED_UNIVERSAL_TIME_OFFSET ( 1, 0, .AHEAD. ) ;
#19 = ORIENTED_EDGE ( 'NONE', *, *, #313, .T. ) ;
#20 = DIRECTION ( 'NONE',  ( 1.000000000000000000, 0.000000000000000000, 0.000000000000000000 ) ) ;
#21 = DIRECTION ( 'NONE',  ( 0.000000000000000000, 0.000000000000000000, 1.000000000000000000 ) ) ;
#22 = FACE_BOUND ( 'NONE', #333, .T. ) ;
#23 = CALENDAR_DATE ( 2022, 8, 7 ) ;
#24 = CIRCLE ( 'NONE', #235, 4.250000000000000000 ) ;
#25 = CARTESIAN_POINT ( 'NONE',  ( 0.000000000000000000, 0.000000000000000000, 7.700000000000040146 ) ) ;
#26 = DIRECTION ( 'NONE',  ( 1.000000000000000000, 0.000000000000000000, 0.000000000000000000 ) ) ;
#27 = ORIENTED_EDGE ( 'NONE', *, *, #314, .F. ) ;
#28 = CARTESIAN_POINT ( 'NONE',  ( -10.00000000000000000, 0.000000000000000000, 0.000000000000000000 ) ) ;
#29 = ORIENTED_EDGE ( 'NONE', *, *, #8, .T. ) ;
#30 = AXIS2_PLACEMENT_3D ( 'NONE', #44, #208, #178 ) ;
#31 = APPROVAL_PERSON_ORGANIZATION ( #112, #379, #315 ) ;
#32 = DIRECTION ( 'NONE',  ( 0.000000000000000000, 0.000000000000000000, 1.000000000000000000 ) ) ;
#33 = CC_DESIGN_PERSON_AND_ORGANIZATION_ASSIGNMENT ( #282, #160, ( #363 ) ) ;
#34 = DIRECTION ( 'NONE',  ( 1.000000000000000000, 0.000000000000000000, 0.000000000000000000 ) ) ;
#35 = CARTESIAN_POINT ( 'NONE',  ( -10.00000000000000000, 0.000000000000000000, 7.000000000000000000 ) ) ;
#36 = VECTOR ( 'NONE', #179, 1000.000000000000000 ) ;
#37 = DIRECTION ( 'NONE',  ( 0.000000000000000000, 0.000000000000000000, 1.000000000000000000 ) ) ;
#38 = AXIS2_PLACEMENT_3D ( 'NONE', #66, #32, #12 ) ;
#39 = VERTEX_POINT ( 'NONE', #343 ) ;
#40 = VECTOR ( 'NONE', #52, 1000.000000000000000 ) ;
#41 = EDGE_LOOP ( 'NONE', ( #265, #9, #65, #271 ) ) ;
#42 = EDGE_CURVE ( 'NONE', #276, #345, #10, .T. ) ;
#43 = DIRECTION ( 'NONE',  ( 0.000000000000000000, 0.000000000000000000, 1.000000000000000000 ) ) ;
#44 = CARTESIAN_POINT ( 'NONE',  ( 0.000000000000000000, 0.000000000000000000, 7.000000000000000000 ) ) ;
#45 = CYLINDRICAL_SURFACE ( 'NONE', #214, 6.000000000000000888 ) ;
#46 = DATE_TIME_ROLE ( 'creation_date' ) ;
#47 = DIRECTION ( 'NONE',  ( -0.000000000000000000, -0.000000000000000000, -1.000000000000000000 ) ) ;
#48 = ORIENTED_EDGE ( 'NONE', *, *, #314, .T. ) ;
#49 = AXIS2_PLACEMENT_3D ( 'NONE', #117, #228, #290 ) ;
#50 = APPROVAL_STATUS ( 'not_yet_approved' ) ;
#51 = UNCERTAINTY_MEASURE_WITH_UNIT (LENGTH_MEASURE( 1.000000000000000082E-05 ), #100, 'distance_accuracy_value', 'NONE');
#52 = DIRECTION ( 'NONE',  ( -0.000000000000000000, -0.000000000000000000, -1.000000000000000000 ) ) ;
#53 = CARTESIAN_POINT ( 'NONE',  ( 0.000000000000000000, 0.000000000000000000, 7.000000000000000000 ) ) ;
#54 = AXIS2_PLACEMENT_3D ( 'NONE', #311, #278, #20 ) ;
#55 = PERSON_AND_ORGANIZATION_ROLE ( 'classification_officer' ) ;
#56 = CARTESIAN_POINT ( 'NONE',  ( 0.000000000000000000, 0.000000000000000000, 0.000000000000000000 ) ) ;
#57 = EDGE_CURVE ( 'NONE', #135, #329, #186, .T. ) ;
#58 = CARTESIAN_POINT ( 'NONE',  ( 0.000000000000000000, 0.000000000000000000, 7.700000000000040146 ) ) ;
#59 = CARTESIAN_POINT ( 'NONE',  ( 0.000000000000000000, 0.000000000000000000, 657.0000000000000000 ) ) ;
#60 = CLOSED_SHELL ( 'NONE', ( #350, #283, #109, #293, #11, #150, #251, #183, #147, #240, #210 ) ) ;
#61 =( NAMED_UNIT ( * ) SI_UNIT ( $, .STERADIAN. ) SOLID_ANGLE_UNIT ( ) );
#62 = DIRECTION ( 'NONE',  ( 0.000000000000000000, 0.000000000000000000, 1.000000000000000000 ) ) ;
#63 = ORIENTED_EDGE ( 'NONE', *, *, #280, .F. ) ;
#64 = DIRECTION ( 'NONE',  ( -0.000000000000000000, -0.000000000000000000, -1.000000000000000000 ) ) ;
#65 = ORIENTED_EDGE ( 'NONE', *, *, #42, .T. ) ;
#66 = CARTESIAN_POINT ( 'NONE',  ( 0.000000000000000000, 0.000000000000000000, 657.0000000000000000 ) ) ;
#67 = AXIS2_PLACEMENT_3D ( 'NONE', #261, #37, #262 ) ;
#68 = ORIENTED_EDGE ( 'NONE', *, *, #3, .T. ) ;
#69 = ORIENTED_EDGE ( 'NONE', *, *, #361, .F. ) ;
#70 = AXIS2_PLACEMENT_3D ( 'NONE', #75, #193, #71 ) ;
#71 = DIRECTION ( 'NONE',  ( 0.000000000000000000, 0.000000000000000000, -1.000000000000000000 ) ) ;
#72 = DIRECTION ( 'NONE',  ( 1.000000000000000000, 0.000000000000000000, 0.000000000000000000 ) ) ;
#73 = AXIS2_PLACEMENT_3D ( 'NONE', #170, #252, #249 ) ;
#74 = DATE_AND_TIME ( #166, #270 ) ;
#75 = CARTESIAN_POINT ( 'NONE',  ( 6.700000000000001066, 0.000000000000000000, 7.700000000000040146 ) ) ;
#76 = CYLINDRICAL_SURFACE ( 'NONE', #222, 10.00000000000000000 ) ;
#77 = APPROVAL_DATE_TIME ( #310, #379 ) ;
#78 = CARTESIAN_POINT ( 'NONE',  ( 0.000000000000000000, 0.000000000000000000, 7.000000000000000000 ) ) ;
#79 = EDGE_CURVE ( 'NONE', #345, #39, #331, .T. ) ;
#80 = APPROVAL_DATE_TIME ( #131, #165 ) ;
#81 = DIRECTION ( 'NONE',  ( 1.000000000000000000, 0.000000000000000000, -0.000000000000000000 ) ) ;
#82 = APPROVAL_STATUS ( 'not_yet_approved' ) ;
#83 = DIRECTION ( 'NONE',  ( 0.000000000000000000, 0.000000000000000000, 1.000000000000000000 ) ) ;
#84 = CARTESIAN_POINT ( 'NONE',  ( 6.000000000000000888, 7.347880794884120722E-16, 657.0000000000000000 ) ) ;
#85 = PRODUCT_DEFINITION_FORMATION_WITH_SPECIFIED_SOURCE ( 'LIBOVOLNÝ', '', #347, .NOT_KNOWN. ) ;
#86 = EDGE_CURVE ( 'NONE', #378, #130, #157, .T. ) ;
#87 = FACE_OUTER_BOUND ( 'NONE', #337, .T. ) ;
#88 = ORIENTED_EDGE ( 'NONE', *, *, #57, .T. ) ;
#89 = AXIS2_PLACEMENT_3D ( 'NONE', #194, #339, #72 ) ;
#90 = CARTESIAN_POINT ( 'NONE',  ( 0.000000000000000000, 0.000000000000000000, 0.000000000000000000 ) ) ;
#91 = EDGE_LOOP ( 'NONE', ( #207, #241, #268, #102 ) ) ;
#92 = CC_DESIGN_APPROVAL ( #379, ( #85 ) ) ;
#93 = FACE_OUTER_BOUND ( 'NONE', #321, .T. ) ;
#94 = LINE ( 'NONE', #129, #36 ) ;
#95 = EDGE_LOOP ( 'NONE', ( #63, #209 ) ) ;
#96 =( GEOMETRIC_REPRESENTATION_CONTEXT ( 3 ) GLOBAL_UNCERTAINTY_ASSIGNED_CONTEXT ( ( #51 ) ) GLOBAL_UNIT_ASSIGNED_CONTEXT ( ( #100, #306, #61 ) ) REPRESENTATION_CONTEXT ( 'NONE', 'WORKASPACE' ) );
#97 = EDGE_LOOP ( 'NONE', ( #365, #169, #88, #124 ) ) ;
#98 = DESIGN_CONTEXT ( 'detailed design', #330, 'design' ) ;
#99 = DIRECTION ( 'NONE',  ( -0.000000000000000000, -0.000000000000000000, -1.000000000000000000 ) ) ;
#100 =( LENGTH_UNIT ( ) NAMED_UNIT ( * ) SI_UNIT ( .MILLI., .METRE. ) );
#101 = CARTESIAN_POINT ( 'NONE',  ( 0.000000000000000000, 0.000000000000000000, 7.000000000000000000 ) ) ;
#102 = ORIENTED_EDGE ( 'NONE', *, *, #361, .T. ) ;
#103 = COORDINATED_UNIVERSAL_TIME_OFFSET ( 1, 0, .AHEAD. ) ;
#104 = CARTESIAN_POINT ( 'NONE',  ( 0.000000000000000000, 0.000000000000000000, 657.0000000000000000 ) ) ;
#105 = COORDINATED_UNIVERSAL_TIME_OFFSET ( 1, 0, .AHEAD. ) ;
#106 = VECTOR ( 'NONE', #377, 1000.000000000000000 ) ;
#107 = LINE ( 'NONE', #309, #185 ) ;
#108 = DATE_TIME_ROLE ( 'classification_date' ) ;
#109 = ADVANCED_FACE ( 'NONE', ( #191 ), #45, .T. ) ;
#110 = FACE_OUTER_BOUND ( 'NONE', #97, .T. ) ;
#111 = CIRCLE ( 'NONE', #238, 0.7000000000000000666 ) ;
#112 = PERSON_AND_ORGANIZATION ( #353, #253 ) ;
#113 = DIRECTION ( 'NONE',  ( -1.000000000000000000, 0.000000000000000000, 0.000000000000000000 ) ) ;
#114 = DIRECTION ( 'NONE',  ( 0.000000000000000000, 0.000000000000000000, 1.000000000000000000 ) ) ;
#115 = AXIS2_PLACEMENT_3D ( 'NONE', #369, #43, #133 ) ;
#116 = DIRECTION ( 'NONE',  ( 0.000000000000000000, 0.000000000000000000, 1.000000000000000000 ) ) ;
#117 = CARTESIAN_POINT ( 'NONE',  ( 0.000000000000000000, 0.000000000000000000, 0.000000000000000000 ) ) ;
#118 = MECHANICAL_CONTEXT ( 'NONE', #316, 'mechanical' ) ;
#119 = EDGE_LOOP ( 'NONE', ( #286, #125, #248, #171 ) ) ;
#120 = DIRECTION ( 'NONE',  ( -0.000000000000000000, -0.000000000000000000, -1.000000000000000000 ) ) ;
#121 = EDGE_CURVE ( 'NONE', #39, #345, #167, .T. ) ;
#122 = CIRCLE ( 'NONE', #189, 4.250000000000000000 ) ;
#123 = ORIENTED_EDGE ( 'NONE', *, *, #162, .T. ) ;
#124 = ORIENTED_EDGE ( 'NONE', *, *, #145, .T. ) ;
#125 = ORIENTED_EDGE ( 'NONE', *, *, #126, .T. ) ;
#126 = EDGE_CURVE ( 'NONE', #312, #159, #230, .T. ) ;
#127 = ORIENTED_EDGE ( 'NONE', *, *, #145, .F. ) ;
#128 = ADVANCED_BREP_SHAPE_REPRESENTATION ( '50ef', ( #181, #236 ), #96 ) ;
#129 = CARTESIAN_POINT ( 'NONE',  ( -6.000000000000000888, 0.000000000000000000, 657.0000000000000000 ) ) ;
#130 = VERTEX_POINT ( 'NONE', #84 ) ;
#131 = DATE_AND_TIME ( #254, #5 ) ;
#132 = CIRCLE ( 'NONE', #355, 6.000000000000000888 ) ;
#133 = DIRECTION ( 'NONE',  ( 1.000000000000000000, 0.000000000000000000, 0.000000000000000000 ) ) ;
#134 = PERSON_AND_ORGANIZATION ( #353, #253 ) ;
#135 = VERTEX_POINT ( 'NONE', #138 ) ;
#136 = DATE_AND_TIME ( #346, #211 ) ;
#137 = PLANE ( 'NONE',  #305 ) ;
#138 = CARTESIAN_POINT ( 'NONE',  ( -4.250000000000000000, 0.000000000000000000, 657.0000000000000000 ) ) ;
#139 = AXIS2_PLACEMENT_3D ( 'NONE', #58, #114, #175 ) ;
#140 = COORDINATED_UNIVERSAL_TIME_OFFSET ( 1, 0, .AHEAD. ) ;
#141 = CARTESIAN_POINT ( 'NONE',  ( 6.000000000000000888, 7.347880794884120722E-16, 7.700000000000040146 ) ) ;
#142 = CARTESIAN_POINT ( 'NONE',  ( 0.000000000000000000, 0.000000000000000000, 7.700000000000040146 ) ) ;
#143 = ORIENTED_EDGE ( 'NONE', *, *, #86, .T. ) ;
#144 = DIRECTION ( 'NONE',  ( -0.000000000000000000, -0.000000000000000000, -1.000000000000000000 ) ) ;
#145 = EDGE_CURVE ( 'NONE', #329, #212, #122, .T. ) ;
#146 = LINE ( 'NONE', #35, #277 ) ;
#147 = ADVANCED_FACE ( 'NONE', ( #291, #87 ), #317, .T. ) ;
#148 = DIRECTION ( 'NONE',  ( 0.000000000000000000, 0.000000000000000000, 1.000000000000000000 ) ) ;
#149 = AXIS2_PLACEMENT_3D ( 'NONE', #53, #21, #380 ) ;
#150 = ADVANCED_FACE ( 'NONE', ( #164, #381 ), #137, .T. ) ;
#151 = AXIS2_PLACEMENT_3D ( 'NONE', #101, #197, #215 ) ;
#152 = ORIENTED_EDGE ( 'NONE', *, *, #121, .T. ) ;
#153 = CIRCLE ( 'NONE', #288, 10.00000000000000000 ) ;
#154 = DIRECTION ( 'NONE',  ( 0.000000000000000000, 0.000000000000000000, 1.000000000000000000 ) ) ;
#155 = CARTESIAN_POINT ( 'NONE',  ( -4.250000000000000000, 0.000000000000000000, 0.000000000000000000 ) ) ;
#156 = ORIENTED_EDGE ( 'NONE', *, *, #79, .F. ) ;
#157 = CIRCLE ( 'NONE', #89, 6.000000000000000888 ) ;
#158 = APPROVAL_STATUS ( 'not_yet_approved' ) ;
#159 = VERTEX_POINT ( 'NONE', #199 ) ;
#160 = PERSON_AND_ORGANIZATION_ROLE ( 'creator' ) ;
#161 = CARTESIAN_POINT ( 'NONE',  ( -4.250000000000000000, 0.000000000000000000, 657.0000000000000000 ) ) ;
#162 = EDGE_CURVE ( 'NONE', #180, #276, #323, .T. ) ;
#163 = APPROVAL_DATE_TIME ( #74, #292 ) ;
#164 = FACE_BOUND ( 'NONE', #17, .T. ) ;
#165 = APPROVAL ( #82, 'NEURÈENÝ' ) ;
#166 = CALENDAR_DATE ( 2022, 8, 7 ) ;
#167 = CIRCLE ( 'NONE', #54, 6.700000000000001066 ) ;
#168 = DIRECTION ( 'NONE',  ( 0.000000000000000000, 0.000000000000000000, -1.000000000000000000 ) ) ;
#169 = ORIENTED_EDGE ( 'NONE', *, *, #334, .T. ) ;
#170 = CARTESIAN_POINT ( 'NONE',  ( 0.000000000000000000, 0.000000000000000000, 657.0000000000000000 ) ) ;
#171 = ORIENTED_EDGE ( 'NONE', *, *, #348, .F. ) ;
#172 = AXIS2_PLACEMENT_3D ( 'NONE', #90, #64, #34 ) ;
#173 = LOCAL_TIME ( 16, 29, 17.00000000000000000, #105 ) ;
#174 = PLANE ( 'NONE',  #49 ) ;
#175 = DIRECTION ( 'NONE',  ( 1.000000000000000000, 0.000000000000000000, 0.000000000000000000 ) ) ;
#176 = CIRCLE ( 'NONE', #149, 10.00000000000000000 ) ;
#177 = DIRECTION ( 'NONE',  ( -0.000000000000000000, -0.000000000000000000, -1.000000000000000000 ) ) ;
#178 = DIRECTION ( 'NONE',  ( -1.000000000000000000, 0.000000000000000000, 0.000000000000000000 ) ) ;
#179 = DIRECTION ( 'NONE',  ( -0.000000000000000000, -0.000000000000000000, -1.000000000000000000 ) ) ;
#180 = VERTEX_POINT ( 'NONE', #281 ) ;
#181 = MANIFOLD_SOLID_BREP ( 'Odebrat vysunutím3', #60 ) ;
#182 = CC_DESIGN_APPROVAL ( #165, ( #368 ) ) ;
#183 = ADVANCED_FACE ( 'NONE', ( #6 ), #198, .T. ) ;
#184 = ORIENTED_EDGE ( 'NONE', *, *, #342, .F. ) ;
#185 = VECTOR ( 'NONE', #349, 1000.000000000000000 ) ;
#186 = LINE ( 'NONE', #161, #106 ) ;
#187 = EDGE_CURVE ( 'NONE', #312, #200, #176, .T. ) ;
#188 = CARTESIAN_POINT ( 'NONE',  ( -6.000000000000000888, 0.000000000000000000, 657.0000000000000000 ) ) ;
#189 = AXIS2_PLACEMENT_3D ( 'NONE', #56, #144, #324 ) ;
#190 = LOCAL_TIME ( 16, 29, 17.00000000000000000, #103 ) ;
#191 = FACE_OUTER_BOUND ( 'NONE', #299, .T. ) ;
#192 = APPLICATION_PROTOCOL_DEFINITION ( 'international standard', 'config_control_design', 1994, #330 ) ;
#193 = DIRECTION ( 'NONE',  ( 0.000000000000000000, -1.000000000000000000, 0.000000000000000000 ) ) ;
#194 = CARTESIAN_POINT ( 'NONE',  ( 0.000000000000000000, 0.000000000000000000, 657.0000000000000000 ) ) ;
#195 = PERSON_AND_ORGANIZATION ( #353, #253 ) ;
#196 = AXIS2_PLACEMENT_3D ( 'NONE', #142, #116, #203 ) ;
#197 = DIRECTION ( 'NONE',  ( -0.000000000000000000, -0.000000000000000000, -1.000000000000000000 ) ) ;
#198 = CYLINDRICAL_SURFACE ( 'NONE', #73, 6.000000000000000888 ) ;
#199 = CARTESIAN_POINT ( 'NONE',  ( 10.00000000000000000, 1.224646799147353256E-15, 0.000000000000000000 ) ) ;
#200 = VERTEX_POINT ( 'NONE', #285 ) ;
#201 = DIRECTION ( 'NONE',  ( 0.000000000000000000, 0.000000000000000000, 1.000000000000000000 ) ) ;
#202 = CIRCLE ( 'NONE', #38, 4.250000000000000000 ) ;
#203 = DIRECTION ( 'NONE',  ( 1.000000000000000000, 0.000000000000000000, 0.000000000000000000 ) ) ;
#204 = DIRECTION ( 'NONE',  ( 1.000000000000000000, 0.000000000000000000, -0.000000000000000000 ) ) ;
#205 = CARTESIAN_POINT ( 'NONE',  ( 0.000000000000000000, 0.000000000000000000, 0.000000000000000000 ) ) ;
#206 = DIRECTION ( 'NONE',  ( 1.000000000000000000, 0.000000000000000000, 0.000000000000000000 ) ) ;
#207 = ORIENTED_EDGE ( 'NONE', *, *, #126, .F. ) ;
#208 = DIRECTION ( 'NONE',  ( -0.000000000000000000, -0.000000000000000000, -1.000000000000000000 ) ) ;
#209 = ORIENTED_EDGE ( 'NONE', *, *, #334, .F. ) ;
#210 = ADVANCED_FACE ( 'NONE', ( #110 ), #289, .F. ) ;
#211 = LOCAL_TIME ( 16, 29, 17.00000000000000000, #18 ) ;
#212 = VERTEX_POINT ( 'NONE', #356 ) ;
#213 = EDGE_LOOP ( 'NONE', ( #366, #327, #219, #123 ) ) ;
#214 = AXIS2_PLACEMENT_3D ( 'NONE', #104, #47, #221 ) ;
#215 = DIRECTION ( 'NONE',  ( 1.000000000000000000, 0.000000000000000000, 0.000000000000000000 ) ) ;
#216 = CC_DESIGN_DATE_AND_TIME_ASSIGNMENT ( #319, #46, ( #363 ) ) ;
#217 = CALENDAR_DATE ( 2022, 8, 7 ) ;
#218 = VECTOR ( 'NONE', #120, 1000.000000000000000 ) ;
#219 = ORIENTED_EDGE ( 'NONE', *, *, #342, .T. ) ;
#220 = PERSON_AND_ORGANIZATION_ROLE ( 'design_supplier' ) ;
#221 = DIRECTION ( 'NONE',  ( -1.000000000000000000, 0.000000000000000000, 0.000000000000000000 ) ) ;
#222 = AXIS2_PLACEMENT_3D ( 'NONE', #247, #99, #15 ) ;
#223 = CC_DESIGN_PERSON_AND_ORGANIZATION_ASSIGNMENT ( #246, #250, ( #85 ) ) ;
#224 = FACE_OUTER_BOUND ( 'NONE', #91, .T. ) ;
#225 = SHAPE_DEFINITION_REPRESENTATION ( #279, #128 ) ;
#226 = DIRECTION ( 'NONE',  ( 1.000000000000000000, 0.000000000000000000, 0.000000000000000000 ) ) ;
#227 = APPROVAL_PERSON_ORGANIZATION ( #195, #165, #344 ) ;
#228 = DIRECTION ( 'NONE',  ( 0.000000000000000000, 0.000000000000000000, 1.000000000000000000 ) ) ;
#229 = CARTESIAN_POINT ( 'NONE',  ( 0.000000000000000000, 0.000000000000000000, 657.0000000000000000 ) ) ;
#230 = LINE ( 'NONE', #320, #40 ) ;
#231 = CIRCLE ( 'NONE', #67, 10.00000000000000000 ) ;
#232 = LINE ( 'NONE', #357, #218 ) ;
#233 = CC_DESIGN_PERSON_AND_ORGANIZATION_ASSIGNMENT ( #134, #55, ( #368 ) ) ;
#234 = ORIENTED_EDGE ( 'NONE', *, *, #322, .F. ) ;
#235 = AXIS2_PLACEMENT_3D ( 'NONE', #4, #255, #26 ) ;
#236 = AXIS2_PLACEMENT_3D ( 'NONE', #205, #62, #206 ) ;
#237 = VERTEX_POINT ( 'NONE', #28 ) ;
#238 = AXIS2_PLACEMENT_3D ( 'NONE', #16, #294, #264 ) ;
#239 = APPROVAL_PERSON_ORGANIZATION ( #341, #292, #287 ) ;
#240 = ADVANCED_FACE ( 'NONE', ( #256 ), #367, .F. ) ;
#241 = ORIENTED_EDGE ( 'NONE', *, *, #13, .F. ) ;
#242 = DIRECTION ( 'NONE',  ( 0.000000000000000000, 0.000000000000000000, -1.000000000000000000 ) ) ;
#243 = ORIENTED_EDGE ( 'NONE', *, *, #42, .F. ) ;
#244 = CARTESIAN_POINT ( 'NONE',  ( 6.700000000000001066, 0.000000000000000000, 7.000000000000020428 ) ) ;
#245 = EDGE_LOOP ( 'NONE', ( #374, #259 ) ) ;
#246 = PERSON_AND_ORGANIZATION ( #353, #253 ) ;
#247 = CARTESIAN_POINT ( 'NONE',  ( 0.000000000000000000, 0.000000000000000000, 7.000000000000000000 ) ) ;
#248 = ORIENTED_EDGE ( 'NONE', *, *, #322, .T. ) ;
#249 = DIRECTION ( 'NONE',  ( -1.000000000000000000, 0.000000000000000000, 0.000000000000000000 ) ) ;
#250 = PERSON_AND_ORGANIZATION_ROLE ( 'creator' ) ;
#251 = ADVANCED_FACE ( 'NONE', ( #22, #352 ), #174, .F. ) ;
#252 = DIRECTION ( 'NONE',  ( -0.000000000000000000, -0.000000000000000000, -1.000000000000000000 ) ) ;
#253 = ORGANIZATION ( 'NEURÈENÝ', 'NEURÈENÝ', '' ) ;
#254 = CALENDAR_DATE ( 2022, 8, 7 ) ;
#255 = DIRECTION ( 'NONE',  ( 0.000000000000000000, 0.000000000000000000, 1.000000000000000000 ) ) ;
#256 = FACE_OUTER_BOUND ( 'NONE', #41, .T. ) ;
#257 = CARTESIAN_POINT ( 'NONE',  ( 0.000000000000000000, 0.000000000000000000, 7.000000000000000000 ) ) ;
#258 = AXIS2_PLACEMENT_3D ( 'NONE', #297, #242, #370 ) ;
#259 = ORIENTED_EDGE ( 'NONE', *, *, #187, .T. ) ;
#260 = CC_DESIGN_SECURITY_CLASSIFICATION ( #368, ( #85 ) ) ;
#261 = CARTESIAN_POINT ( 'NONE',  ( 0.000000000000000000, 0.000000000000000000, 0.000000000000000000 ) ) ;
#262 = DIRECTION ( 'NONE',  ( 1.000000000000000000, 0.000000000000000000, 0.000000000000000000 ) ) ;
#263 = PRODUCT_RELATED_PRODUCT_CATEGORY ( 'detail', '', ( #347 ) ) ;
#264 = DIRECTION ( 'NONE',  ( -1.000000000000000000, 1.224646799147353454E-16, 0.000000000000000000 ) ) ;
#265 = ORIENTED_EDGE ( 'NONE', *, *, #313, .F. ) ;
#266 = AXIS2_PLACEMENT_3D ( 'NONE', #78, #154, #372 ) ;
#267 = EDGE_LOOP ( 'NONE', ( #69, #234 ) ) ;
#268 = ORIENTED_EDGE ( 'NONE', *, *, #348, .T. ) ;
#269 = TOROIDAL_SURFACE ( 'NONE', #196, 6.700000000000001066, 0.6999999999999999556 ) ;
#270 = LOCAL_TIME ( 16, 29, 17.00000000000000000, #308 ) ;
#271 = ORIENTED_EDGE ( 'NONE', *, *, #121, .F. ) ;
#272 = DIRECTION ( 'NONE',  ( 1.000000000000000000, 0.000000000000000000, 0.000000000000000000 ) ) ;
#273 = VERTEX_POINT ( 'NONE', #354 ) ;
#274 = CIRCLE ( 'NONE', #115, 6.000000000000000888 ) ;
#275 = PERSON_AND_ORGANIZATION ( #353, #253 ) ;
#276 = VERTEX_POINT ( 'NONE', #141 ) ;
#277 = VECTOR ( 'NONE', #177, 1000.000000000000000 ) ;
#278 = DIRECTION ( 'NONE',  ( -0.000000000000000000, -0.000000000000000000, -1.000000000000000000 ) ) ;
#279 = PRODUCT_DEFINITION_SHAPE ( 'NONE', 'NONE',  #363 ) ;
#280 = EDGE_CURVE ( 'NONE', #135, #273, #24, .T. ) ;
#281 = CARTESIAN_POINT ( 'NONE',  ( -6.000000000000000888, 0.000000000000000000, 7.700000000000040146 ) ) ;
#282 = PERSON_AND_ORGANIZATION ( #353, #253 ) ;
#283 = ADVANCED_FACE ( 'NONE', ( #325 ), #269, .F. ) ;
#284 = EDGE_CURVE ( 'NONE', #130, #276, #232, .T. ) ;
#285 = CARTESIAN_POINT ( 'NONE',  ( -10.00000000000000000, 0.000000000000000000, 7.000000000000000000 ) ) ;
#286 = ORIENTED_EDGE ( 'NONE', *, *, #187, .F. ) ;
#287 = APPROVAL_ROLE ( '' ) ;
#288 = AXIS2_PLACEMENT_3D ( 'NONE', #296, #332, #272 ) ;
#289 = CYLINDRICAL_SURFACE ( 'NONE', #340, 4.250000000000000000 ) ;
#290 = DIRECTION ( 'NONE',  ( 1.000000000000000000, 0.000000000000000000, -0.000000000000000000 ) ) ;
#291 = FACE_BOUND ( 'NONE', #95, .T. ) ;
#292 = APPROVAL ( #50, 'NEURÈENÝ' ) ;
#293 = ADVANCED_FACE ( 'NONE', ( #358 ), #328, .T. ) ;
#294 = DIRECTION ( 'NONE',  ( 1.224646799147353207E-16, 1.000000000000000000, -0.000000000000000000 ) ) ;
#295 = CIRCLE ( 'NONE', #172, 4.250000000000000000 ) ;
#296 = CARTESIAN_POINT ( 'NONE',  ( 0.000000000000000000, 0.000000000000000000, 0.000000000000000000 ) ) ;
#297 = CARTESIAN_POINT ( 'NONE',  ( 0.000000000000000000, 0.000000000000000000, 657.0000000000000000 ) ) ;
#298 = CYLINDRICAL_SURFACE ( 'NONE', #258, 4.250000000000000000 ) ;
#299 = EDGE_LOOP ( 'NONE', ( #360, #14, #304, #184 ) ) ;
#300 = AXIS2_PLACEMENT_3D ( 'NONE', #59, #83, #204 ) ;
#301 = CC_DESIGN_APPROVAL ( #292, ( #363 ) ) ;
#302 = CC_DESIGN_PERSON_AND_ORGANIZATION_ASSIGNMENT ( #364, #351, ( #347 ) ) ;
#303 = ORIENTED_EDGE ( 'NONE', *, *, #79, .T. ) ;
#304 = ORIENTED_EDGE ( 'NONE', *, *, #359, .T. ) ;
#305 = AXIS2_PLACEMENT_3D ( 'NONE', #257, #201, #81 ) ;
#306 =( NAMED_UNIT ( * ) PLANE_ANGLE_UNIT ( ) SI_UNIT ( $, .RADIAN. ) );
#307 = EDGE_LOOP ( 'NONE', ( #318, #19, #156, #243 ) ) ;
#308 = COORDINATED_UNIVERSAL_TIME_OFFSET ( 1, 0, .AHEAD. ) ;
#309 = CARTESIAN_POINT ( 'NONE',  ( 4.250000000000000000, 5.204748896376250699E-16, 657.0000000000000000 ) ) ;
#310 = DATE_AND_TIME ( #217, #190 ) ;
#311 = CARTESIAN_POINT ( 'NONE',  ( 0.000000000000000000, 0.000000000000000000, 7.000000000000000000 ) ) ;
#312 = VERTEX_POINT ( 'NONE', #326 ) ;
#313 = EDGE_CURVE ( 'NONE', #180, #39, #111, .T. ) ;
#314 = EDGE_CURVE ( 'NONE', #212, #329, #295, .T. ) ;
#315 = APPROVAL_ROLE ( '' ) ;
#316 = APPLICATION_CONTEXT ( 'configuration controlled 3d designs of mechanical parts and assemblies' ) ;
#317 = PLANE ( 'NONE',  #300 ) ;
#318 = ORIENTED_EDGE ( 'NONE', *, *, #162, .F. ) ;
#319 = DATE_AND_TIME ( #23, #173 ) ;
#320 = CARTESIAN_POINT ( 'NONE',  ( 10.00000000000000000, 1.224646799147353256E-15, 7.000000000000000000 ) ) ;
#321 = EDGE_LOOP ( 'NONE', ( #362, #68, #48, #336 ) ) ;
#322 = EDGE_CURVE ( 'NONE', #159, #237, #153, .T. ) ;
#323 = CIRCLE ( 'NONE', #139, 6.000000000000000888 ) ;
#324 = DIRECTION ( 'NONE',  ( 1.000000000000000000, 0.000000000000000000, 0.000000000000000000 ) ) ;
#325 = FACE_OUTER_BOUND ( 'NONE', #307, .T. ) ;
#326 = CARTESIAN_POINT ( 'NONE',  ( 10.00000000000000000, 1.224646799147353256E-15, 7.000000000000000000 ) ) ;
#327 = ORIENTED_EDGE ( 'NONE', *, *, #86, .F. ) ;
#328 = CYLINDRICAL_SURFACE ( 'NONE', #30, 10.00000000000000000 ) ;
#329 = VERTEX_POINT ( 'NONE', #155 ) ;
#330 = APPLICATION_CONTEXT ( 'configuration controlled 3d designs of mechanical parts and assemblies' ) ;
#331 = CIRCLE ( 'NONE', #151, 6.700000000000001066 ) ;
#332 = DIRECTION ( 'NONE',  ( 0.000000000000000000, 0.000000000000000000, 1.000000000000000000 ) ) ;
#333 = EDGE_LOOP ( 'NONE', ( #127, #27 ) ) ;
#334 = EDGE_CURVE ( 'NONE', #273, #135, #202, .T. ) ;
#335 = CC_DESIGN_PERSON_AND_ORGANIZATION_ASSIGNMENT ( #275, #220, ( #85 ) ) ;
#336 = ORIENTED_EDGE ( 'NONE', *, *, #57, .F. ) ;
#337 = EDGE_LOOP ( 'NONE', ( #143, #29 ) ) ;
#338 = CARTESIAN_POINT ( 'NONE',  ( 0.000000000000000000, 0.000000000000000000, 7.700000000000040146 ) ) ;
#339 = DIRECTION ( 'NONE',  ( 0.000000000000000000, 0.000000000000000000, 1.000000000000000000 ) ) ;
#340 = AXIS2_PLACEMENT_3D ( 'NONE', #229, #168, #113 ) ;
#341 = PERSON_AND_ORGANIZATION ( #353, #253 ) ;
#342 = EDGE_CURVE ( 'NONE', #378, #180, #94, .T. ) ;
#343 = CARTESIAN_POINT ( 'NONE',  ( -6.700000000000001066, 8.205133554287267548E-16, 7.000000000000020428 ) ) ;
#344 = APPROVAL_ROLE ( '' ) ;
#345 = VERTEX_POINT ( 'NONE', #244 ) ;
#346 = CALENDAR_DATE ( 2022, 8, 7 ) ;
#347 = PRODUCT ( '50ef', '50ef', '', ( #118 ) ) ;
#348 = EDGE_CURVE ( 'NONE', #200, #237, #146, .T. ) ;
#349 = DIRECTION ( 'NONE',  ( 0.000000000000000000, 0.000000000000000000, -1.000000000000000000 ) ) ;
#350 = ADVANCED_FACE ( 'NONE', ( #93 ), #298, .F. ) ;
#351 = PERSON_AND_ORGANIZATION_ROLE ( 'design_owner' ) ;
#352 = FACE_OUTER_BOUND ( 'NONE', #267, .T. ) ;
#353 = PERSON ( 'NEURÈENÝ', 'NEURÈENÝ', 'NEURÈENÝ', ('NEURÈENÝ'), ('NEURÈENÝ'), ('NEURÈENÝ') ) ;
#354 = CARTESIAN_POINT ( 'NONE',  ( 4.250000000000000000, 5.204748896376250699E-16, 657.0000000000000000 ) ) ;
#355 = AXIS2_PLACEMENT_3D ( 'NONE', #338, #148, #373 ) ;
#356 = CARTESIAN_POINT ( 'NONE',  ( 4.250000000000000000, 5.204748896376250699E-16, 0.000000000000000000 ) ) ;
#357 = CARTESIAN_POINT ( 'NONE',  ( 6.000000000000000888, 7.347880794884120722E-16, 657.0000000000000000 ) ) ;
#358 = FACE_OUTER_BOUND ( 'NONE', #119, .T. ) ;
#359 = EDGE_CURVE ( 'NONE', #276, #180, #132, .T. ) ;
#360 = ORIENTED_EDGE ( 'NONE', *, *, #8, .F. ) ;
#361 = EDGE_CURVE ( 'NONE', #237, #159, #231, .T. ) ;
#362 = ORIENTED_EDGE ( 'NONE', *, *, #280, .T. ) ;
#363 = PRODUCT_DEFINITION ( 'NEZNÁMÝ', '', #85, #98 ) ;
#364 = PERSON_AND_ORGANIZATION ( #353, #253 ) ;
#365 = ORIENTED_EDGE ( 'NONE', *, *, #3, .F. ) ;
#366 = ORIENTED_EDGE ( 'NONE', *, *, #284, .F. ) ;
#367 = TOROIDAL_SURFACE ( 'NONE', #375, 6.700000000000001066, 0.6999999999999999556 ) ;
#368 = SECURITY_CLASSIFICATION ( '', '', #376 ) ;
#369 = CARTESIAN_POINT ( 'NONE',  ( 0.000000000000000000, 0.000000000000000000, 657.0000000000000000 ) ) ;
#370 = DIRECTION ( 'NONE',  ( -1.000000000000000000, 0.000000000000000000, 0.000000000000000000 ) ) ;
#371 = CIRCLE ( 'NONE', #266, 10.00000000000000000 ) ;
#372 = DIRECTION ( 'NONE',  ( 1.000000000000000000, 0.000000000000000000, 0.000000000000000000 ) ) ;
#373 = DIRECTION ( 'NONE',  ( 1.000000000000000000, 0.000000000000000000, 0.000000000000000000 ) ) ;
#374 = ORIENTED_EDGE ( 'NONE', *, *, #13, .T. ) ;
#375 = AXIS2_PLACEMENT_3D ( 'NONE', #25, #1, #226 ) ;
#376 = SECURITY_CLASSIFICATION_LEVEL ( 'unclassified' ) ;
#377 = DIRECTION ( 'NONE',  ( 0.000000000000000000, 0.000000000000000000, -1.000000000000000000 ) ) ;
#378 = VERTEX_POINT ( 'NONE', #188 ) ;
#379 = APPROVAL ( #158, 'NEURÈENÝ' ) ;
#380 = DIRECTION ( 'NONE',  ( 1.000000000000000000, 0.000000000000000000, 0.000000000000000000 ) ) ;
#381 = FACE_OUTER_BOUND ( 'NONE', #245, .T. ) ;
ENDSEC;
END-ISO-10303-21;
