ISO-10303-21;
HEADER;
FILE_DESCRIPTION (( 'STEP AP203' ),
    '1' );
FILE_NAME ('3786.STEP',
    '2022-07-08T15:06:02',
    ( '' ),
    ( '' ),
    'SwSTEP 2.0',
    'SolidWorks 2019',
    '' );
FILE_SCHEMA (( 'CONFIG_CONTROL_DESIGN' ));
ENDSEC;

DATA;
#1 = FACE_OUTER_BOUND ( 'NONE', #141, .T. ) ;
#2 = FACE_BOUND ( 'NONE', #162, .T. ) ;
#3 = EDGE_CURVE ( 'NONE', #18, #111, #212, .T. ) ;
#4 = PLANE ( 'NONE',  #256 ) ;
#5 = AXIS2_PLACEMENT_3D ( 'NONE', #198, #15, #47 ) ;
#6 = FACE_OUTER_BOUND ( 'NONE', #75, .T. ) ;
#7 = EDGE_LOOP ( 'NONE', ( #235, #14 ) ) ;
#8 = FACE_OUTER_BOUND ( 'NONE', #204, .T. ) ;
#9 = EDGE_CURVE ( 'NONE', #25, #144, #165, .T. ) ;
#10 = CARTESIAN_POINT ( 'NONE',  ( 0.000000000000000000, 0.000000000000000000, 5.500000000000005329 ) ) ;
#11 = CIRCLE ( 'NONE', #161, 8.000000000000000000 ) ;
#12 = APPROVAL_DATE_TIME ( #125, #110 ) ;
#13 = DIRECTION ( 'NONE',  ( 0.000000000000000000, 0.000000000000000000, 1.000000000000000000 ) ) ;
#14 = ORIENTED_EDGE ( 'NONE', *, *, #148, .F. ) ;
#15 = DIRECTION ( 'NONE',  ( 0.000000000000000000, 0.000000000000000000, 1.000000000000000000 ) ) ;
#16 = VERTEX_POINT ( 'NONE', #229 ) ;
#17 = CALENDAR_DATE ( 2022, 8, 7 ) ;
#18 = VERTEX_POINT ( 'NONE', #344 ) ;
#19 = AXIS2_PLACEMENT_3D ( 'NONE', #29, #270, #55 ) ;
#20 = APPROVAL_PERSON_ORGANIZATION ( #261, #167, #319 ) ;
#21 = ORIENTED_EDGE ( 'NONE', *, *, #159, .F. ) ;
#22 = DATE_AND_TIME ( #49, #53 ) ;
#23 = ORIENTED_EDGE ( 'NONE', *, *, #129, .F. ) ;
#24 = PRODUCT ( '3786', '3786', '', ( #135 ) ) ;
#25 = VERTEX_POINT ( 'NONE', #48 ) ;
#26 = VECTOR ( 'NONE', #118, 1000.000000000000000 ) ;
#27 = LINE ( 'NONE', #187, #65 ) ;
#28 = DIRECTION ( 'NONE',  ( 1.000000000000000000, 0.000000000000000000, 0.000000000000000000 ) ) ;
#29 = CARTESIAN_POINT ( 'NONE',  ( -5.500000000000000000, 6.735557395310442023E-16, 5.500000000000005329 ) ) ;
#30 = TOROIDAL_SURFACE ( 'NONE', #115, 5.500000000000000000, 0.5000000000000000000 ) ;
#31 = CARTESIAN_POINT ( 'NONE',  ( -5.000000000000000000, 0.000000000000000000, 130.0000000000000000 ) ) ;
#32 = AXIS2_PLACEMENT_3D ( 'NONE', #260, #370, #78 ) ;
#33 = DIRECTION ( 'NONE',  ( -0.000000000000000000, -0.000000000000000000, -1.000000000000000000 ) ) ;
#34 = AXIS2_PLACEMENT_3D ( 'NONE', #163, #13, #366 ) ;
#35 = ORIENTED_EDGE ( 'NONE', *, *, #247, .T. ) ;
#36 = DATE_TIME_ROLE ( 'classification_date' ) ;
#37 = DIRECTION ( 'NONE',  ( -1.000000000000000000, 0.000000000000000000, 0.000000000000000000 ) ) ;
#38 = ORIENTED_EDGE ( 'NONE', *, *, #3, .T. ) ;
#39 = CC_DESIGN_PERSON_AND_ORGANIZATION_ASSIGNMENT ( #288, #283, ( #363 ) ) ;
#40 = COORDINATED_UNIVERSAL_TIME_OFFSET ( 1, 0, .AHEAD. ) ;
#41 = DIRECTION ( 'NONE',  ( 1.000000000000000000, 0.000000000000000000, 0.000000000000000000 ) ) ;
#42 = CIRCLE ( 'NONE', #262, 2.750000000000000000 ) ;
#43 = PRODUCT_DEFINITION_FORMATION_WITH_SPECIFIED_SOURCE ( 'LIBOVOLNÝ', '', #24, .NOT_KNOWN. ) ;
#44 = APPROVAL_ROLE ( '' ) ;
#45 = FACE_BOUND ( 'NONE', #157, .T. ) ;
#46 = APPLICATION_CONTEXT ( 'configuration controlled 3d designs of mechanical parts and assemblies' ) ;
#47 = DIRECTION ( 'NONE',  ( 1.000000000000000000, 0.000000000000000000, 0.000000000000000000 ) ) ;
#48 = CARTESIAN_POINT ( 'NONE',  ( 5.000000000000000000, 6.123233995736766282E-16, 130.0000000000000000 ) ) ;
#49 = CALENDAR_DATE ( 2022, 8, 7 ) ;
#50 =( LENGTH_UNIT ( ) NAMED_UNIT ( * ) SI_UNIT ( .MILLI., .METRE. ) );
#51 = ORIENTED_EDGE ( 'NONE', *, *, #269, .T. ) ;
#52 = ORIENTED_EDGE ( 'NONE', *, *, #205, .T. ) ;
#53 = LOCAL_TIME ( 17, 6, 2.000000000000000000, #77 ) ;
#54 = EDGE_CURVE ( 'NONE', #136, #143, #168, .T. ) ;
#55 = DIRECTION ( 'NONE',  ( -1.000000000000000000, 1.224646799147351482E-16, 0.000000000000000000 ) ) ;
#56 = DIRECTION ( 'NONE',  ( -0.000000000000000000, -0.000000000000000000, -1.000000000000000000 ) ) ;
#57 = DIRECTION ( 'NONE',  ( 0.000000000000000000, 0.000000000000000000, 1.000000000000000000 ) ) ;
#58 = ORIENTED_EDGE ( 'NONE', *, *, #269, .F. ) ;
#59 = DIRECTION ( 'NONE',  ( -1.000000000000000000, 0.000000000000000000, 0.000000000000000000 ) ) ;
#60 = EDGE_CURVE ( 'NONE', #317, #320, #377, .T. ) ;
#61 = CARTESIAN_POINT ( 'NONE',  ( 0.000000000000000000, 0.000000000000000000, 130.0000000000000000 ) ) ;
#62 = CYLINDRICAL_SURFACE ( 'NONE', #259, 5.000000000000000000 ) ;
#63 = APPROVAL_STATUS ( 'not_yet_approved' ) ;
#64 = PLANE ( 'NONE',  #34 ) ;
#65 = VECTOR ( 'NONE', #56, 1000.000000000000000 ) ;
#66 = EDGE_CURVE ( 'NONE', #111, #18, #42, .T. ) ;
#67 = LOCAL_TIME ( 17, 6, 2.000000000000000000, #360 ) ;
#68 = VERTEX_POINT ( 'NONE', #216 ) ;
#69 = VERTEX_POINT ( 'NONE', #85 ) ;
#70 = PERSON_AND_ORGANIZATION_ROLE ( 'creator' ) ;
#71 = EDGE_CURVE ( 'NONE', #278, #16, #305, .T. ) ;
#72 = FACE_OUTER_BOUND ( 'NONE', #274, .T. ) ;
#73 = AXIS2_PLACEMENT_3D ( 'NONE', #295, #117, #87 ) ;
#74 = PERSON_AND_ORGANIZATION ( #300, #190 ) ;
#75 = EDGE_LOOP ( 'NONE', ( #97, #293, #122, #93 ) ) ;
#76 = PERSON_AND_ORGANIZATION ( #300, #190 ) ;
#77 = COORDINATED_UNIVERSAL_TIME_OFFSET ( 1, 0, .AHEAD. ) ;
#78 = DIRECTION ( 'NONE',  ( 1.000000000000000000, 0.000000000000000000, 0.000000000000000000 ) ) ;
#79 = APPROVAL_PERSON_ORGANIZATION ( #224, #110, #44 ) ;
#80 = DIRECTION ( 'NONE',  ( -0.000000000000000000, -0.000000000000000000, -1.000000000000000000 ) ) ;
#81 = EDGE_LOOP ( 'NONE', ( #348, #35 ) ) ;
#82 = EDGE_CURVE ( 'NONE', #111, #16, #299, .T. ) ;
#83 = DIRECTION ( 'NONE',  ( 1.000000000000000000, 0.000000000000000000, -0.000000000000000000 ) ) ;
#84 = DIRECTION ( 'NONE',  ( -0.000000000000000000, -0.000000000000000000, -1.000000000000000000 ) ) ;
#85 = CARTESIAN_POINT ( 'NONE',  ( 8.000000000000000000, 9.797174393178825657E-16, 5.000000000000000000 ) ) ;
#86 = VECTOR ( 'NONE', #326, 1000.000000000000000 ) ;
#87 = DIRECTION ( 'NONE',  ( 1.000000000000000000, 0.000000000000000000, 0.000000000000000000 ) ) ;
#88 = EDGE_CURVE ( 'NONE', #144, #25, #306, .T. ) ;
#89 = DIRECTION ( 'NONE',  ( 1.000000000000000000, 0.000000000000000000, 0.000000000000000000 ) ) ;
#90 = DIRECTION ( 'NONE',  ( 1.000000000000000000, 0.000000000000000000, -0.000000000000000000 ) ) ;
#91 = PRODUCT_RELATED_PRODUCT_CATEGORY ( 'detail', '', ( #24 ) ) ;
#92 = CARTESIAN_POINT ( 'NONE',  ( -2.750000000000000000, 0.000000000000000000, 130.0000000000000000 ) ) ;
#93 = ORIENTED_EDGE ( 'NONE', *, *, #60, .F. ) ;
#94 = CARTESIAN_POINT ( 'NONE',  ( 0.000000000000000000, 0.000000000000000000, 5.500000000000005329 ) ) ;
#95 = CIRCLE ( 'NONE', #250, 5.500000000000000000 ) ;
#96 = CIRCLE ( 'NONE', #184, 5.500000000000000000 ) ;
#97 = ORIENTED_EDGE ( 'NONE', *, *, #301, .F. ) ;
#98 = APPROVAL_DATE_TIME ( #189, #186 ) ;
#99 = DIRECTION ( 'NONE',  ( -0.000000000000000000, -0.000000000000000000, -1.000000000000000000 ) ) ;
#100 = APPROVAL_ROLE ( '' ) ;
#101 = FACE_OUTER_BOUND ( 'NONE', #106, .T. ) ;
#102 =( NAMED_UNIT ( * ) PLANE_ANGLE_UNIT ( ) SI_UNIT ( $, .RADIAN. ) );
#103 = DIRECTION ( 'NONE',  ( 1.000000000000000000, 0.000000000000000000, 0.000000000000000000 ) ) ;
#104 = CC_DESIGN_PERSON_AND_ORGANIZATION_ASSIGNMENT ( #74, #307, ( #43 ) ) ;
#105 = APPROVAL_DATE_TIME ( #107, #167 ) ;
#106 = EDGE_LOOP ( 'NONE', ( #346, #124 ) ) ;
#107 = DATE_AND_TIME ( #200, #149 ) ;
#108 = DIRECTION ( 'NONE',  ( 0.000000000000000000, 0.000000000000000000, 1.000000000000000000 ) ) ;
#109 = AXIS2_PLACEMENT_3D ( 'NONE', #196, #225, #90 ) ;
#110 = APPROVAL ( #131, 'NEURÈENÝ' ) ;
#111 = VERTEX_POINT ( 'NONE', #271 ) ;
#112 = VECTOR ( 'NONE', #323, 1000.000000000000000 ) ;
#113 = FACE_OUTER_BOUND ( 'NONE', #7, .T. ) ;
#114 = TOROIDAL_SURFACE ( 'NONE', #176, 5.500000000000000000, 0.5000000000000000000 ) ;
#115 = AXIS2_PLACEMENT_3D ( 'NONE', #10, #339, #364 ) ;
#116 = DIRECTION ( 'NONE',  ( 1.000000000000000000, 0.000000000000000000, 0.000000000000000000 ) ) ;
#117 = DIRECTION ( 'NONE',  ( 0.000000000000000000, 0.000000000000000000, 1.000000000000000000 ) ) ;
#118 = DIRECTION ( 'NONE',  ( -0.000000000000000000, -0.000000000000000000, -1.000000000000000000 ) ) ;
#119 = DIRECTION ( 'NONE',  ( 0.000000000000000000, 0.000000000000000000, -1.000000000000000000 ) ) ;
#120 = ADVANCED_FACE ( 'NONE', ( #2, #113 ), #4, .F. ) ;
#121 = FACE_OUTER_BOUND ( 'NONE', #309, .T. ) ;
#122 = ORIENTED_EDGE ( 'NONE', *, *, #311, .F. ) ;
#123 = DIRECTION ( 'NONE',  ( -0.000000000000000000, -0.000000000000000000, -1.000000000000000000 ) ) ;
#124 = ORIENTED_EDGE ( 'NONE', *, *, #9, .T. ) ;
#125 = DATE_AND_TIME ( #279, #297 ) ;
#126 = LINE ( 'NONE', #92, #169 ) ;
#127 = DESIGN_CONTEXT ( 'detailed design', #46, 'design' ) ;
#128 = CC_DESIGN_SECURITY_CLASSIFICATION ( #363, ( #43 ) ) ;
#129 = EDGE_CURVE ( 'NONE', #69, #175, #354, .T. ) ;
#130 = ORIENTED_EDGE ( 'NONE', *, *, #129, .T. ) ;
#131 = APPROVAL_STATUS ( 'not_yet_approved' ) ;
#132 = CARTESIAN_POINT ( 'NONE',  ( 0.000000000000000000, 0.000000000000000000, 0.000000000000000000 ) ) ;
#133 = ORIENTED_EDGE ( 'NONE', *, *, #205, .F. ) ;
#134 = DATE_AND_TIME ( #315, #67 ) ;
#135 = MECHANICAL_CONTEXT ( 'NONE', #263, 'mechanical' ) ;
#136 = VERTEX_POINT ( 'NONE', #266 ) ;
#137 = CIRCLE ( 'NONE', #19, 0.5000000000000004441 ) ;
#138 = AXIS2_PLACEMENT_3D ( 'NONE', #132, #257, #164 ) ;
#139 = EDGE_CURVE ( 'NONE', #16, #278, #219, .T. ) ;
#140 = DIRECTION ( 'NONE',  ( -0.000000000000000000, -0.000000000000000000, -1.000000000000000000 ) ) ;
#141 = EDGE_LOOP ( 'NONE', ( #362, #321, #51, #347 ) ) ;
#142 = CC_DESIGN_PERSON_AND_ORGANIZATION_ASSIGNMENT ( #195, #70, ( #43 ) ) ;
#143 = VERTEX_POINT ( 'NONE', #236 ) ;
#144 = VERTEX_POINT ( 'NONE', #31 ) ;
#145 = DIRECTION ( 'NONE',  ( 0.000000000000000000, 0.000000000000000000, 1.000000000000000000 ) ) ;
#146 = CIRCLE ( 'NONE', #267, 8.000000000000000000 ) ;
#147 = CARTESIAN_POINT ( 'NONE',  ( 2.750000000000000000, 3.367778697655221012E-16, 130.0000000000000000 ) ) ;
#148 = EDGE_CURVE ( 'NONE', #175, #143, #146, .T. ) ;
#149 = LOCAL_TIME ( 17, 6, 2.000000000000000000, #232 ) ;
#150 = DIRECTION ( 'NONE',  ( 0.000000000000000000, 0.000000000000000000, -1.000000000000000000 ) ) ;
#151 = CARTESIAN_POINT ( 'NONE',  ( 0.000000000000000000, 0.000000000000000000, 0.000000000000000000 ) ) ;
#152 = CARTESIAN_POINT ( 'NONE',  ( 0.000000000000000000, 0.000000000000000000, 130.0000000000000000 ) ) ;
#153 = DIRECTION ( 'NONE',  ( 0.000000000000000000, 0.000000000000000000, 1.000000000000000000 ) ) ;
#154 = DIRECTION ( 'NONE',  ( -0.000000000000000000, -0.000000000000000000, -1.000000000000000000 ) ) ;
#155 = PERSON_AND_ORGANIZATION ( #300, #190 ) ;
#156 = DIRECTION ( 'NONE',  ( 1.000000000000000000, 0.000000000000000000, 0.000000000000000000 ) ) ;
#157 = EDGE_LOOP ( 'NONE', ( #264, #316 ) ) ;
#158 = SECURITY_CLASSIFICATION_LEVEL ( 'unclassified' ) ;
#159 = EDGE_CURVE ( 'NONE', #68, #282, #137, .T. ) ;
#160 = CARTESIAN_POINT ( 'NONE',  ( 0.000000000000000000, 0.000000000000000000, 5.000000000000000000 ) ) ;
#161 = AXIS2_PLACEMENT_3D ( 'NONE', #329, #153, #302 ) ;
#162 = EDGE_LOOP ( 'NONE', ( #199, #253 ) ) ;
#163 = CARTESIAN_POINT ( 'NONE',  ( 0.000000000000000000, 0.000000000000000000, 130.0000000000000000 ) ) ;
#164 = DIRECTION ( 'NONE',  ( 1.000000000000000000, 0.000000000000000000, 0.000000000000000000 ) ) ;
#165 = CIRCLE ( 'NONE', #32, 5.000000000000000000 ) ;
#166 = ORIENTED_EDGE ( 'NONE', *, *, #148, .T. ) ;
#167 = APPROVAL ( #292, 'NEURÈENÝ' ) ;
#168 = LINE ( 'NONE', #291, #255 ) ;
#169 = VECTOR ( 'NONE', #191, 1000.000000000000000 ) ;
#170 = ORIENTED_EDGE ( 'NONE', *, *, #275, .F. ) ;
#171 =( NAMED_UNIT ( * ) SI_UNIT ( $, .STERADIAN. ) SOLID_ANGLE_UNIT ( ) );
#172 = ORIENTED_EDGE ( 'NONE', *, *, #54, .T. ) ;
#173 = AXIS2_PLACEMENT_3D ( 'NONE', #206, #108, #103 ) ;
#174 = EDGE_CURVE ( 'NONE', #25, #317, #268, .T. ) ;
#175 = VERTEX_POINT ( 'NONE', #242 ) ;
#176 = AXIS2_PLACEMENT_3D ( 'NONE', #246, #248, #336 ) ;
#177 =( GEOMETRIC_REPRESENTATION_CONTEXT ( 3 ) GLOBAL_UNCERTAINTY_ASSIGNED_CONTEXT ( ( #281 ) ) GLOBAL_UNIT_ASSIGNED_CONTEXT ( ( #50, #102, #171 ) ) REPRESENTATION_CONTEXT ( 'NONE', 'WORKASPACE' ) );
#178 = DIRECTION ( 'NONE',  ( 0.000000000000000000, 0.000000000000000000, 1.000000000000000000 ) ) ;
#179 = DIRECTION ( 'NONE',  ( 0.000000000000000000, 0.000000000000000000, 1.000000000000000000 ) ) ;
#180 = ADVANCED_FACE ( 'NONE', ( #1 ), #349, .F. ) ;
#181 = CLOSED_SHELL ( 'NONE', ( #356, #322, #376, #328, #338, #254, #120, #222, #342, #243, #180 ) ) ;
#182 = DIRECTION ( 'NONE',  ( 0.000000000000000000, 0.000000000000000000, 1.000000000000000000 ) ) ;
#183 = EDGE_LOOP ( 'NONE', ( #21, #314, #375, #249 ) ) ;
#184 = AXIS2_PLACEMENT_3D ( 'NONE', #289, #197, #156 ) ;
#185 = CARTESIAN_POINT ( 'NONE',  ( 5.000000000000000000, 6.123233995736766282E-16, 130.0000000000000000 ) ) ;
#186 = APPROVAL ( #63, 'NEURÈENÝ' ) ;
#187 = CARTESIAN_POINT ( 'NONE',  ( -5.000000000000000000, 0.000000000000000000, 130.0000000000000000 ) ) ;
#188 = CARTESIAN_POINT ( 'NONE',  ( 0.000000000000000000, 0.000000000000000000, 130.0000000000000000 ) ) ;
#189 = DATE_AND_TIME ( #17, #239 ) ;
#190 = ORGANIZATION ( 'NEURÈENÝ', 'NEURÈENÝ', '' ) ;
#191 = DIRECTION ( 'NONE',  ( 0.000000000000000000, 0.000000000000000000, -1.000000000000000000 ) ) ;
#192 = ORIENTED_EDGE ( 'NONE', *, *, #88, .F. ) ;
#193 = DIRECTION ( 'NONE',  ( 1.000000000000000000, 0.000000000000000000, 0.000000000000000000 ) ) ;
#194 = EDGE_CURVE ( 'NONE', #317, #68, #373, .T. ) ;
#195 = PERSON_AND_ORGANIZATION ( #300, #190 ) ;
#196 = CARTESIAN_POINT ( 'NONE',  ( 0.000000000000000000, 0.000000000000000000, 5.000000000000000000 ) ) ;
#197 = DIRECTION ( 'NONE',  ( -0.000000000000000000, -0.000000000000000000, -1.000000000000000000 ) ) ;
#198 = CARTESIAN_POINT ( 'NONE',  ( 0.000000000000000000, 0.000000000000000000, 0.000000000000000000 ) ) ;
#199 = ORIENTED_EDGE ( 'NONE', *, *, #71, .F. ) ;
#200 = CALENDAR_DATE ( 2022, 8, 7 ) ;
#201 = AXIS2_PLACEMENT_3D ( 'NONE', #296, #33, #116 ) ;
#202 = ORIENTED_EDGE ( 'NONE', *, *, #139, .T. ) ;
#203 = ORIENTED_EDGE ( 'NONE', *, *, #54, .F. ) ;
#204 = EDGE_LOOP ( 'NONE', ( #331, #368 ) ) ;
#205 = EDGE_CURVE ( 'NONE', #144, #68, #27, .T. ) ;
#206 = CARTESIAN_POINT ( 'NONE',  ( 0.000000000000000000, 0.000000000000000000, 130.0000000000000000 ) ) ;
#207 = CIRCLE ( 'NONE', #272, 5.000000000000000000 ) ;
#208 = ADVANCED_BREP_SHAPE_REPRESENTATION ( '3786', ( #334, #138 ), #177 ) ;
#209 = EDGE_CURVE ( 'NONE', #136, #69, #294, .T. ) ;
#210 = DIRECTION ( 'NONE',  ( -1.000000000000000000, 0.000000000000000000, 0.000000000000000000 ) ) ;
#211 = DIRECTION ( 'NONE',  ( 0.000000000000000000, 0.000000000000000000, -1.000000000000000000 ) ) ;
#212 = CIRCLE ( 'NONE', #173, 2.750000000000000000 ) ;
#213 = CYLINDRICAL_SURFACE ( 'NONE', #310, 5.000000000000000000 ) ;
#214 = PRODUCT_DEFINITION ( 'NEZNÁMÝ', '', #43, #127 ) ;
#215 = AXIS2_PLACEMENT_3D ( 'NONE', #265, #179, #378 ) ;
#216 = CARTESIAN_POINT ( 'NONE',  ( -5.000000000000000000, 0.000000000000000000, 5.500000000000005329 ) ) ;
#217 = PRODUCT_DEFINITION_SHAPE ( 'NONE', 'NONE',  #214 ) ;
#218 = FACE_OUTER_BOUND ( 'NONE', #365, .T. ) ;
#219 = CIRCLE ( 'NONE', #201, 2.750000000000000000 ) ;
#220 = ORIENTED_EDGE ( 'NONE', *, *, #174, .T. ) ;
#221 = PLANE ( 'NONE',  #109 ) ;
#222 = ADVANCED_FACE ( 'NONE', ( #238 ), #213, .T. ) ;
#223 = ORIENTED_EDGE ( 'NONE', *, *, #209, .F. ) ;
#224 = PERSON_AND_ORGANIZATION ( #300, #190 ) ;
#225 = DIRECTION ( 'NONE',  ( 0.000000000000000000, 0.000000000000000000, 1.000000000000000000 ) ) ;
#226 = APPROVAL_PERSON_ORGANIZATION ( #155, #186, #100 ) ;
#227 = ORIENTED_EDGE ( 'NONE', *, *, #174, .F. ) ;
#228 = PERSON_AND_ORGANIZATION_ROLE ( 'design_owner' ) ;
#229 = CARTESIAN_POINT ( 'NONE',  ( 2.750000000000000000, 3.367778697655221012E-16, 0.000000000000000000 ) ) ;
#230 = PERSON_AND_ORGANIZATION ( #300, #190 ) ;
#231 = ORIENTED_EDGE ( 'NONE', *, *, #9, .F. ) ;
#232 = COORDINATED_UNIVERSAL_TIME_OFFSET ( 1, 0, .AHEAD. ) ;
#233 = DIRECTION ( 'NONE',  ( 0.000000000000000000, -1.000000000000000000, 0.000000000000000000 ) ) ;
#234 = AXIS2_PLACEMENT_3D ( 'NONE', #160, #99, #37 ) ;
#235 = ORIENTED_EDGE ( 'NONE', *, *, #379, .F. ) ;
#236 = CARTESIAN_POINT ( 'NONE',  ( -8.000000000000000000, 0.000000000000000000, 0.000000000000000000 ) ) ;
#237 = CC_DESIGN_DATE_AND_TIME_ASSIGNMENT ( #134, #36, ( #363 ) ) ;
#238 = FACE_OUTER_BOUND ( 'NONE', #337, .T. ) ;
#239 = LOCAL_TIME ( 17, 6, 2.000000000000000000, #367 ) ;
#240 = DIRECTION ( 'NONE',  ( 1.000000000000000000, 0.000000000000000000, 0.000000000000000000 ) ) ;
#241 = AXIS2_PLACEMENT_3D ( 'NONE', #152, #178, #327 ) ;
#242 = CARTESIAN_POINT ( 'NONE',  ( 8.000000000000000000, 9.797174393178825657E-16, 0.000000000000000000 ) ) ;
#243 = ADVANCED_FACE ( 'NONE', ( #298 ), #114, .F. ) ;
#244 = AXIS2_PLACEMENT_3D ( 'NONE', #61, #150, #210 ) ;
#245 = DIRECTION ( 'NONE',  ( -1.000000000000000000, 0.000000000000000000, 0.000000000000000000 ) ) ;
#246 = CARTESIAN_POINT ( 'NONE',  ( 0.000000000000000000, 0.000000000000000000, 5.500000000000005329 ) ) ;
#247 = EDGE_CURVE ( 'NONE', #282, #320, #95, .T. ) ;
#248 = DIRECTION ( 'NONE',  ( 0.000000000000000000, 0.000000000000000000, 1.000000000000000000 ) ) ;
#249 = ORIENTED_EDGE ( 'NONE', *, *, #247, .F. ) ;
#250 = AXIS2_PLACEMENT_3D ( 'NONE', #333, #123, #193 ) ;
#251 = CARTESIAN_POINT ( 'NONE',  ( -2.750000000000000000, 0.000000000000000000, 0.000000000000000000 ) ) ;
#252 = CARTESIAN_POINT ( 'NONE',  ( 0.000000000000000000, 0.000000000000000000, 5.000000000000000000 ) ) ;
#253 = ORIENTED_EDGE ( 'NONE', *, *, #139, .F. ) ;
#254 = ADVANCED_FACE ( 'NONE', ( #303, #8 ), #221, .T. ) ;
#255 = VECTOR ( 'NONE', #140, 1000.000000000000000 ) ;
#256 = AXIS2_PLACEMENT_3D ( 'NONE', #353, #57, #83 ) ;
#257 = DIRECTION ( 'NONE',  ( 0.000000000000000000, 0.000000000000000000, 1.000000000000000000 ) ) ;
#258 = EDGE_LOOP ( 'NONE', ( #231, #220, #372, #133 ) ) ;
#259 = AXIS2_PLACEMENT_3D ( 'NONE', #188, #80, #340 ) ;
#260 = CARTESIAN_POINT ( 'NONE',  ( 0.000000000000000000, 0.000000000000000000, 130.0000000000000000 ) ) ;
#261 = PERSON_AND_ORGANIZATION ( #300, #190 ) ;
#262 = AXIS2_PLACEMENT_3D ( 'NONE', #351, #182, #89 ) ;
#263 = APPLICATION_CONTEXT ( 'configuration controlled 3d designs of mechanical parts and assemblies' ) ;
#264 = ORIENTED_EDGE ( 'NONE', *, *, #3, .F. ) ;
#265 = CARTESIAN_POINT ( 'NONE',  ( 0.000000000000000000, 0.000000000000000000, 5.000000000000000000 ) ) ;
#266 = CARTESIAN_POINT ( 'NONE',  ( -8.000000000000000000, 0.000000000000000000, 5.000000000000000000 ) ) ;
#267 = AXIS2_PLACEMENT_3D ( 'NONE', #380, #145, #240 ) ;
#268 = LINE ( 'NONE', #185, #26 ) ;
#269 = EDGE_CURVE ( 'NONE', #18, #278, #126, .T. ) ;
#270 = DIRECTION ( 'NONE',  ( 1.224646799147353207E-16, 1.000000000000000000, -0.000000000000000000 ) ) ;
#271 = CARTESIAN_POINT ( 'NONE',  ( 2.750000000000000000, 3.367778697655221012E-16, 130.0000000000000000 ) ) ;
#272 = AXIS2_PLACEMENT_3D ( 'NONE', #94, #308, #41 ) ;
#273 = CARTESIAN_POINT ( 'NONE',  ( 5.500000000000000000, 0.000000000000000000, 5.000000000000002665 ) ) ;
#274 = EDGE_LOOP ( 'NONE', ( #38, #341, #202, #58 ) ) ;
#275 = EDGE_CURVE ( 'NONE', #69, #136, #11, .T. ) ;
#276 = SHAPE_DEFINITION_REPRESENTATION ( #217, #208 ) ;
#277 = CYLINDRICAL_SURFACE ( 'NONE', #355, 2.750000000000000000 ) ;
#278 = VERTEX_POINT ( 'NONE', #251 ) ;
#279 = CALENDAR_DATE ( 2022, 8, 7 ) ;
#280 = CARTESIAN_POINT ( 'NONE',  ( 5.000000000000000000, 6.123233995736766282E-16, 5.500000000000005329 ) ) ;
#281 = UNCERTAINTY_MEASURE_WITH_UNIT (LENGTH_MEASURE( 1.000000000000000082E-05 ), #50, 'distance_accuracy_value', 'NONE');
#282 = VERTEX_POINT ( 'NONE', #361 ) ;
#283 = PERSON_AND_ORGANIZATION_ROLE ( 'classification_officer' ) ;
#284 = CC_DESIGN_APPROVAL ( #186, ( #43 ) ) ;
#285 = CC_DESIGN_PERSON_AND_ORGANIZATION_ASSIGNMENT ( #76, #228, ( #24 ) ) ;
#286 = CYLINDRICAL_SURFACE ( 'NONE', #381, 8.000000000000000000 ) ;
#287 = ORIENTED_EDGE ( 'NONE', *, *, #379, .T. ) ;
#288 = PERSON_AND_ORGANIZATION ( #300, #190 ) ;
#289 = CARTESIAN_POINT ( 'NONE',  ( 0.000000000000000000, 0.000000000000000000, 5.000000000000000000 ) ) ;
#290 = APPLICATION_PROTOCOL_DEFINITION ( 'international standard', 'config_control_design', 1994, #263 ) ;
#291 = CARTESIAN_POINT ( 'NONE',  ( -8.000000000000000000, 0.000000000000000000, 5.000000000000000000 ) ) ;
#292 = APPROVAL_STATUS ( 'not_yet_approved' ) ;
#293 = ORIENTED_EDGE ( 'NONE', *, *, #159, .T. ) ;
#294 = CIRCLE ( 'NONE', #215, 8.000000000000000000 ) ;
#295 = CARTESIAN_POINT ( 'NONE',  ( 0.000000000000000000, 0.000000000000000000, 5.500000000000005329 ) ) ;
#296 = CARTESIAN_POINT ( 'NONE',  ( 0.000000000000000000, 0.000000000000000000, 0.000000000000000000 ) ) ;
#297 = LOCAL_TIME ( 17, 6, 2.000000000000000000, #40 ) ;
#298 = FACE_OUTER_BOUND ( 'NONE', #183, .T. ) ;
#299 = LINE ( 'NONE', #147, #86 ) ;
#300 = PERSON ( 'NEURÈENÝ', 'NEURÈENÝ', 'NEURÈENÝ', ('NEURÈENÝ'), ('NEURÈENÝ'), ('NEURÈENÝ') ) ;
#301 = EDGE_CURVE ( 'NONE', #68, #317, #207, .T. ) ;
#302 = DIRECTION ( 'NONE',  ( 1.000000000000000000, 0.000000000000000000, 0.000000000000000000 ) ) ;
#303 = FACE_BOUND ( 'NONE', #81, .T. ) ;
#304 = ORIENTED_EDGE ( 'NONE', *, *, #301, .T. ) ;
#305 = CIRCLE ( 'NONE', #352, 2.750000000000000000 ) ;
#306 = CIRCLE ( 'NONE', #241, 5.000000000000000000 ) ;
#307 = PERSON_AND_ORGANIZATION_ROLE ( 'design_supplier' ) ;
#308 = DIRECTION ( 'NONE',  ( 0.000000000000000000, 0.000000000000000000, 1.000000000000000000 ) ) ;
#309 = EDGE_LOOP ( 'NONE', ( #170, #130, #166, #203 ) ) ;
#310 = AXIS2_PLACEMENT_3D ( 'NONE', #350, #84, #59 ) ;
#311 = EDGE_CURVE ( 'NONE', #320, #282, #96, .T. ) ;
#312 = CC_DESIGN_APPROVAL ( #110, ( #363 ) ) ;
#313 = CARTESIAN_POINT ( 'NONE',  ( 0.000000000000000000, 0.000000000000000000, 130.0000000000000000 ) ) ;
#314 = ORIENTED_EDGE ( 'NONE', *, *, #194, .F. ) ;
#315 = CALENDAR_DATE ( 2022, 8, 7 ) ;
#316 = ORIENTED_EDGE ( 'NONE', *, *, #66, .F. ) ;
#317 = VERTEX_POINT ( 'NONE', #280 ) ;
#318 = CC_DESIGN_PERSON_AND_ORGANIZATION_ASSIGNMENT ( #230, #345, ( #214 ) ) ;
#319 = APPROVAL_ROLE ( '' ) ;
#320 = VERTEX_POINT ( 'NONE', #273 ) ;
#321 = ORIENTED_EDGE ( 'NONE', *, *, #66, .T. ) ;
#322 = ADVANCED_FACE ( 'NONE', ( #6 ), #30, .F. ) ;
#323 = DIRECTION ( 'NONE',  ( -0.000000000000000000, -0.000000000000000000, -1.000000000000000000 ) ) ;
#324 = CARTESIAN_POINT ( 'NONE',  ( 8.000000000000000000, 9.797174393178825657E-16, 5.000000000000000000 ) ) ;
#325 = DIRECTION ( 'NONE',  ( -0.000000000000000000, -0.000000000000000000, -1.000000000000000000 ) ) ;
#326 = DIRECTION ( 'NONE',  ( 0.000000000000000000, 0.000000000000000000, -1.000000000000000000 ) ) ;
#327 = DIRECTION ( 'NONE',  ( 1.000000000000000000, 0.000000000000000000, 0.000000000000000000 ) ) ;
#328 = ADVANCED_FACE ( 'NONE', ( #121 ), #358, .T. ) ;
#329 = CARTESIAN_POINT ( 'NONE',  ( 0.000000000000000000, 0.000000000000000000, 5.000000000000000000 ) ) ;
#330 = DIRECTION ( 'NONE',  ( -1.000000000000000000, 0.000000000000000000, 0.000000000000000000 ) ) ;
#331 = ORIENTED_EDGE ( 'NONE', *, *, #209, .T. ) ;
#332 = CC_DESIGN_APPROVAL ( #167, ( #214 ) ) ;
#333 = CARTESIAN_POINT ( 'NONE',  ( 0.000000000000000000, 0.000000000000000000, 5.000000000000000000 ) ) ;
#334 = MANIFOLD_SOLID_BREP ( 'Odebrat vysunutím3', #181 ) ;
#335 = DATE_TIME_ROLE ( 'creation_date' ) ;
#336 = DIRECTION ( 'NONE',  ( 1.000000000000000000, 0.000000000000000000, 0.000000000000000000 ) ) ;
#337 = EDGE_LOOP ( 'NONE', ( #227, #192, #52, #304 ) ) ;
#338 = ADVANCED_FACE ( 'NONE', ( #218 ), #286, .T. ) ;
#339 = DIRECTION ( 'NONE',  ( 0.000000000000000000, 0.000000000000000000, 1.000000000000000000 ) ) ;
#340 = DIRECTION ( 'NONE',  ( -1.000000000000000000, 0.000000000000000000, 0.000000000000000000 ) ) ;
#341 = ORIENTED_EDGE ( 'NONE', *, *, #82, .T. ) ;
#342 = ADVANCED_FACE ( 'NONE', ( #45, #101 ), #64, .T. ) ;
#343 = APPLICATION_PROTOCOL_DEFINITION ( 'international standard', 'config_control_design', 1994, #46 ) ;
#344 = CARTESIAN_POINT ( 'NONE',  ( -2.750000000000000000, 0.000000000000000000, 130.0000000000000000 ) ) ;
#345 = PERSON_AND_ORGANIZATION_ROLE ( 'creator' ) ;
#346 = ORIENTED_EDGE ( 'NONE', *, *, #88, .T. ) ;
#347 = ORIENTED_EDGE ( 'NONE', *, *, #71, .T. ) ;
#348 = ORIENTED_EDGE ( 'NONE', *, *, #311, .T. ) ;
#349 = CYLINDRICAL_SURFACE ( 'NONE', #244, 2.750000000000000000 ) ;
#350 = CARTESIAN_POINT ( 'NONE',  ( 0.000000000000000000, 0.000000000000000000, 130.0000000000000000 ) ) ;
#351 = CARTESIAN_POINT ( 'NONE',  ( 0.000000000000000000, 0.000000000000000000, 130.0000000000000000 ) ) ;
#352 = AXIS2_PLACEMENT_3D ( 'NONE', #151, #325, #28 ) ;
#353 = CARTESIAN_POINT ( 'NONE',  ( 0.000000000000000000, 0.000000000000000000, 0.000000000000000000 ) ) ;
#354 = LINE ( 'NONE', #324, #112 ) ;
#355 = AXIS2_PLACEMENT_3D ( 'NONE', #313, #119, #245 ) ;
#356 = ADVANCED_FACE ( 'NONE', ( #72 ), #277, .F. ) ;
#357 = FACE_OUTER_BOUND ( 'NONE', #258, .T. ) ;
#358 = CYLINDRICAL_SURFACE ( 'NONE', #234, 8.000000000000000000 ) ;
#359 = AXIS2_PLACEMENT_3D ( 'NONE', #371, #233, #211 ) ;
#360 = COORDINATED_UNIVERSAL_TIME_OFFSET ( 1, 0, .AHEAD. ) ;
#361 = CARTESIAN_POINT ( 'NONE',  ( -5.500000000000000000, 6.735557395310442023E-16, 5.000000000000002665 ) ) ;
#362 = ORIENTED_EDGE ( 'NONE', *, *, #82, .F. ) ;
#363 = SECURITY_CLASSIFICATION ( '', '', #158 ) ;
#364 = DIRECTION ( 'NONE',  ( 1.000000000000000000, 0.000000000000000000, 0.000000000000000000 ) ) ;
#365 = EDGE_LOOP ( 'NONE', ( #23, #223, #172, #287 ) ) ;
#366 = DIRECTION ( 'NONE',  ( 1.000000000000000000, 0.000000000000000000, -0.000000000000000000 ) ) ;
#367 = COORDINATED_UNIVERSAL_TIME_OFFSET ( 1, 0, .AHEAD. ) ;
#368 = ORIENTED_EDGE ( 'NONE', *, *, #275, .T. ) ;
#369 = CC_DESIGN_DATE_AND_TIME_ASSIGNMENT ( #22, #335, ( #214 ) ) ;
#370 = DIRECTION ( 'NONE',  ( 0.000000000000000000, 0.000000000000000000, 1.000000000000000000 ) ) ;
#371 = CARTESIAN_POINT ( 'NONE',  ( 5.500000000000000000, 0.000000000000000000, 5.500000000000005329 ) ) ;
#372 = ORIENTED_EDGE ( 'NONE', *, *, #194, .T. ) ;
#373 = CIRCLE ( 'NONE', #73, 5.000000000000000000 ) ;
#374 = CIRCLE ( 'NONE', #5, 8.000000000000000000 ) ;
#375 = ORIENTED_EDGE ( 'NONE', *, *, #60, .T. ) ;
#376 = ADVANCED_FACE ( 'NONE', ( #357 ), #62, .T. ) ;
#377 = CIRCLE ( 'NONE', #359, 0.5000000000000004441 ) ;
#378 = DIRECTION ( 'NONE',  ( 1.000000000000000000, 0.000000000000000000, 0.000000000000000000 ) ) ;
#379 = EDGE_CURVE ( 'NONE', #143, #175, #374, .T. ) ;
#380 = CARTESIAN_POINT ( 'NONE',  ( 0.000000000000000000, 0.000000000000000000, 0.000000000000000000 ) ) ;
#381 = AXIS2_PLACEMENT_3D ( 'NONE', #252, #154, #330 ) ;
ENDSEC;
END-ISO-10303-21;
