ISO-10303-21;
HEADER;
FILE_DESCRIPTION (( 'STEP AP203' ),
    '1' );
FILE_NAME ('e99a.STEP',
    '2022-07-08T14:46:51',
    ( '' ),
    ( '' ),
    'SwSTEP 2.0',
    'SolidWorks 2019',
    '' );
FILE_SCHEMA (( 'CONFIG_CONTROL_DESIGN' ));
ENDSEC;

DATA;
#1 = CARTESIAN_POINT ( 'NONE',  ( 0.000000000000000000, 0.000000000000000000, 165.0000000000000000 ) ) ;
#2 = ORIENTED_EDGE ( 'NONE', *, *, #260, .F. ) ;
#3 = DIRECTION ( 'NONE',  ( -1.000000000000000000, 0.000000000000000000, 0.000000000000000000 ) ) ;
#4 = ORIENTED_EDGE ( 'NONE', *, *, #156, .F. ) ;
#5 = MANIFOLD_SOLID_BREP ( 'Odebrat vysunutím3', #371 ) ;
#6 = CARTESIAN_POINT ( 'NONE',  ( 0.000000000000000000, 0.000000000000000000, 165.0000000000000000 ) ) ;
#7 = VERTEX_POINT ( 'NONE', #73 ) ;
#8 = APPROVAL_ROLE ( '' ) ;
#9 = PLANE ( 'NONE',  #247 ) ;
#10 = ADVANCED_FACE ( 'NONE', ( #42, #245 ), #9, .F. ) ;
#11 = APPROVAL_DATE_TIME ( #271, #252 ) ;
#12 = AXIS2_PLACEMENT_3D ( 'NONE', #6, #357, #56 ) ;
#13 = CARTESIAN_POINT ( 'NONE',  ( 0.000000000000000000, 0.000000000000000000, 5.500000000000005329 ) ) ;
#14 = CARTESIAN_POINT ( 'NONE',  ( 0.000000000000000000, 0.000000000000000000, 5.000000000000000000 ) ) ;
#15 = CALENDAR_DATE ( 2022, 8, 7 ) ;
#16 = DIRECTION ( 'NONE',  ( 0.000000000000000000, 0.000000000000000000, 1.000000000000000000 ) ) ;
#17 = CARTESIAN_POINT ( 'NONE',  ( 3.250000000000000444, 3.980102097228898231E-16, 165.0000000000000000 ) ) ;
#18 = LOCAL_TIME ( 16, 46, 51.00000000000000000, #340 ) ;
#19 = DIRECTION ( 'NONE',  ( -1.000000000000000000, 0.000000000000000000, 0.000000000000000000 ) ) ;
#20 = DIRECTION ( 'NONE',  ( -0.000000000000000000, -0.000000000000000000, -1.000000000000000000 ) ) ;
#21 = FACE_OUTER_BOUND ( 'NONE', #125, .T. ) ;
#22 = EDGE_LOOP ( 'NONE', ( #364, #27, #276, #327 ) ) ;
#23 = AXIS2_PLACEMENT_3D ( 'NONE', #285, #167, #19 ) ;
#24 = VERTEX_POINT ( 'NONE', #134 ) ;
#25 = APPROVAL ( #218, 'NEURÈENÝ' ) ;
#26 = DIRECTION ( 'NONE',  ( 0.000000000000000000, 0.000000000000000000, 1.000000000000000000 ) ) ;
#27 = ORIENTED_EDGE ( 'NONE', *, *, #214, .F. ) ;
#28 = DIRECTION ( 'NONE',  ( -0.000000000000000000, -0.000000000000000000, -1.000000000000000000 ) ) ;
#29 = PERSON ( 'NEURÈENÝ', 'NEURÈENÝ', 'NEURÈENÝ', ('NEURÈENÝ'), ('NEURÈENÝ'), ('NEURÈENÝ') ) ;
#30 = ORIENTED_EDGE ( 'NONE', *, *, #330, .F. ) ;
#31 = CIRCLE ( 'NONE', #80, 8.000000000000000000 ) ;
#32 = PERSON_AND_ORGANIZATION ( #29, #366 ) ;
#33 =( GEOMETRIC_REPRESENTATION_CONTEXT ( 3 ) GLOBAL_UNCERTAINTY_ASSIGNED_CONTEXT ( ( #44 ) ) GLOBAL_UNIT_ASSIGNED_CONTEXT ( ( #89, #238, #373 ) ) REPRESENTATION_CONTEXT ( 'NONE', 'WORKASPACE' ) );
#34 = EDGE_CURVE ( 'NONE', #7, #174, #253, .T. ) ;
#35 = ORIENTED_EDGE ( 'NONE', *, *, #273, .F. ) ;
#36 = APPROVAL_ROLE ( '' ) ;
#37 = DATE_AND_TIME ( #78, #18 ) ;
#38 = PERSON_AND_ORGANIZATION ( #29, #366 ) ;
#39 = CIRCLE ( 'NONE', #201, 0.5000000000000004441 ) ;
#40 = LOCAL_TIME ( 16, 46, 51.00000000000000000, #128 ) ;
#41 = EDGE_CURVE ( 'NONE', #62, #213, #43, .T. ) ;
#42 = FACE_BOUND ( 'NONE', #299, .T. ) ;
#43 = CIRCLE ( 'NONE', #304, 5.500000000000000000 ) ;
#44 = UNCERTAINTY_MEASURE_WITH_UNIT (LENGTH_MEASURE( 1.000000000000000082E-05 ), #89, 'distance_accuracy_value', 'NONE');
#45 = DIRECTION ( 'NONE',  ( 0.000000000000000000, 0.000000000000000000, 1.000000000000000000 ) ) ;
#46 = FACE_OUTER_BOUND ( 'NONE', #380, .T. ) ;
#47 = DIRECTION ( 'NONE',  ( 1.000000000000000000, 0.000000000000000000, 0.000000000000000000 ) ) ;
#48 = TOROIDAL_SURFACE ( 'NONE', #180, 5.500000000000000000, 0.5000000000000000000 ) ;
#49 = LINE ( 'NONE', #50, #220 ) ;
#50 = CARTESIAN_POINT ( 'NONE',  ( 5.000000000000000000, 6.123233995736766282E-16, 165.0000000000000000 ) ) ;
#51 = APPROVAL_PERSON_ORGANIZATION ( #332, #25, #36 ) ;
#52 = CARTESIAN_POINT ( 'NONE',  ( 0.000000000000000000, 0.000000000000000000, 5.000000000000000000 ) ) ;
#53 = EDGE_CURVE ( 'NONE', #104, #127, #381, .T. ) ;
#54 = DIRECTION ( 'NONE',  ( -1.000000000000000000, 0.000000000000000000, 0.000000000000000000 ) ) ;
#55 = VERTEX_POINT ( 'NONE', #66 ) ;
#56 = DIRECTION ( 'NONE',  ( -1.000000000000000000, 0.000000000000000000, 0.000000000000000000 ) ) ;
#57 = ORIENTED_EDGE ( 'NONE', *, *, #203, .F. ) ;
#58 = PRODUCT_DEFINITION_SHAPE ( 'NONE', 'NONE',  #148 ) ;
#59 = CIRCLE ( 'NONE', #112, 5.000000000000000000 ) ;
#60 = DIRECTION ( 'NONE',  ( 0.000000000000000000, 0.000000000000000000, 1.000000000000000000 ) ) ;
#61 = DIRECTION ( 'NONE',  ( 1.000000000000000000, 0.000000000000000000, -0.000000000000000000 ) ) ;
#62 = VERTEX_POINT ( 'NONE', #251 ) ;
#63 = PERSON_AND_ORGANIZATION_ROLE ( 'design_supplier' ) ;
#64 = EDGE_LOOP ( 'NONE', ( #353, #325 ) ) ;
#65 = DIRECTION ( 'NONE',  ( 0.000000000000000000, 0.000000000000000000, 1.000000000000000000 ) ) ;
#66 = CARTESIAN_POINT ( 'NONE',  ( -3.250000000000000444, 0.000000000000000000, 165.0000000000000000 ) ) ;
#67 = PERSON_AND_ORGANIZATION_ROLE ( 'creator' ) ;
#68 = AXIS2_PLACEMENT_3D ( 'NONE', #13, #289, #109 ) ;
#69 = ORIENTED_EDGE ( 'NONE', *, *, #330, .T. ) ;
#70 = APPROVAL_STATUS ( 'not_yet_approved' ) ;
#71 = ADVANCED_FACE ( 'NONE', ( #223 ), #311, .T. ) ;
#72 = CIRCLE ( 'NONE', #130, 3.250000000000000444 ) ;
#73 = CARTESIAN_POINT ( 'NONE',  ( 8.000000000000000000, 9.797174393178825657E-16, 0.000000000000000000 ) ) ;
#74 = CC_DESIGN_APPROVAL ( #317, ( #250 ) ) ;
#75 = ORIENTED_EDGE ( 'NONE', *, *, #344, .T. ) ;
#76 = CC_DESIGN_DATE_AND_TIME_ASSIGNMENT ( #37, #194, ( #148 ) ) ;
#77 = CARTESIAN_POINT ( 'NONE',  ( 0.000000000000000000, 0.000000000000000000, 5.500000000000005329 ) ) ;
#78 = CALENDAR_DATE ( 2022, 8, 7 ) ;
#79 = CARTESIAN_POINT ( 'NONE',  ( 5.500000000000000000, 0.000000000000000000, 5.500000000000005329 ) ) ;
#80 = AXIS2_PLACEMENT_3D ( 'NONE', #14, #254, #138 ) ;
#81 = DIRECTION ( 'NONE',  ( 0.000000000000000000, 0.000000000000000000, 1.000000000000000000 ) ) ;
#82 = CARTESIAN_POINT ( 'NONE',  ( 0.000000000000000000, 0.000000000000000000, 0.000000000000000000 ) ) ;
#83 = CC_DESIGN_PERSON_AND_ORGANIZATION_ASSIGNMENT ( #305, #216, ( #250 ) ) ;
#84 = CARTESIAN_POINT ( 'NONE',  ( -3.250000000000000444, 0.000000000000000000, 165.0000000000000000 ) ) ;
#85 = VECTOR ( 'NONE', #320, 1000.000000000000000 ) ;
#86 = LINE ( 'NONE', #318, #295 ) ;
#87 = ORIENTED_EDGE ( 'NONE', *, *, #116, .T. ) ;
#88 = AXIS2_PLACEMENT_3D ( 'NONE', #249, #135, #369 ) ;
#89 =( LENGTH_UNIT ( ) NAMED_UNIT ( * ) SI_UNIT ( .MILLI., .METRE. ) );
#90 = ORIENTED_EDGE ( 'NONE', *, *, #191, .T. ) ;
#91 = CYLINDRICAL_SURFACE ( 'NONE', #12, 5.000000000000000000 ) ;
#92 = EDGE_LOOP ( 'NONE', ( #2, #30 ) ) ;
#93 = EDGE_CURVE ( 'NONE', #24, #150, #339, .T. ) ;
#94 = CARTESIAN_POINT ( 'NONE',  ( 0.000000000000000000, 0.000000000000000000, 165.0000000000000000 ) ) ;
#95 = VERTEX_POINT ( 'NONE', #115 ) ;
#96 = CARTESIAN_POINT ( 'NONE',  ( 0.000000000000000000, 0.000000000000000000, 5.500000000000005329 ) ) ;
#97 = ORIENTED_EDGE ( 'NONE', *, *, #133, .T. ) ;
#98 = PERSON_AND_ORGANIZATION ( #29, #366 ) ;
#99 = ORIENTED_EDGE ( 'NONE', *, *, #41, .F. ) ;
#100 = PERSON_AND_ORGANIZATION_ROLE ( 'classification_officer' ) ;
#101 = VECTOR ( 'NONE', #376, 1000.000000000000000 ) ;
#102 = DIRECTION ( 'NONE',  ( 1.000000000000000000, 0.000000000000000000, 0.000000000000000000 ) ) ;
#103 = CIRCLE ( 'NONE', #229, 8.000000000000000000 ) ;
#104 = VERTEX_POINT ( 'NONE', #346 ) ;
#105 = CC_DESIGN_APPROVAL ( #25, ( #148 ) ) ;
#106 = DIRECTION ( 'NONE',  ( -0.000000000000000000, -0.000000000000000000, -1.000000000000000000 ) ) ;
#107 = DIRECTION ( 'NONE',  ( 0.000000000000000000, 0.000000000000000000, 1.000000000000000000 ) ) ;
#108 = PERSON_AND_ORGANIZATION_ROLE ( 'design_owner' ) ;
#109 = DIRECTION ( 'NONE',  ( 1.000000000000000000, 0.000000000000000000, 0.000000000000000000 ) ) ;
#110 = CALENDAR_DATE ( 2022, 8, 7 ) ;
#111 = CARTESIAN_POINT ( 'NONE',  ( -5.500000000000000000, 6.735557395310442023E-16, 5.000000000000002665 ) ) ;
#112 = AXIS2_PLACEMENT_3D ( 'NONE', #152, #298, #262 ) ;
#113 = CARTESIAN_POINT ( 'NONE',  ( 0.000000000000000000, 0.000000000000000000, 5.000000000000000000 ) ) ;
#114 = CC_DESIGN_DATE_AND_TIME_ASSIGNMENT ( #160, #360, ( #303 ) ) ;
#115 = CARTESIAN_POINT ( 'NONE',  ( -8.000000000000000000, 0.000000000000000000, 5.000000000000000000 ) ) ;
#116 = EDGE_CURVE ( 'NONE', #275, #150, #244, .T. ) ;
#117 = CARTESIAN_POINT ( 'NONE',  ( 0.000000000000000000, 0.000000000000000000, 165.0000000000000000 ) ) ;
#118 = EDGE_LOOP ( 'NONE', ( #329, #219 ) ) ;
#119 = AXIS2_PLACEMENT_3D ( 'NONE', #291, #300, #379 ) ;
#120 = DIRECTION ( 'NONE',  ( 0.000000000000000000, 0.000000000000000000, -1.000000000000000000 ) ) ;
#121 = ORIENTED_EDGE ( 'NONE', *, *, #260, .T. ) ;
#122 = DIRECTION ( 'NONE',  ( -0.000000000000000000, -0.000000000000000000, -1.000000000000000000 ) ) ;
#123 = ORIENTED_EDGE ( 'NONE', *, *, #191, .F. ) ;
#124 = CYLINDRICAL_SURFACE ( 'NONE', #268, 3.250000000000000444 ) ;
#125 = EDGE_LOOP ( 'NONE', ( #263, #217 ) ) ;
#126 = CYLINDRICAL_SURFACE ( 'NONE', #349, 8.000000000000000000 ) ;
#127 = VERTEX_POINT ( 'NONE', #165 ) ;
#128 = COORDINATED_UNIVERSAL_TIME_OFFSET ( 1, 0, .AHEAD. ) ;
#129 = CARTESIAN_POINT ( 'NONE',  ( 0.000000000000000000, 0.000000000000000000, 0.000000000000000000 ) ) ;
#130 = AXIS2_PLACEMENT_3D ( 'NONE', #372, #81, #198 ) ;
#131 = MECHANICAL_CONTEXT ( 'NONE', #377, 'mechanical' ) ;
#132 = ORIENTED_EDGE ( 'NONE', *, *, #116, .F. ) ;
#133 = EDGE_CURVE ( 'NONE', #306, #161, #319, .T. ) ;
#134 = CARTESIAN_POINT ( 'NONE',  ( 3.250000000000000444, 3.980102097228898231E-16, 165.0000000000000000 ) ) ;
#135 = DIRECTION ( 'NONE',  ( 0.000000000000000000, 0.000000000000000000, 1.000000000000000000 ) ) ;
#136 = CIRCLE ( 'NONE', #178, 5.000000000000000000 ) ;
#137 = AXIS2_PLACEMENT_3D ( 'NONE', #140, #65, #102 ) ;
#138 = DIRECTION ( 'NONE',  ( 1.000000000000000000, 0.000000000000000000, 0.000000000000000000 ) ) ;
#139 = ADVANCED_FACE ( 'NONE', ( #343 ), #48, .F. ) ;
#140 = CARTESIAN_POINT ( 'NONE',  ( 0.000000000000000000, 0.000000000000000000, 0.000000000000000000 ) ) ;
#141 = APPROVAL_ROLE ( '' ) ;
#142 = DIRECTION ( 'NONE',  ( -1.000000000000000000, 1.224646799147351482E-16, 0.000000000000000000 ) ) ;
#143 = DIRECTION ( 'NONE',  ( 1.000000000000000000, 0.000000000000000000, -0.000000000000000000 ) ) ;
#144 = AXIS2_PLACEMENT_3D ( 'NONE', #94, #157, #54 ) ;
#145 = DIRECTION ( 'NONE',  ( -1.000000000000000000, 0.000000000000000000, 0.000000000000000000 ) ) ;
#146 = AXIS2_PLACEMENT_3D ( 'NONE', #82, #312, #259 ) ;
#147 = FACE_OUTER_BOUND ( 'NONE', #236, .T. ) ;
#148 = PRODUCT_DEFINITION ( 'NEZNÁMÝ', '', #250, #347 ) ;
#149 = CARTESIAN_POINT ( 'NONE',  ( 8.000000000000000000, 9.797174393178825657E-16, 5.000000000000000000 ) ) ;
#150 = VERTEX_POINT ( 'NONE', #193 ) ;
#151 = EDGE_CURVE ( 'NONE', #174, #7, #103, .T. ) ;
#152 = CARTESIAN_POINT ( 'NONE',  ( 0.000000000000000000, 0.000000000000000000, 165.0000000000000000 ) ) ;
#153 = ORIENTED_EDGE ( 'NONE', *, *, #175, .T. ) ;
#154 = APPLICATION_CONTEXT ( 'configuration controlled 3d designs of mechanical parts and assemblies' ) ;
#155 = EDGE_LOOP ( 'NONE', ( #121, #293, #354, #264 ) ) ;
#156 = EDGE_CURVE ( 'NONE', #104, #161, #49, .T. ) ;
#157 = DIRECTION ( 'NONE',  ( 0.000000000000000000, 0.000000000000000000, -1.000000000000000000 ) ) ;
#158 = ORIENTED_EDGE ( 'NONE', *, *, #333, .F. ) ;
#159 = VECTOR ( 'NONE', #28, 1000.000000000000000 ) ;
#160 = DATE_AND_TIME ( #110, #166 ) ;
#161 = VERTEX_POINT ( 'NONE', #230 ) ;
#162 = ADVANCED_FACE ( 'NONE', ( #225, #277 ), #370, .T. ) ;
#163 = APPLICATION_PROTOCOL_DEFINITION ( 'international standard', 'config_control_design', 1994, #377 ) ;
#164 = APPROVAL_DATE_TIME ( #274, #25 ) ;
#165 = CARTESIAN_POINT ( 'NONE',  ( -5.000000000000000000, 0.000000000000000000, 165.0000000000000000 ) ) ;
#166 = LOCAL_TIME ( 16, 46, 51.00000000000000000, #187 ) ;
#167 = DIRECTION ( 'NONE',  ( -0.000000000000000000, -0.000000000000000000, -1.000000000000000000 ) ) ;
#168 = CALENDAR_DATE ( 2022, 8, 7 ) ;
#169 = DIRECTION ( 'NONE',  ( -0.000000000000000000, -0.000000000000000000, -1.000000000000000000 ) ) ;
#170 = CARTESIAN_POINT ( 'NONE',  ( 0.000000000000000000, 0.000000000000000000, 5.000000000000000000 ) ) ;
#171 = LINE ( 'NONE', #84, #363 ) ;
#172 = PLANE ( 'NONE',  #324 ) ;
#173 = LINE ( 'NONE', #323, #85 ) ;
#174 = VERTEX_POINT ( 'NONE', #345 ) ;
#175 = EDGE_CURVE ( 'NONE', #55, #275, #171, .T. ) ;
#176 = CARTESIAN_POINT ( 'NONE',  ( 0.000000000000000000, 0.000000000000000000, 165.0000000000000000 ) ) ;
#177 = ORIENTED_EDGE ( 'NONE', *, *, #297, .T. ) ;
#178 = AXIS2_PLACEMENT_3D ( 'NONE', #96, #60, #212 ) ;
#179 = CARTESIAN_POINT ( 'NONE',  ( -5.000000000000000000, 0.000000000000000000, 5.500000000000005329 ) ) ;
#180 = AXIS2_PLACEMENT_3D ( 'NONE', #77, #107, #228 ) ;
#181 = CC_DESIGN_PERSON_AND_ORGANIZATION_ASSIGNMENT ( #98, #100, ( #303 ) ) ;
#182 = CARTESIAN_POINT ( 'NONE',  ( -3.250000000000000444, 0.000000000000000000, 0.000000000000000000 ) ) ;
#183 = ORIENTED_EDGE ( 'NONE', *, *, #133, .F. ) ;
#184 = PERSON_AND_ORGANIZATION ( #29, #366 ) ;
#185 = ORIENTED_EDGE ( 'NONE', *, *, #352, .F. ) ;
#186 = CIRCLE ( 'NONE', #195, 0.5000000000000004441 ) ;
#187 = COORDINATED_UNIVERSAL_TIME_OFFSET ( 1, 0, .AHEAD. ) ;
#188 = EDGE_LOOP ( 'NONE', ( #35, #75, #234, #359 ) ) ;
#189 = AXIS2_PLACEMENT_3D ( 'NONE', #113, #200, #143 ) ;
#190 = AXIS2_PLACEMENT_3D ( 'NONE', #265, #20, #261 ) ;
#191 = EDGE_CURVE ( 'NONE', #306, #213, #186, .T. ) ;
#192 = CARTESIAN_POINT ( 'NONE',  ( 0.000000000000000000, 0.000000000000000000, 165.0000000000000000 ) ) ;
#193 = CARTESIAN_POINT ( 'NONE',  ( 3.250000000000000444, 3.980102097228898231E-16, 0.000000000000000000 ) ) ;
#194 = DATE_TIME_ROLE ( 'creation_date' ) ;
#195 = AXIS2_PLACEMENT_3D ( 'NONE', #310, #316, #142 ) ;
#196 = CARTESIAN_POINT ( 'NONE',  ( 8.000000000000000000, 9.797174393178825657E-16, 5.000000000000000000 ) ) ;
#197 = ADVANCED_FACE ( 'NONE', ( #46 ), #374, .T. ) ;
#198 = DIRECTION ( 'NONE',  ( 1.000000000000000000, 0.000000000000000000, 0.000000000000000000 ) ) ;
#199 = DIRECTION ( 'NONE',  ( 0.000000000000000000, 0.000000000000000000, -1.000000000000000000 ) ) ;
#200 = DIRECTION ( 'NONE',  ( 0.000000000000000000, 0.000000000000000000, 1.000000000000000000 ) ) ;
#201 = AXIS2_PLACEMENT_3D ( 'NONE', #79, #314, #280 ) ;
#202 = CIRCLE ( 'NONE', #190, 5.500000000000000000 ) ;
#203 = EDGE_CURVE ( 'NONE', #161, #62, #39, .T. ) ;
#204 = DIRECTION ( 'NONE',  ( 1.000000000000000000, 0.000000000000000000, 0.000000000000000000 ) ) ;
#205 = PRODUCT ( 'e99a', 'e99a', '', ( #131 ) ) ;
#206 = CARTESIAN_POINT ( 'NONE',  ( 0.000000000000000000, 0.000000000000000000, 0.000000000000000000 ) ) ;
#207 = FACE_OUTER_BOUND ( 'NONE', #188, .T. ) ;
#208 = EDGE_LOOP ( 'NONE', ( #267, #211 ) ) ;
#209 = APPROVAL_PERSON_ORGANIZATION ( #32, #317, #141 ) ;
#210 = DIRECTION ( 'NONE',  ( 1.000000000000000000, 0.000000000000000000, 0.000000000000000000 ) ) ;
#211 = ORIENTED_EDGE ( 'NONE', *, *, #273, .T. ) ;
#212 = DIRECTION ( 'NONE',  ( 1.000000000000000000, 0.000000000000000000, 0.000000000000000000 ) ) ;
#213 = VERTEX_POINT ( 'NONE', #111 ) ;
#214 = EDGE_CURVE ( 'NONE', #95, #266, #31, .T. ) ;
#215 = CALENDAR_DATE ( 2022, 8, 7 ) ;
#216 = PERSON_AND_ORGANIZATION_ROLE ( 'creator' ) ;
#217 = ORIENTED_EDGE ( 'NONE', *, *, #53, .T. ) ;
#218 = APPROVAL_STATUS ( 'not_yet_approved' ) ;
#219 = ORIENTED_EDGE ( 'NONE', *, *, #34, .F. ) ;
#220 = VECTOR ( 'NONE', #257, 1000.000000000000000 ) ;
#221 = CC_DESIGN_PERSON_AND_ORGANIZATION_ASSIGNMENT ( #38, #108, ( #205 ) ) ;
#222 = EDGE_LOOP ( 'NONE', ( #351, #69, #153, #87 ) ) ;
#223 = FACE_OUTER_BOUND ( 'NONE', #22, .T. ) ;
#224 = PERSON_AND_ORGANIZATION ( #29, #366 ) ;
#225 = FACE_BOUND ( 'NONE', #64, .T. ) ;
#226 = AXIS2_PLACEMENT_3D ( 'NONE', #117, #26, #210 ) ;
#227 = CARTESIAN_POINT ( 'NONE',  ( 0.000000000000000000, 0.000000000000000000, 5.000000000000000000 ) ) ;
#228 = DIRECTION ( 'NONE',  ( 1.000000000000000000, 0.000000000000000000, 0.000000000000000000 ) ) ;
#229 = AXIS2_PLACEMENT_3D ( 'NONE', #284, #16, #47 ) ;
#230 = CARTESIAN_POINT ( 'NONE',  ( 5.000000000000000000, 6.123233995736766282E-16, 5.500000000000005329 ) ) ;
#231 = DIRECTION ( 'NONE',  ( -1.000000000000000000, 0.000000000000000000, 0.000000000000000000 ) ) ;
#232 = TOROIDAL_SURFACE ( 'NONE', #119, 5.500000000000000000, 0.5000000000000000000 ) ;
#233 = CC_DESIGN_SECURITY_CLASSIFICATION ( #303, ( #250 ) ) ;
#234 = ORIENTED_EDGE ( 'NONE', *, *, #34, .T. ) ;
#235 = DIRECTION ( 'NONE',  ( 0.000000000000000000, 0.000000000000000000, 1.000000000000000000 ) ) ;
#236 = EDGE_LOOP ( 'NONE', ( #4, #308, #356, #97 ) ) ;
#237 = CC_DESIGN_PERSON_AND_ORGANIZATION_ASSIGNMENT ( #246, #63, ( #250 ) ) ;
#238 =( NAMED_UNIT ( * ) PLANE_ANGLE_UNIT ( ) SI_UNIT ( $, .RADIAN. ) );
#239 = ORIENTED_EDGE ( 'NONE', *, *, #297, .F. ) ;
#240 = DIRECTION ( 'NONE',  ( -0.000000000000000000, -0.000000000000000000, -1.000000000000000000 ) ) ;
#241 = ORIENTED_EDGE ( 'NONE', *, *, #53, .F. ) ;
#242 = DIRECTION ( 'NONE',  ( -0.000000000000000000, -0.000000000000000000, -1.000000000000000000 ) ) ;
#243 = ORIENTED_EDGE ( 'NONE', *, *, #203, .T. ) ;
#244 = CIRCLE ( 'NONE', #146, 3.250000000000000444 ) ;
#245 = FACE_OUTER_BOUND ( 'NONE', #118, .T. ) ;
#246 = PERSON_AND_ORGANIZATION ( #29, #366 ) ;
#247 = AXIS2_PLACEMENT_3D ( 'NONE', #129, #336, #334 ) ;
#248 = CC_DESIGN_PERSON_AND_ORGANIZATION_ASSIGNMENT ( #224, #67, ( #148 ) ) ;
#249 = CARTESIAN_POINT ( 'NONE',  ( 0.000000000000000000, 0.000000000000000000, 0.000000000000000000 ) ) ;
#250 = PRODUCT_DEFINITION_FORMATION_WITH_SPECIFIED_SOURCE ( 'LIBOVOLNÝ', '', #205, .NOT_KNOWN. ) ;
#251 = CARTESIAN_POINT ( 'NONE',  ( 5.500000000000000000, 0.000000000000000000, 5.000000000000002665 ) ) ;
#252 = APPROVAL ( #269, 'NEURÈENÝ' ) ;
#253 = CIRCLE ( 'NONE', #88, 8.000000000000000000 ) ;
#254 = DIRECTION ( 'NONE',  ( 0.000000000000000000, 0.000000000000000000, 1.000000000000000000 ) ) ;
#255 = APPROVAL_DATE_TIME ( #282, #317 ) ;
#256 = ADVANCED_BREP_SHAPE_REPRESENTATION ( 'e99a', ( #5, #137 ), #33 ) ;
#257 = DIRECTION ( 'NONE',  ( -0.000000000000000000, -0.000000000000000000, -1.000000000000000000 ) ) ;
#258 = DIRECTION ( 'NONE',  ( 0.000000000000000000, 0.000000000000000000, 1.000000000000000000 ) ) ;
#259 = DIRECTION ( 'NONE',  ( 1.000000000000000000, 0.000000000000000000, 0.000000000000000000 ) ) ;
#260 = EDGE_CURVE ( 'NONE', #55, #24, #72, .T. ) ;
#261 = DIRECTION ( 'NONE',  ( 1.000000000000000000, 0.000000000000000000, 0.000000000000000000 ) ) ;
#262 = DIRECTION ( 'NONE',  ( 1.000000000000000000, 0.000000000000000000, 0.000000000000000000 ) ) ;
#263 = ORIENTED_EDGE ( 'NONE', *, *, #313, .T. ) ;
#264 = ORIENTED_EDGE ( 'NONE', *, *, #175, .F. ) ;
#265 = CARTESIAN_POINT ( 'NONE',  ( 0.000000000000000000, 0.000000000000000000, 5.000000000000000000 ) ) ;
#266 = VERTEX_POINT ( 'NONE', #196 ) ;
#267 = ORIENTED_EDGE ( 'NONE', *, *, #214, .T. ) ;
#268 = AXIS2_PLACEMENT_3D ( 'NONE', #176, #120, #231 ) ;
#269 = APPROVAL_STATUS ( 'not_yet_approved' ) ;
#270 = SHAPE_DEFINITION_REPRESENTATION ( #58, #256 ) ;
#271 = DATE_AND_TIME ( #215, #40 ) ;
#272 = CIRCLE ( 'NONE', #226, 3.250000000000000444 ) ;
#273 = EDGE_CURVE ( 'NONE', #266, #95, #341, .T. ) ;
#274 = DATE_AND_TIME ( #15, #279 ) ;
#275 = VERTEX_POINT ( 'NONE', #182 ) ;
#276 = ORIENTED_EDGE ( 'NONE', *, *, #281, .T. ) ;
#277 = FACE_OUTER_BOUND ( 'NONE', #208, .T. ) ;
#278 = EDGE_CURVE ( 'NONE', #150, #275, #337, .T. ) ;
#279 = LOCAL_TIME ( 16, 46, 51.00000000000000000, #335 ) ;
#280 = DIRECTION ( 'NONE',  ( 0.000000000000000000, 0.000000000000000000, -1.000000000000000000 ) ) ;
#281 = EDGE_CURVE ( 'NONE', #95, #174, #173, .T. ) ;
#282 = DATE_AND_TIME ( #168, #342 ) ;
#283 = AXIS2_PLACEMENT_3D ( 'NONE', #227, #169, #145 ) ;
#284 = CARTESIAN_POINT ( 'NONE',  ( 0.000000000000000000, 0.000000000000000000, 0.000000000000000000 ) ) ;
#285 = CARTESIAN_POINT ( 'NONE',  ( 0.000000000000000000, 0.000000000000000000, 165.0000000000000000 ) ) ;
#286 = AXIS2_PLACEMENT_3D ( 'NONE', #170, #258, #375 ) ;
#287 = ADVANCED_FACE ( 'NONE', ( #147 ), #91, .T. ) ;
#288 = APPROVAL_PERSON_ORGANIZATION ( #184, #252, #8 ) ;
#289 = DIRECTION ( 'NONE',  ( 0.000000000000000000, 0.000000000000000000, 1.000000000000000000 ) ) ;
#290 = ADVANCED_FACE ( 'NONE', ( #207 ), #126, .T. ) ;
#291 = CARTESIAN_POINT ( 'NONE',  ( 0.000000000000000000, 0.000000000000000000, 5.500000000000005329 ) ) ;
#292 = FACE_BOUND ( 'NONE', #92, .T. ) ;
#293 = ORIENTED_EDGE ( 'NONE', *, *, #93, .T. ) ;
#294 = FACE_OUTER_BOUND ( 'NONE', #222, .T. ) ;
#295 = VECTOR ( 'NONE', #122, 1000.000000000000000 ) ;
#296 = ORIENTED_EDGE ( 'NONE', *, *, #156, .T. ) ;
#297 = EDGE_CURVE ( 'NONE', #161, #306, #136, .T. ) ;
#298 = DIRECTION ( 'NONE',  ( 0.000000000000000000, 0.000000000000000000, 1.000000000000000000 ) ) ;
#299 = EDGE_LOOP ( 'NONE', ( #132, #321 ) ) ;
#300 = DIRECTION ( 'NONE',  ( 0.000000000000000000, 0.000000000000000000, 1.000000000000000000 ) ) ;
#301 = PRODUCT_RELATED_PRODUCT_CATEGORY ( 'detail', '', ( #205 ) ) ;
#302 = EDGE_LOOP ( 'NONE', ( #123, #239, #243, #158 ) ) ;
#303 = SECURITY_CLASSIFICATION ( '', '', #362 ) ;
#304 = AXIS2_PLACEMENT_3D ( 'NONE', #361, #106, #338 ) ;
#305 = PERSON_AND_ORGANIZATION ( #29, #366 ) ;
#306 = VERTEX_POINT ( 'NONE', #179 ) ;
#307 = AXIS2_PLACEMENT_3D ( 'NONE', #206, #242, #204 ) ;
#308 = ORIENTED_EDGE ( 'NONE', *, *, #313, .F. ) ;
#309 = ADVANCED_FACE ( 'NONE', ( #326 ), #232, .F. ) ;
#310 = CARTESIAN_POINT ( 'NONE',  ( -5.500000000000000000, 6.735557395310442023E-16, 5.500000000000005329 ) ) ;
#311 = CYLINDRICAL_SURFACE ( 'NONE', #283, 8.000000000000000000 ) ;
#312 = DIRECTION ( 'NONE',  ( -0.000000000000000000, -0.000000000000000000, -1.000000000000000000 ) ) ;
#313 = EDGE_CURVE ( 'NONE', #127, #104, #59, .T. ) ;
#314 = DIRECTION ( 'NONE',  ( 0.000000000000000000, -1.000000000000000000, 0.000000000000000000 ) ) ;
#315 = CC_DESIGN_APPROVAL ( #252, ( #303 ) ) ;
#316 = DIRECTION ( 'NONE',  ( 1.224646799147353207E-16, 1.000000000000000000, -0.000000000000000000 ) ) ;
#317 = APPROVAL ( #70, 'NEURÈENÝ' ) ;
#318 = CARTESIAN_POINT ( 'NONE',  ( -5.000000000000000000, 0.000000000000000000, 165.0000000000000000 ) ) ;
#319 = CIRCLE ( 'NONE', #68, 5.000000000000000000 ) ;
#320 = DIRECTION ( 'NONE',  ( -0.000000000000000000, -0.000000000000000000, -1.000000000000000000 ) ) ;
#321 = ORIENTED_EDGE ( 'NONE', *, *, #278, .F. ) ;
#322 = ADVANCED_FACE ( 'NONE', ( #292, #21 ), #172, .T. ) ;
#323 = CARTESIAN_POINT ( 'NONE',  ( -8.000000000000000000, 0.000000000000000000, 5.000000000000000000 ) ) ;
#324 = AXIS2_PLACEMENT_3D ( 'NONE', #1, #235, #61 ) ;
#325 = ORIENTED_EDGE ( 'NONE', *, *, #333, .T. ) ;
#326 = FACE_OUTER_BOUND ( 'NONE', #368, .T. ) ;
#327 = ORIENTED_EDGE ( 'NONE', *, *, #151, .T. ) ;
#328 = COORDINATED_UNIVERSAL_TIME_OFFSET ( 1, 0, .AHEAD. ) ;
#329 = ORIENTED_EDGE ( 'NONE', *, *, #151, .F. ) ;
#330 = EDGE_CURVE ( 'NONE', #24, #55, #272, .T. ) ;
#331 = DIRECTION ( 'NONE',  ( 1.000000000000000000, 0.000000000000000000, 0.000000000000000000 ) ) ;
#332 = PERSON_AND_ORGANIZATION ( #29, #366 ) ;
#333 = EDGE_CURVE ( 'NONE', #213, #62, #202, .T. ) ;
#334 = DIRECTION ( 'NONE',  ( 1.000000000000000000, 0.000000000000000000, -0.000000000000000000 ) ) ;
#335 = COORDINATED_UNIVERSAL_TIME_OFFSET ( 1, 0, .AHEAD. ) ;
#336 = DIRECTION ( 'NONE',  ( 0.000000000000000000, 0.000000000000000000, 1.000000000000000000 ) ) ;
#337 = CIRCLE ( 'NONE', #307, 3.250000000000000444 ) ;
#338 = DIRECTION ( 'NONE',  ( 1.000000000000000000, 0.000000000000000000, 0.000000000000000000 ) ) ;
#339 = LINE ( 'NONE', #17, #101 ) ;
#340 = COORDINATED_UNIVERSAL_TIME_OFFSET ( 1, 0, .AHEAD. ) ;
#341 = CIRCLE ( 'NONE', #286, 8.000000000000000000 ) ;
#342 = LOCAL_TIME ( 16, 46, 51.00000000000000000, #328 ) ;
#343 = FACE_OUTER_BOUND ( 'NONE', #302, .T. ) ;
#344 = EDGE_CURVE ( 'NONE', #266, #7, #378, .T. ) ;
#345 = CARTESIAN_POINT ( 'NONE',  ( -8.000000000000000000, 0.000000000000000000, 0.000000000000000000 ) ) ;
#346 = CARTESIAN_POINT ( 'NONE',  ( 5.000000000000000000, 6.123233995736766282E-16, 165.0000000000000000 ) ) ;
#347 = DESIGN_CONTEXT ( 'detailed design', #154, 'design' ) ;
#348 = ADVANCED_FACE ( 'NONE', ( #350 ), #124, .F. ) ;
#349 = AXIS2_PLACEMENT_3D ( 'NONE', #52, #240, #3 ) ;
#350 = FACE_OUTER_BOUND ( 'NONE', #155, .T. ) ;
#351 = ORIENTED_EDGE ( 'NONE', *, *, #93, .F. ) ;
#352 = EDGE_CURVE ( 'NONE', #127, #306, #86, .T. ) ;
#353 = ORIENTED_EDGE ( 'NONE', *, *, #41, .T. ) ;
#354 = ORIENTED_EDGE ( 'NONE', *, *, #278, .T. ) ;
#355 = CYLINDRICAL_SURFACE ( 'NONE', #144, 3.250000000000000444 ) ;
#356 = ORIENTED_EDGE ( 'NONE', *, *, #352, .T. ) ;
#357 = DIRECTION ( 'NONE',  ( -0.000000000000000000, -0.000000000000000000, -1.000000000000000000 ) ) ;
#358 = AXIS2_PLACEMENT_3D ( 'NONE', #192, #45, #331 ) ;
#359 = ORIENTED_EDGE ( 'NONE', *, *, #281, .F. ) ;
#360 = DATE_TIME_ROLE ( 'classification_date' ) ;
#361 = CARTESIAN_POINT ( 'NONE',  ( 0.000000000000000000, 0.000000000000000000, 5.000000000000000000 ) ) ;
#362 = SECURITY_CLASSIFICATION_LEVEL ( 'unclassified' ) ;
#363 = VECTOR ( 'NONE', #199, 1000.000000000000000 ) ;
#364 = ORIENTED_EDGE ( 'NONE', *, *, #344, .F. ) ;
#365 = ADVANCED_FACE ( 'NONE', ( #294 ), #355, .F. ) ;
#366 = ORGANIZATION ( 'NEURÈENÝ', 'NEURÈENÝ', '' ) ;
#367 = APPLICATION_PROTOCOL_DEFINITION ( 'international standard', 'config_control_design', 1994, #154 ) ;
#368 = EDGE_LOOP ( 'NONE', ( #183, #90, #99, #57 ) ) ;
#369 = DIRECTION ( 'NONE',  ( 1.000000000000000000, 0.000000000000000000, 0.000000000000000000 ) ) ;
#370 = PLANE ( 'NONE',  #189 ) ;
#371 = CLOSED_SHELL ( 'NONE', ( #348, #309, #197, #290, #71, #162, #10, #287, #322, #139, #365 ) ) ;
#372 = CARTESIAN_POINT ( 'NONE',  ( 0.000000000000000000, 0.000000000000000000, 165.0000000000000000 ) ) ;
#373 =( NAMED_UNIT ( * ) SI_UNIT ( $, .STERADIAN. ) SOLID_ANGLE_UNIT ( ) );
#374 = CYLINDRICAL_SURFACE ( 'NONE', #23, 5.000000000000000000 ) ;
#375 = DIRECTION ( 'NONE',  ( 1.000000000000000000, 0.000000000000000000, 0.000000000000000000 ) ) ;
#376 = DIRECTION ( 'NONE',  ( 0.000000000000000000, 0.000000000000000000, -1.000000000000000000 ) ) ;
#377 = APPLICATION_CONTEXT ( 'configuration controlled 3d designs of mechanical parts and assemblies' ) ;
#378 = LINE ( 'NONE', #149, #159 ) ;
#379 = DIRECTION ( 'NONE',  ( 1.000000000000000000, 0.000000000000000000, 0.000000000000000000 ) ) ;
#380 = EDGE_LOOP ( 'NONE', ( #241, #296, #177, #185 ) ) ;
#381 = CIRCLE ( 'NONE', #358, 5.000000000000000000 ) ;
ENDSEC;
END-ISO-10303-21;
