ISO-10303-21;
HEADER;
FILE_DESCRIPTION (( 'STEP AP203' ),
    '1' );
FILE_NAME ('b88a.STEP',
    '2022-07-08T15:36:43',
    ( '' ),
    ( '' ),
    'SwSTEP 2.0',
    'SolidWorks 2019',
    '' );
FILE_SCHEMA (( 'CONFIG_CONTROL_DESIGN' ));
ENDSEC;

DATA;
#1 = CARTESIAN_POINT ( 'NONE',  ( 0.000000000000000000, 0.000000000000000000, 0.000000000000000000 ) ) ;
#2 = CIRCLE ( 'NONE', #69, 2.000000000000000000 ) ;
#3 = DIRECTION ( 'NONE',  ( 0.000000000000000000, 0.000000000000000000, 1.000000000000000000 ) ) ;
#4 = FACE_OUTER_BOUND ( 'NONE', #74, .T. ) ;
#5 = ORIENTED_EDGE ( 'NONE', *, *, #199, .F. ) ;
#6 = DIRECTION ( 'NONE',  ( 1.000000000000000000, 0.000000000000000000, -0.000000000000000000 ) ) ;
#7 = ORIENTED_EDGE ( 'NONE', *, *, #334, .F. ) ;
#8 = AXIS2_PLACEMENT_3D ( 'NONE', #267, #324, #63 ) ;
#9 = ADVANCED_FACE ( 'NONE', ( #59 ), #294, .F. ) ;
#10 = CYLINDRICAL_SURFACE ( 'NONE', #356, 6.000000000000000888 ) ;
#11 = PERSON_AND_ORGANIZATION_ROLE ( 'classification_officer' ) ;
#12 = DATE_AND_TIME ( #224, #263 ) ;
#13 =( GEOMETRIC_REPRESENTATION_CONTEXT ( 3 ) GLOBAL_UNCERTAINTY_ASSIGNED_CONTEXT ( ( #372 ) ) GLOBAL_UNIT_ASSIGNED_CONTEXT ( ( #73, #136, #231 ) ) REPRESENTATION_CONTEXT ( 'NONE', 'WORKASPACE' ) );
#14 = PERSON_AND_ORGANIZATION ( #158, #242 ) ;
#15 = CARTESIAN_POINT ( 'NONE',  ( 3.000000000000000444, 3.673940397442060361E-16, 105.0000000000000142 ) ) ;
#16 = EDGE_LOOP ( 'NONE', ( #352, #303, #291, #250 ) ) ;
#17 = DIRECTION ( 'NONE',  ( 1.000000000000000000, 0.000000000000000000, 0.000000000000000000 ) ) ;
#18 = VERTEX_POINT ( 'NONE', #205 ) ;
#19 = CIRCLE ( 'NONE', #118, 2.000000000000000000 ) ;
#20 = DIRECTION ( 'NONE',  ( 1.000000000000000000, 0.000000000000000000, 0.000000000000000000 ) ) ;
#21 = ORIENTED_EDGE ( 'NONE', *, *, #75, .T. ) ;
#22 = CIRCLE ( 'NONE', #175, 3.000000000000000444 ) ;
#23 = EDGE_CURVE ( 'NONE', #169, #340, #330, .T. ) ;
#24 = ORIENTED_EDGE ( 'NONE', *, *, #358, .T. ) ;
#25 = AXIS2_PLACEMENT_3D ( 'NONE', #264, #91, #355 ) ;
#26 = EDGE_CURVE ( 'NONE', #207, #278, #161, .T. ) ;
#27 = CIRCLE ( 'NONE', #170, 0.5000000000000004441 ) ;
#28 = DIRECTION ( 'NONE',  ( 0.000000000000000000, 0.000000000000000000, 1.000000000000000000 ) ) ;
#29 = PERSON_AND_ORGANIZATION_ROLE ( 'design_owner' ) ;
#30 = DIRECTION ( 'NONE',  ( 0.000000000000000000, 0.000000000000000000, 1.000000000000000000 ) ) ;
#31 = CARTESIAN_POINT ( 'NONE',  ( 0.000000000000000000, 0.000000000000000000, 105.0000000000000142 ) ) ;
#32 = CYLINDRICAL_SURFACE ( 'NONE', #275, 6.000000000000000888 ) ;
#33 = VECTOR ( 'NONE', #332, 1000.000000000000000 ) ;
#34 = EDGE_CURVE ( 'NONE', #278, #207, #78, .T. ) ;
#35 = CARTESIAN_POINT ( 'NONE',  ( 0.000000000000000000, 0.000000000000000000, 0.000000000000000000 ) ) ;
#36 = ORIENTED_EDGE ( 'NONE', *, *, #320, .F. ) ;
#37 = CARTESIAN_POINT ( 'NONE',  ( 0.000000000000000000, 0.000000000000000000, 5.000000000000000000 ) ) ;
#38 = EDGE_CURVE ( 'NONE', #247, #115, #353, .T. ) ;
#39 = DIRECTION ( 'NONE',  ( 1.000000000000000000, 0.000000000000000000, -0.000000000000000000 ) ) ;
#40 = FACE_OUTER_BOUND ( 'NONE', #48, .T. ) ;
#41 = VERTEX_POINT ( 'NONE', #351 ) ;
#42 = PERSON_AND_ORGANIZATION_ROLE ( 'creator' ) ;
#43 = DIRECTION ( 'NONE',  ( -1.000000000000000000, 0.000000000000000000, 0.000000000000000000 ) ) ;
#44 = ORIENTED_EDGE ( 'NONE', *, *, #84, .F. ) ;
#45 = CC_DESIGN_APPROVAL ( #210, ( #171 ) ) ;
#46 = PERSON_AND_ORGANIZATION_ROLE ( 'creator' ) ;
#47 = DIRECTION ( 'NONE',  ( -0.000000000000000000, -0.000000000000000000, -1.000000000000000000 ) ) ;
#48 = EDGE_LOOP ( 'NONE', ( #328, #311 ) ) ;
#49 = PERSON_AND_ORGANIZATION ( #158, #242 ) ;
#50 = ORIENTED_EDGE ( 'NONE', *, *, #277, .T. ) ;
#51 = ADVANCED_FACE ( 'NONE', ( #145 ), #260, .F. ) ;
#52 = EDGE_LOOP ( 'NONE', ( #253, #191, #155, #168 ) ) ;
#53 = AXIS2_PLACEMENT_3D ( 'NONE', #83, #104, #20 ) ;
#54 = DIRECTION ( 'NONE',  ( -0.000000000000000000, -0.000000000000000000, -1.000000000000000000 ) ) ;
#55 = CARTESIAN_POINT ( 'NONE',  ( 0.000000000000000000, 0.000000000000000000, 0.000000000000000000 ) ) ;
#56 = CC_DESIGN_PERSON_AND_ORGANIZATION_ASSIGNMENT ( #195, #11, ( #202 ) ) ;
#57 = APPROVAL_STATUS ( 'not_yet_approved' ) ;
#58 = CARTESIAN_POINT ( 'NONE',  ( 0.000000000000000000, 0.000000000000000000, 105.0000000000000142 ) ) ;
#59 = FACE_OUTER_BOUND ( 'NONE', #274, .T. ) ;
#60 = DIRECTION ( 'NONE',  ( 1.000000000000000000, 0.000000000000000000, 0.000000000000000000 ) ) ;
#61 = EDGE_CURVE ( 'NONE', #65, #18, #19, .T. ) ;
#62 = CARTESIAN_POINT ( 'NONE',  ( -3.000000000000000444, 0.000000000000000000, 5.500000000000005329 ) ) ;
#63 = DIRECTION ( 'NONE',  ( 1.000000000000000000, 0.000000000000000000, 0.000000000000000000 ) ) ;
#64 = AXIS2_PLACEMENT_3D ( 'NONE', #37, #290, #101 ) ;
#65 = VERTEX_POINT ( 'NONE', #287 ) ;
#66 = DIRECTION ( 'NONE',  ( 1.000000000000000000, 0.000000000000000000, 0.000000000000000000 ) ) ;
#67 = ORIENTED_EDGE ( 'NONE', *, *, #26, .T. ) ;
#68 = PRODUCT_RELATED_PRODUCT_CATEGORY ( 'detail', '', ( #283 ) ) ;
#69 = AXIS2_PLACEMENT_3D ( 'NONE', #1, #92, #381 ) ;
#70 = CYLINDRICAL_SURFACE ( 'NONE', #307, 3.000000000000000444 ) ;
#71 = CIRCLE ( 'NONE', #8, 2.000000000000000000 ) ;
#72 = COORDINATED_UNIVERSAL_TIME_OFFSET ( 1, 0, .AHEAD. ) ;
#73 =( LENGTH_UNIT ( ) NAMED_UNIT ( * ) SI_UNIT ( .MILLI., .METRE. ) );
#74 = EDGE_LOOP ( 'NONE', ( #149, #44, #180, #162 ) ) ;
#75 = EDGE_CURVE ( 'NONE', #86, #140, #2, .T. ) ;
#76 = DIRECTION ( 'NONE',  ( 1.000000000000000000, 0.000000000000000000, 0.000000000000000000 ) ) ;
#77 = ORIENTED_EDGE ( 'NONE', *, *, #75, .F. ) ;
#78 = CIRCLE ( 'NONE', #25, 3.000000000000000444 ) ;
#79 = FACE_OUTER_BOUND ( 'NONE', #305, .T. ) ;
#80 = ORIENTED_EDGE ( 'NONE', *, *, #34, .F. ) ;
#81 = AXIS2_PLACEMENT_3D ( 'NONE', #103, #239, #217 ) ;
#82 = DESIGN_CONTEXT ( 'detailed design', #165, 'design' ) ;
#83 = CARTESIAN_POINT ( 'NONE',  ( 0.000000000000000000, 0.000000000000000000, 5.000000000000000000 ) ) ;
#84 = EDGE_CURVE ( 'NONE', #41, #240, #323, .T. ) ;
#85 = DIRECTION ( 'NONE',  ( 1.224646799147353207E-16, 1.000000000000000000, -0.000000000000000000 ) ) ;
#86 = VERTEX_POINT ( 'NONE', #176 ) ;
#87 = PRODUCT_DEFINITION_SHAPE ( 'NONE', 'NONE',  #171 ) ;
#88 = DIRECTION ( 'NONE',  ( 1.000000000000000000, 0.000000000000000000, 0.000000000000000000 ) ) ;
#89 = AXIS2_PLACEMENT_3D ( 'NONE', #196, #85, #108 ) ;
#90 = DIRECTION ( 'NONE',  ( 0.000000000000000000, 0.000000000000000000, 1.000000000000000000 ) ) ;
#91 = DIRECTION ( 'NONE',  ( 0.000000000000000000, 0.000000000000000000, 1.000000000000000000 ) ) ;
#92 = DIRECTION ( 'NONE',  ( -0.000000000000000000, -0.000000000000000000, -1.000000000000000000 ) ) ;
#93 = DIRECTION ( 'NONE',  ( 1.000000000000000000, 0.000000000000000000, 0.000000000000000000 ) ) ;
#94 = EDGE_CURVE ( 'NONE', #269, #207, #289, .T. ) ;
#95 = CARTESIAN_POINT ( 'NONE',  ( 3.500000000000000444, 0.000000000000000000, 5.000000000000002665 ) ) ;
#96 = DIRECTION ( 'NONE',  ( -1.000000000000000000, 0.000000000000000000, 0.000000000000000000 ) ) ;
#97 = EDGE_LOOP ( 'NONE', ( #77, #198 ) ) ;
#98 = EDGE_CURVE ( 'NONE', #269, #256, #152, .T. ) ;
#99 = PRODUCT_DEFINITION_FORMATION_WITH_SPECIFIED_SOURCE ( 'LIBOVOLNÝ', '', #283, .NOT_KNOWN. ) ;
#100 = ORIENTED_EDGE ( 'NONE', *, *, #301, .T. ) ;
#101 = DIRECTION ( 'NONE',  ( 1.000000000000000000, 0.000000000000000000, 0.000000000000000000 ) ) ;
#102 = SHAPE_DEFINITION_REPRESENTATION ( #87, #218 ) ;
#103 = CARTESIAN_POINT ( 'NONE',  ( 0.000000000000000000, 0.000000000000000000, 105.0000000000000142 ) ) ;
#104 = DIRECTION ( 'NONE',  ( -0.000000000000000000, -0.000000000000000000, -1.000000000000000000 ) ) ;
#105 = ORIENTED_EDGE ( 'NONE', *, *, #120, .T. ) ;
#106 = CC_DESIGN_SECURITY_CLASSIFICATION ( #202, ( #99 ) ) ;
#107 = CC_DESIGN_DATE_AND_TIME_ASSIGNMENT ( #12, #216, ( #171 ) ) ;
#108 = DIRECTION ( 'NONE',  ( -1.000000000000000000, 1.224646799147354440E-16, 0.000000000000000000 ) ) ;
#109 = ORIENTED_EDGE ( 'NONE', *, *, #84, .T. ) ;
#110 = CARTESIAN_POINT ( 'NONE',  ( 6.000000000000000888, 7.347880794884120722E-16, 0.000000000000000000 ) ) ;
#111 = ORIENTED_EDGE ( 'NONE', *, *, #38, .T. ) ;
#112 = SECURITY_CLASSIFICATION_LEVEL ( 'unclassified' ) ;
#113 = EDGE_LOOP ( 'NONE', ( #227, #285 ) ) ;
#114 = AXIS2_PLACEMENT_3D ( 'NONE', #55, #257, #261 ) ;
#115 = VERTEX_POINT ( 'NONE', #241 ) ;
#116 = CALENDAR_DATE ( 2022, 8, 7 ) ;
#117 = DIRECTION ( 'NONE',  ( -1.000000000000000000, 0.000000000000000000, 0.000000000000000000 ) ) ;
#118 = AXIS2_PLACEMENT_3D ( 'NONE', #58, #90, #208 ) ;
#119 = AXIS2_PLACEMENT_3D ( 'NONE', #336, #299, #17 ) ;
#120 = EDGE_CURVE ( 'NONE', #240, #41, #234, .T. ) ;
#121 = DIRECTION ( 'NONE',  ( 0.000000000000000000, 0.000000000000000000, 1.000000000000000000 ) ) ;
#122 = CC_DESIGN_PERSON_AND_ORGANIZATION_ASSIGNMENT ( #49, #338, ( #99 ) ) ;
#123 = DIRECTION ( 'NONE',  ( -1.000000000000000000, 0.000000000000000000, 0.000000000000000000 ) ) ;
#124 = PLANE ( 'NONE',  #361 ) ;
#125 = CARTESIAN_POINT ( 'NONE',  ( -2.000000000000000000, 0.000000000000000000, 105.0000000000000142 ) ) ;
#126 = EDGE_LOOP ( 'NONE', ( #229, #337, #343, #67 ) ) ;
#127 = FACE_OUTER_BOUND ( 'NONE', #235, .T. ) ;
#128 = VECTOR ( 'NONE', #156, 1000.000000000000000 ) ;
#129 = ORIENTED_EDGE ( 'NONE', *, *, #301, .F. ) ;
#130 = DIRECTION ( 'NONE',  ( -0.000000000000000000, -0.000000000000000000, -1.000000000000000000 ) ) ;
#131 = APPROVAL_ROLE ( '' ) ;
#132 = CLOSED_SHELL ( 'NONE', ( #51, #9, #206, #146, #134, #377, #349, #238, #186, #365, #288 ) ) ;
#133 = CARTESIAN_POINT ( 'NONE',  ( -6.000000000000000888, 0.000000000000000000, 5.000000000000000000 ) ) ;
#134 = ADVANCED_FACE ( 'NONE', ( #4 ), #32, .T. ) ;
#135 = APPROVAL_STATUS ( 'not_yet_approved' ) ;
#136 =( NAMED_UNIT ( * ) PLANE_ANGLE_UNIT ( ) SI_UNIT ( $, .RADIAN. ) );
#137 = AXIS2_PLACEMENT_3D ( 'NONE', #339, #310, #163 ) ;
#138 = CALENDAR_DATE ( 2022, 8, 7 ) ;
#139 = LINE ( 'NONE', #133, #157 ) ;
#140 = VERTEX_POINT ( 'NONE', #211 ) ;
#141 = EDGE_CURVE ( 'NONE', #340, #169, #201, .T. ) ;
#142 = PLANE ( 'NONE',  #148 ) ;
#143 = CARTESIAN_POINT ( 'NONE',  ( 6.000000000000000888, 7.347880794884120722E-16, 5.000000000000000000 ) ) ;
#144 = ORIENTED_EDGE ( 'NONE', *, *, #26, .F. ) ;
#145 = FACE_OUTER_BOUND ( 'NONE', #16, .T. ) ;
#146 = ADVANCED_FACE ( 'NONE', ( #329 ), #10, .T. ) ;
#147 = ORIENTED_EDGE ( 'NONE', *, *, #320, .T. ) ;
#148 = AXIS2_PLACEMENT_3D ( 'NONE', #252, #255, #39 ) ;
#149 = ORIENTED_EDGE ( 'NONE', *, *, #270, .F. ) ;
#150 = DIRECTION ( 'NONE',  ( 1.000000000000000000, 0.000000000000000000, 0.000000000000000000 ) ) ;
#151 = DIRECTION ( 'NONE',  ( -0.000000000000000000, -0.000000000000000000, -1.000000000000000000 ) ) ;
#152 = CIRCLE ( 'NONE', #236, 3.000000000000000444 ) ;
#153 = LINE ( 'NONE', #363, #33 ) ;
#154 = FACE_OUTER_BOUND ( 'NONE', #113, .T. ) ;
#155 = ORIENTED_EDGE ( 'NONE', *, *, #141, .T. ) ;
#156 = DIRECTION ( 'NONE',  ( 0.000000000000000000, 0.000000000000000000, -1.000000000000000000 ) ) ;
#157 = VECTOR ( 'NONE', #47, 1000.000000000000000 ) ;
#158 = PERSON ( 'NEURÈENÝ', 'NEURÈENÝ', 'NEURÈENÝ', ('NEURÈENÝ'), ('NEURÈENÝ'), ('NEURÈENÝ') ) ;
#159 = COORDINATED_UNIVERSAL_TIME_OFFSET ( 1, 0, .AHEAD. ) ;
#160 = LINE ( 'NONE', #222, #350 ) ;
#161 = CIRCLE ( 'NONE', #183, 3.000000000000000444 ) ;
#162 = ORIENTED_EDGE ( 'NONE', *, *, #23, .T. ) ;
#163 = DIRECTION ( 'NONE',  ( 1.000000000000000000, 0.000000000000000000, -0.000000000000000000 ) ) ;
#164 = FACE_OUTER_BOUND ( 'NONE', #314, .T. ) ;
#165 = APPLICATION_CONTEXT ( 'configuration controlled 3d designs of mechanical parts and assemblies' ) ;
#166 = COORDINATED_UNIVERSAL_TIME_OFFSET ( 1, 0, .AHEAD. ) ;
#167 = DIRECTION ( 'NONE',  ( -0.000000000000000000, -0.000000000000000000, -1.000000000000000000 ) ) ;
#168 = ORIENTED_EDGE ( 'NONE', *, *, #266, .F. ) ;
#169 = VERTEX_POINT ( 'NONE', #181 ) ;
#170 = AXIS2_PLACEMENT_3D ( 'NONE', #342, #220, #194 ) ;
#171 = PRODUCT_DEFINITION ( 'NEZNÁMÝ', '', #99, #82 ) ;
#172 = CARTESIAN_POINT ( 'NONE',  ( 0.000000000000000000, 0.000000000000000000, 105.0000000000000142 ) ) ;
#173 = CARTESIAN_POINT ( 'NONE',  ( 0.000000000000000000, 0.000000000000000000, 5.000000000000000000 ) ) ;
#174 = DIRECTION ( 'NONE',  ( 1.000000000000000000, 0.000000000000000000, 0.000000000000000000 ) ) ;
#175 = AXIS2_PLACEMENT_3D ( 'NONE', #322, #364, #265 ) ;
#176 = CARTESIAN_POINT ( 'NONE',  ( -2.000000000000000000, 0.000000000000000000, 0.000000000000000000 ) ) ;
#177 = DIRECTION ( 'NONE',  ( 1.000000000000000000, 0.000000000000000000, 0.000000000000000000 ) ) ;
#178 = TOROIDAL_SURFACE ( 'NONE', #119, 3.500000000000000444, 0.5000000000000000000 ) ;
#179 = EDGE_CURVE ( 'NONE', #65, #86, #293, .T. ) ;
#180 = ORIENTED_EDGE ( 'NONE', *, *, #266, .T. ) ;
#181 = CARTESIAN_POINT ( 'NONE',  ( -6.000000000000000888, 0.000000000000000000, 0.000000000000000000 ) ) ;
#182 = AXIS2_PLACEMENT_3D ( 'NONE', #281, #316, #88 ) ;
#183 = AXIS2_PLACEMENT_3D ( 'NONE', #379, #28, #93 ) ;
#184 = CARTESIAN_POINT ( 'NONE',  ( 0.000000000000000000, 0.000000000000000000, 5.000000000000000000 ) ) ;
#185 = CC_DESIGN_PERSON_AND_ORGANIZATION_ASSIGNMENT ( #14, #42, ( #99 ) ) ;
#186 = ADVANCED_FACE ( 'NONE', ( #295, #154 ), #124, .T. ) ;
#187 = PERSON_AND_ORGANIZATION ( #158, #242 ) ;
#188 = FACE_OUTER_BOUND ( 'NONE', #126, .T. ) ;
#189 = LOCAL_TIME ( 17, 36, 43.00000000000000000, #166 ) ;
#190 = DATE_AND_TIME ( #369, #298 ) ;
#191 = ORIENTED_EDGE ( 'NONE', *, *, #270, .T. ) ;
#192 = CARTESIAN_POINT ( 'NONE',  ( 3.000000000000000444, 3.673940397442060361E-16, 5.500000000000005329 ) ) ;
#193 = DATE_AND_TIME ( #116, #272 ) ;
#194 = DIRECTION ( 'NONE',  ( 0.000000000000000000, 0.000000000000000000, -1.000000000000000000 ) ) ;
#195 = PERSON_AND_ORGANIZATION ( #158, #242 ) ;
#196 = CARTESIAN_POINT ( 'NONE',  ( -3.500000000000000444, 4.286263797015737088E-16, 5.500000000000005329 ) ) ;
#197 = ORIENTED_EDGE ( 'NONE', *, *, #179, .T. ) ;
#198 = ORIENTED_EDGE ( 'NONE', *, *, #248, .F. ) ;
#199 = EDGE_CURVE ( 'NONE', #256, #269, #22, .T. ) ;
#200 = DIRECTION ( 'NONE',  ( 0.000000000000000000, 0.000000000000000000, -1.000000000000000000 ) ) ;
#201 = CIRCLE ( 'NONE', #333, 6.000000000000000888 ) ;
#202 = SECURITY_CLASSIFICATION ( '', '', #112 ) ;
#203 = MANIFOLD_SOLID_BREP ( 'Odebrat vysunutím3', #132 ) ;
#204 = APPLICATION_PROTOCOL_DEFINITION ( 'international standard', 'config_control_design', 1994, #165 ) ;
#205 = CARTESIAN_POINT ( 'NONE',  ( 2.000000000000000000, 2.449293598294706414E-16, 105.0000000000000142 ) ) ;
#206 = ADVANCED_FACE ( 'NONE', ( #127 ), #243, .T. ) ;
#207 = VERTEX_POINT ( 'NONE', #62 ) ;
#208 = DIRECTION ( 'NONE',  ( 1.000000000000000000, 0.000000000000000000, 0.000000000000000000 ) ) ;
#209 = DIRECTION ( 'NONE',  ( 0.000000000000000000, 0.000000000000000000, 1.000000000000000000 ) ) ;
#210 = APPROVAL ( #57, 'NEURÈENÝ' ) ;
#211 = CARTESIAN_POINT ( 'NONE',  ( 2.000000000000000000, 2.449293598294706414E-16, 0.000000000000000000 ) ) ;
#212 = VECTOR ( 'NONE', #304, 1000.000000000000000 ) ;
#213 = CC_DESIGN_APPROVAL ( #354, ( #99 ) ) ;
#214 = ORIENTED_EDGE ( 'NONE', *, *, #38, .F. ) ;
#215 = CARTESIAN_POINT ( 'NONE',  ( 0.000000000000000000, 0.000000000000000000, 5.000000000000000000 ) ) ;
#216 = DATE_TIME_ROLE ( 'creation_date' ) ;
#217 = DIRECTION ( 'NONE',  ( -1.000000000000000000, 0.000000000000000000, 0.000000000000000000 ) ) ;
#218 = ADVANCED_BREP_SHAPE_REPRESENTATION ( 'b88a', ( #203, #114 ), #13 ) ;
#219 = CIRCLE ( 'NONE', #53, 3.500000000000000444 ) ;
#220 = DIRECTION ( 'NONE',  ( 0.000000000000000000, -1.000000000000000000, 0.000000000000000000 ) ) ;
#221 = FACE_BOUND ( 'NONE', #97, .T. ) ;
#222 = CARTESIAN_POINT ( 'NONE',  ( 3.000000000000000444, 3.673940397442060361E-16, 105.0000000000000142 ) ) ;
#223 = EDGE_LOOP ( 'NONE', ( #345, #129 ) ) ;
#224 = CALENDAR_DATE ( 2022, 8, 7 ) ;
#225 = DIRECTION ( 'NONE',  ( 0.000000000000000000, 0.000000000000000000, -1.000000000000000000 ) ) ;
#226 = AXIS2_PLACEMENT_3D ( 'NONE', #375, #344, #76 ) ;
#227 = ORIENTED_EDGE ( 'NONE', *, *, #98, .T. ) ;
#228 = CARTESIAN_POINT ( 'NONE',  ( -3.000000000000000444, 0.000000000000000000, 105.0000000000000142 ) ) ;
#229 = ORIENTED_EDGE ( 'NONE', *, *, #358, .F. ) ;
#230 = EDGE_CURVE ( 'NONE', #18, #140, #153, .T. ) ;
#231 =( NAMED_UNIT ( * ) SI_UNIT ( $, .STERADIAN. ) SOLID_ANGLE_UNIT ( ) );
#232 = AXIS2_PLACEMENT_3D ( 'NONE', #348, #3, #174 ) ;
#233 = EDGE_LOOP ( 'NONE', ( #280, #100, #197, #21 ) ) ;
#234 = CIRCLE ( 'NONE', #64, 6.000000000000000888 ) ;
#235 = EDGE_LOOP ( 'NONE', ( #5, #24, #360, #325 ) ) ;
#236 = AXIS2_PLACEMENT_3D ( 'NONE', #172, #357, #66 ) ;
#237 = CARTESIAN_POINT ( 'NONE',  ( 6.000000000000000888, 7.347880794884120722E-16, 5.000000000000000000 ) ) ;
#238 = ADVANCED_FACE ( 'NONE', ( #188 ), #70, .T. ) ;
#239 = DIRECTION ( 'NONE',  ( -0.000000000000000000, -0.000000000000000000, -1.000000000000000000 ) ) ;
#240 = VERTEX_POINT ( 'NONE', #237 ) ;
#241 = CARTESIAN_POINT ( 'NONE',  ( -3.500000000000000444, 4.286263797015737088E-16, 5.000000000000002665 ) ) ;
#242 = ORGANIZATION ( 'NEURÈENÝ', 'NEURÈENÝ', '' ) ;
#243 = CYLINDRICAL_SURFACE ( 'NONE', #81, 3.000000000000000444 ) ;
#244 = PERSON_AND_ORGANIZATION ( #158, #242 ) ;
#245 = ORIENTED_EDGE ( 'NONE', *, *, #277, .F. ) ;
#246 = CIRCLE ( 'NONE', #89, 0.4999999999999995559 ) ;
#247 = VERTEX_POINT ( 'NONE', #95 ) ;
#248 = EDGE_CURVE ( 'NONE', #140, #86, #71, .T. ) ;
#249 = LINE ( 'NONE', #143, #212 ) ;
#250 = ORIENTED_EDGE ( 'NONE', *, *, #179, .F. ) ;
#251 = DATE_TIME_ROLE ( 'classification_date' ) ;
#252 = CARTESIAN_POINT ( 'NONE',  ( 0.000000000000000000, 0.000000000000000000, 5.000000000000000000 ) ) ;
#253 = ORIENTED_EDGE ( 'NONE', *, *, #120, .F. ) ;
#254 = CC_DESIGN_PERSON_AND_ORGANIZATION_ASSIGNMENT ( #297, #46, ( #171 ) ) ;
#255 = DIRECTION ( 'NONE',  ( 0.000000000000000000, 0.000000000000000000, 1.000000000000000000 ) ) ;
#256 = VERTEX_POINT ( 'NONE', #15 ) ;
#257 = DIRECTION ( 'NONE',  ( 0.000000000000000000, 0.000000000000000000, 1.000000000000000000 ) ) ;
#258 = MECHANICAL_CONTEXT ( 'NONE', #282, 'mechanical' ) ;
#259 = VECTOR ( 'NONE', #54, 1000.000000000000000 ) ;
#260 = CYLINDRICAL_SURFACE ( 'NONE', #284, 2.000000000000000000 ) ;
#261 = DIRECTION ( 'NONE',  ( 1.000000000000000000, 0.000000000000000000, 0.000000000000000000 ) ) ;
#262 = CARTESIAN_POINT ( 'NONE',  ( 0.000000000000000000, 0.000000000000000000, 5.500000000000005329 ) ) ;
#263 = LOCAL_TIME ( 17, 36, 43.00000000000000000, #159 ) ;
#264 = CARTESIAN_POINT ( 'NONE',  ( 0.000000000000000000, 0.000000000000000000, 5.500000000000005329 ) ) ;
#265 = DIRECTION ( 'NONE',  ( 1.000000000000000000, 0.000000000000000000, 0.000000000000000000 ) ) ;
#266 = EDGE_CURVE ( 'NONE', #41, #169, #139, .T. ) ;
#267 = CARTESIAN_POINT ( 'NONE',  ( 0.000000000000000000, 0.000000000000000000, 0.000000000000000000 ) ) ;
#268 = CARTESIAN_POINT ( 'NONE',  ( 0.000000000000000000, 0.000000000000000000, 105.0000000000000142 ) ) ;
#269 = VERTEX_POINT ( 'NONE', #228 ) ;
#270 = EDGE_CURVE ( 'NONE', #240, #340, #249, .T. ) ;
#271 = DIRECTION ( 'NONE',  ( 0.000000000000000000, 0.000000000000000000, 1.000000000000000000 ) ) ;
#272 = LOCAL_TIME ( 17, 36, 43.00000000000000000, #376 ) ;
#273 = APPROVAL_STATUS ( 'not_yet_approved' ) ;
#274 = EDGE_LOOP ( 'NONE', ( #144, #309, #214, #245 ) ) ;
#275 = AXIS2_PLACEMENT_3D ( 'NONE', #215, #327, #96 ) ;
#276 = PLANE ( 'NONE',  #137 ) ;
#277 = EDGE_CURVE ( 'NONE', #278, #247, #27, .T. ) ;
#278 = VERTEX_POINT ( 'NONE', #192 ) ;
#279 = AXIS2_PLACEMENT_3D ( 'NONE', #302, #225, #43 ) ;
#280 = ORIENTED_EDGE ( 'NONE', *, *, #230, .F. ) ;
#281 = CARTESIAN_POINT ( 'NONE',  ( 0.000000000000000000, 0.000000000000000000, 5.000000000000000000 ) ) ;
#282 = APPLICATION_CONTEXT ( 'configuration controlled 3d designs of mechanical parts and assemblies' ) ;
#283 = PRODUCT ( 'b88a', 'b88a', '', ( #258 ) ) ;
#284 = AXIS2_PLACEMENT_3D ( 'NONE', #321, #200, #117 ) ;
#285 = ORIENTED_EDGE ( 'NONE', *, *, #199, .T. ) ;
#286 = APPROVAL_ROLE ( '' ) ;
#287 = CARTESIAN_POINT ( 'NONE',  ( -2.000000000000000000, 0.000000000000000000, 105.0000000000000142 ) ) ;
#288 = ADVANCED_FACE ( 'NONE', ( #367 ), #374, .F. ) ;
#289 = LINE ( 'NONE', #313, #259 ) ;
#290 = DIRECTION ( 'NONE',  ( 0.000000000000000000, 0.000000000000000000, 1.000000000000000000 ) ) ;
#291 = ORIENTED_EDGE ( 'NONE', *, *, #248, .T. ) ;
#292 = APPROVAL ( #273, 'NEURÈENÝ' ) ;
#293 = LINE ( 'NONE', #125, #128 ) ;
#294 = TOROIDAL_SURFACE ( 'NONE', #346, 3.500000000000000444, 0.5000000000000000000 ) ;
#295 = FACE_BOUND ( 'NONE', #223, .T. ) ;
#296 = CIRCLE ( 'NONE', #226, 2.000000000000000000 ) ;
#297 = PERSON_AND_ORGANIZATION ( #158, #242 ) ;
#298 = LOCAL_TIME ( 17, 36, 43.00000000000000000, #306 ) ;
#299 = DIRECTION ( 'NONE',  ( 0.000000000000000000, 0.000000000000000000, 1.000000000000000000 ) ) ;
#300 = APPROVAL_DATE_TIME ( #335, #354 ) ;
#301 = EDGE_CURVE ( 'NONE', #18, #65, #296, .T. ) ;
#302 = CARTESIAN_POINT ( 'NONE',  ( 0.000000000000000000, 0.000000000000000000, 105.0000000000000142 ) ) ;
#303 = ORIENTED_EDGE ( 'NONE', *, *, #230, .T. ) ;
#304 = DIRECTION ( 'NONE',  ( -0.000000000000000000, -0.000000000000000000, -1.000000000000000000 ) ) ;
#305 = EDGE_LOOP ( 'NONE', ( #7, #80, #50, #36 ) ) ;
#306 = COORDINATED_UNIVERSAL_TIME_OFFSET ( 1, 0, .AHEAD. ) ;
#307 = AXIS2_PLACEMENT_3D ( 'NONE', #31, #151, #123 ) ;
#308 = FACE_BOUND ( 'NONE', #371, .T. ) ;
#309 = ORIENTED_EDGE ( 'NONE', *, *, #334, .T. ) ;
#310 = DIRECTION ( 'NONE',  ( 0.000000000000000000, 0.000000000000000000, 1.000000000000000000 ) ) ;
#311 = ORIENTED_EDGE ( 'NONE', *, *, #141, .F. ) ;
#312 = PERSON_AND_ORGANIZATION ( #158, #242 ) ;
#313 = CARTESIAN_POINT ( 'NONE',  ( -3.000000000000000444, 0.000000000000000000, 105.0000000000000142 ) ) ;
#314 = EDGE_LOOP ( 'NONE', ( #109, #105 ) ) ;
#315 = PERSON_AND_ORGANIZATION ( #158, #242 ) ;
#316 = DIRECTION ( 'NONE',  ( -0.000000000000000000, -0.000000000000000000, -1.000000000000000000 ) ) ;
#317 = APPROVAL_PERSON_ORGANIZATION ( #244, #354, #341 ) ;
#318 = CC_DESIGN_PERSON_AND_ORGANIZATION_ASSIGNMENT ( #312, #29, ( #283 ) ) ;
#319 = CC_DESIGN_APPROVAL ( #292, ( #202 ) ) ;
#320 = EDGE_CURVE ( 'NONE', #115, #247, #219, .T. ) ;
#321 = CARTESIAN_POINT ( 'NONE',  ( 0.000000000000000000, 0.000000000000000000, 105.0000000000000142 ) ) ;
#322 = CARTESIAN_POINT ( 'NONE',  ( 0.000000000000000000, 0.000000000000000000, 105.0000000000000142 ) ) ;
#323 = CIRCLE ( 'NONE', #378, 6.000000000000000888 ) ;
#324 = DIRECTION ( 'NONE',  ( -0.000000000000000000, -0.000000000000000000, -1.000000000000000000 ) ) ;
#325 = ORIENTED_EDGE ( 'NONE', *, *, #94, .F. ) ;
#326 = LOCAL_TIME ( 17, 36, 43.00000000000000000, #72 ) ;
#327 = DIRECTION ( 'NONE',  ( -0.000000000000000000, -0.000000000000000000, -1.000000000000000000 ) ) ;
#328 = ORIENTED_EDGE ( 'NONE', *, *, #23, .F. ) ;
#329 = FACE_OUTER_BOUND ( 'NONE', #52, .T. ) ;
#330 = CIRCLE ( 'NONE', #232, 6.000000000000000888 ) ;
#331 = APPROVAL_DATE_TIME ( #193, #210 ) ;
#332 = DIRECTION ( 'NONE',  ( 0.000000000000000000, 0.000000000000000000, -1.000000000000000000 ) ) ;
#333 = AXIS2_PLACEMENT_3D ( 'NONE', #35, #209, #177 ) ;
#334 = EDGE_CURVE ( 'NONE', #207, #115, #246, .T. ) ;
#335 = DATE_AND_TIME ( #138, #326 ) ;
#336 = CARTESIAN_POINT ( 'NONE',  ( 0.000000000000000000, 0.000000000000000000, 5.500000000000005329 ) ) ;
#337 = ORIENTED_EDGE ( 'NONE', *, *, #98, .F. ) ;
#338 = PERSON_AND_ORGANIZATION_ROLE ( 'design_supplier' ) ;
#339 = CARTESIAN_POINT ( 'NONE',  ( 0.000000000000000000, 0.000000000000000000, 0.000000000000000000 ) ) ;
#340 = VERTEX_POINT ( 'NONE', #110 ) ;
#341 = APPROVAL_ROLE ( '' ) ;
#342 = CARTESIAN_POINT ( 'NONE',  ( 3.500000000000000444, 0.000000000000000000, 5.500000000000005329 ) ) ;
#343 = ORIENTED_EDGE ( 'NONE', *, *, #94, .T. ) ;
#344 = DIRECTION ( 'NONE',  ( 0.000000000000000000, 0.000000000000000000, 1.000000000000000000 ) ) ;
#345 = ORIENTED_EDGE ( 'NONE', *, *, #61, .F. ) ;
#346 = AXIS2_PLACEMENT_3D ( 'NONE', #262, #121, #60 ) ;
#347 = APPLICATION_PROTOCOL_DEFINITION ( 'international standard', 'config_control_design', 1994, #282 ) ;
#348 = CARTESIAN_POINT ( 'NONE',  ( 0.000000000000000000, 0.000000000000000000, 0.000000000000000000 ) ) ;
#349 = ADVANCED_FACE ( 'NONE', ( #221, #40 ), #276, .F. ) ;
#350 = VECTOR ( 'NONE', #167, 1000.000000000000000 ) ;
#351 = CARTESIAN_POINT ( 'NONE',  ( -6.000000000000000888, 0.000000000000000000, 5.000000000000000000 ) ) ;
#352 = ORIENTED_EDGE ( 'NONE', *, *, #61, .T. ) ;
#353 = CIRCLE ( 'NONE', #182, 3.500000000000000444 ) ;
#354 = APPROVAL ( #135, 'NEURÈENÝ' ) ;
#355 = DIRECTION ( 'NONE',  ( 1.000000000000000000, 0.000000000000000000, 0.000000000000000000 ) ) ;
#356 = AXIS2_PLACEMENT_3D ( 'NONE', #184, #130, #359 ) ;
#357 = DIRECTION ( 'NONE',  ( 0.000000000000000000, 0.000000000000000000, 1.000000000000000000 ) ) ;
#358 = EDGE_CURVE ( 'NONE', #256, #278, #160, .T. ) ;
#359 = DIRECTION ( 'NONE',  ( -1.000000000000000000, 0.000000000000000000, 0.000000000000000000 ) ) ;
#360 = ORIENTED_EDGE ( 'NONE', *, *, #34, .T. ) ;
#361 = AXIS2_PLACEMENT_3D ( 'NONE', #268, #271, #6 ) ;
#362 = APPROVAL_PERSON_ORGANIZATION ( #187, #292, #131 ) ;
#363 = CARTESIAN_POINT ( 'NONE',  ( 2.000000000000000000, 2.449293598294706414E-16, 105.0000000000000142 ) ) ;
#364 = DIRECTION ( 'NONE',  ( 0.000000000000000000, 0.000000000000000000, 1.000000000000000000 ) ) ;
#365 = ADVANCED_FACE ( 'NONE', ( #79 ), #178, .F. ) ;
#366 = CALENDAR_DATE ( 2022, 8, 7 ) ;
#367 = FACE_OUTER_BOUND ( 'NONE', #233, .T. ) ;
#368 = DATE_AND_TIME ( #366, #189 ) ;
#369 = CALENDAR_DATE ( 2022, 8, 7 ) ;
#370 = CC_DESIGN_DATE_AND_TIME_ASSIGNMENT ( #368, #251, ( #202 ) ) ;
#371 = EDGE_LOOP ( 'NONE', ( #111, #147 ) ) ;
#372 = UNCERTAINTY_MEASURE_WITH_UNIT (LENGTH_MEASURE( 1.000000000000000082E-05 ), #73, 'distance_accuracy_value', 'NONE');
#373 = APPROVAL_DATE_TIME ( #190, #292 ) ;
#374 = CYLINDRICAL_SURFACE ( 'NONE', #279, 2.000000000000000000 ) ;
#375 = CARTESIAN_POINT ( 'NONE',  ( 0.000000000000000000, 0.000000000000000000, 105.0000000000000142 ) ) ;
#376 = COORDINATED_UNIVERSAL_TIME_OFFSET ( 1, 0, .AHEAD. ) ;
#377 = ADVANCED_FACE ( 'NONE', ( #308, #164 ), #142, .T. ) ;
#378 = AXIS2_PLACEMENT_3D ( 'NONE', #173, #30, #150 ) ;
#379 = CARTESIAN_POINT ( 'NONE',  ( 0.000000000000000000, 0.000000000000000000, 5.500000000000005329 ) ) ;
#380 = APPROVAL_PERSON_ORGANIZATION ( #315, #210, #286 ) ;
#381 = DIRECTION ( 'NONE',  ( 1.000000000000000000, 0.000000000000000000, 0.000000000000000000 ) ) ;
ENDSEC;
END-ISO-10303-21;
