ISO-10303-21;
HEADER;
FILE_DESCRIPTION (( 'STEP AP203' ),
    '1' );
FILE_NAME ('964b.STEP',
    '2022-07-08T14:29:58',
    ( '' ),
    ( '' ),
    'SwSTEP 2.0',
    'SolidWorks 2019',
    '' );
FILE_SCHEMA (( 'CONFIG_CONTROL_DESIGN' ));
ENDSEC;

DATA;
#1 = DIRECTION ( 'NONE',  ( 1.000000000000000000, 0.000000000000000000, 0.000000000000000000 ) ) ;
#2 = PERSON_AND_ORGANIZATION_ROLE ( 'classification_officer' ) ;
#3 = DIRECTION ( 'NONE',  ( 0.000000000000000000, 0.000000000000000000, 1.000000000000000000 ) ) ;
#4 = TOROIDAL_SURFACE ( 'NONE', #49, 6.700000000000001066, 0.6999999999999999556 ) ;
#5 = AXIS2_PLACEMENT_3D ( 'NONE', #36, #122, #71 ) ;
#6 = PERSON_AND_ORGANIZATION ( #92, #288 ) ;
#7 = EDGE_CURVE ( 'NONE', #305, #362, #223, .T. ) ;
#8 = CARTESIAN_POINT ( 'NONE',  ( 0.000000000000000000, 0.000000000000000000, 7.699999999999985079 ) ) ;
#9 = DIRECTION ( 'NONE',  ( -0.000000000000000000, -0.000000000000000000, -1.000000000000000000 ) ) ;
#10 = CARTESIAN_POINT ( 'NONE',  ( 0.000000000000000000, 0.000000000000000000, 0.000000000000000000 ) ) ;
#11 = ADVANCED_FACE ( 'NONE', ( #264 ), #80, .F. ) ;
#12 = APPROVAL_PERSON_ORGANIZATION ( #45, #370, #197 ) ;
#13 = DIRECTION ( 'NONE',  ( 0.000000000000000000, 0.000000000000000000, 1.000000000000000000 ) ) ;
#14 = COORDINATED_UNIVERSAL_TIME_OFFSET ( 1, 0, .AHEAD. ) ;
#15 = ORIENTED_EDGE ( 'NONE', *, *, #278, .F. ) ;
#16 = EDGE_LOOP ( 'NONE', ( #103, #283 ) ) ;
#17 = ORIENTED_EDGE ( 'NONE', *, *, #209, .F. ) ;
#18 = APPROVAL_DATE_TIME ( #284, #370 ) ;
#19 = EDGE_CURVE ( 'NONE', #248, #336, #302, .T. ) ;
#20 = CARTESIAN_POINT ( 'NONE',  ( 6.700000000000001066, 0.000000000000000000, 7.699999999999985079 ) ) ;
#21 = VERTEX_POINT ( 'NONE', #236 ) ;
#22 = CARTESIAN_POINT ( 'NONE',  ( 0.000000000000000000, 0.000000000000000000, 7.000000000000000000 ) ) ;
#23 = PERSON_AND_ORGANIZATION ( #92, #288 ) ;
#24 = DIRECTION ( 'NONE',  ( 1.000000000000000000, 0.000000000000000000, 0.000000000000000000 ) ) ;
#25 = TOROIDAL_SURFACE ( 'NONE', #58, 6.700000000000001066, 0.6999999999999999556 ) ;
#26 = CIRCLE ( 'NONE', #174, 6.700000000000001066 ) ;
#27 = DIRECTION ( 'NONE',  ( 0.000000000000000000, 0.000000000000000000, 1.000000000000000000 ) ) ;
#28 = EDGE_LOOP ( 'NONE', ( #15, #146, #104, #279 ) ) ;
#29 = LINE ( 'NONE', #323, #166 ) ;
#30 = EDGE_LOOP ( 'NONE', ( #76, #334, #221, #105 ) ) ;
#31 = ADVANCED_FACE ( 'NONE', ( #349, #60 ), #56, .T. ) ;
#32 = PERSON_AND_ORGANIZATION_ROLE ( 'design_supplier' ) ;
#33 = DIRECTION ( 'NONE',  ( -0.000000000000000000, -0.000000000000000000, -1.000000000000000000 ) ) ;
#34 = AXIS2_PLACEMENT_3D ( 'NONE', #329, #13, #213 ) ;
#35 = LOCAL_TIME ( 16, 29, 58.00000000000000000, #14 ) ;
#36 = CARTESIAN_POINT ( 'NONE',  ( 0.000000000000000000, 0.000000000000000000, 457.0000000000000000 ) ) ;
#37 = FACE_OUTER_BOUND ( 'NONE', #333, .T. ) ;
#38 = DIRECTION ( 'NONE',  ( 1.000000000000000000, 0.000000000000000000, 0.000000000000000000 ) ) ;
#39 =( GEOMETRIC_REPRESENTATION_CONTEXT ( 3 ) GLOBAL_UNCERTAINTY_ASSIGNED_CONTEXT ( ( #249 ) ) GLOBAL_UNIT_ASSIGNED_CONTEXT ( ( #339, #168, #170 ) ) REPRESENTATION_CONTEXT ( 'NONE', 'WORKASPACE' ) );
#40 = CARTESIAN_POINT ( 'NONE',  ( 4.250000000000000000, 5.204748896376250699E-16, 0.000000000000000000 ) ) ;
#41 = ORIENTED_EDGE ( 'NONE', *, *, #272, .F. ) ;
#42 = ORIENTED_EDGE ( 'NONE', *, *, #226, .T. ) ;
#43 = VECTOR ( 'NONE', #9, 1000.000000000000000 ) ;
#44 = ORIENTED_EDGE ( 'NONE', *, *, #155, .T. ) ;
#45 = PERSON_AND_ORGANIZATION ( #92, #288 ) ;
#46 = ORIENTED_EDGE ( 'NONE', *, *, #52, .T. ) ;
#47 = PERSON_AND_ORGANIZATION_ROLE ( 'design_owner' ) ;
#48 = EDGE_LOOP ( 'NONE', ( #57, #267 ) ) ;
#49 = AXIS2_PLACEMENT_3D ( 'NONE', #8, #296, #244 ) ;
#50 = AXIS2_PLACEMENT_3D ( 'NONE', #341, #73, #81 ) ;
#51 = DIRECTION ( 'NONE',  ( 1.000000000000000000, 0.000000000000000000, -0.000000000000000000 ) ) ;
#52 = EDGE_CURVE ( 'NONE', #336, #248, #356, .T. ) ;
#53 = DIRECTION ( 'NONE',  ( 0.000000000000000000, 0.000000000000000000, 1.000000000000000000 ) ) ;
#54 = CARTESIAN_POINT ( 'NONE',  ( 10.00000000000000000, 1.224646799147353256E-15, 7.000000000000000000 ) ) ;
#55 = DATE_TIME_ROLE ( 'classification_date' ) ;
#56 = PLANE ( 'NONE',  #321 ) ;
#57 = ORIENTED_EDGE ( 'NONE', *, *, #363, .T. ) ;
#58 = AXIS2_PLACEMENT_3D ( 'NONE', #320, #27, #290 ) ;
#59 = CC_DESIGN_SECURITY_CLASSIFICATION ( #225, ( #212 ) ) ;
#60 = FACE_OUTER_BOUND ( 'NONE', #222, .T. ) ;
#61 = LINE ( 'NONE', #295, #261 ) ;
#62 = ADVANCED_FACE ( 'NONE', ( #117 ), #171, .T. ) ;
#63 = CYLINDRICAL_SURFACE ( 'NONE', #133, 10.00000000000000000 ) ;
#64 = COORDINATED_UNIVERSAL_TIME_OFFSET ( 1, 0, .AHEAD. ) ;
#65 = DIRECTION ( 'NONE',  ( 0.000000000000000000, 0.000000000000000000, 1.000000000000000000 ) ) ;
#66 = MANIFOLD_SOLID_BREP ( 'Odebrat vysunutím3', #132 ) ;
#67 = ADVANCED_FACE ( 'NONE', ( #204 ), #25, .F. ) ;
#68 = APPLICATION_CONTEXT ( 'configuration controlled 3d designs of mechanical parts and assemblies' ) ;
#69 = CARTESIAN_POINT ( 'NONE',  ( 0.000000000000000000, 0.000000000000000000, 7.699999999999985079 ) ) ;
#70 = DIRECTION ( 'NONE',  ( 0.000000000000000000, 0.000000000000000000, 1.000000000000000000 ) ) ;
#71 = DIRECTION ( 'NONE',  ( -1.000000000000000000, 0.000000000000000000, 0.000000000000000000 ) ) ;
#72 = AXIS2_PLACEMENT_3D ( 'NONE', #10, #90, #38 ) ;
#73 = DIRECTION ( 'NONE',  ( 0.000000000000000000, 0.000000000000000000, 1.000000000000000000 ) ) ;
#74 = ORIENTED_EDGE ( 'NONE', *, *, #77, .T. ) ;
#75 = ORIENTED_EDGE ( 'NONE', *, *, #155, .F. ) ;
#76 = ORIENTED_EDGE ( 'NONE', *, *, #325, .F. ) ;
#77 = EDGE_CURVE ( 'NONE', #336, #305, #175, .T. ) ;
#78 = EDGE_LOOP ( 'NONE', ( #310, #262, #306, #227 ) ) ;
#79 = CALENDAR_DATE ( 2022, 8, 7 ) ;
#80 = CYLINDRICAL_SURFACE ( 'NONE', #106, 4.250000000000000000 ) ;
#81 = DIRECTION ( 'NONE',  ( 1.000000000000000000, 0.000000000000000000, 0.000000000000000000 ) ) ;
#82 = AXIS2_PLACEMENT_3D ( 'NONE', #348, #85, #381 ) ;
#83 = CARTESIAN_POINT ( 'NONE',  ( 0.000000000000000000, 0.000000000000000000, 457.0000000000000000 ) ) ;
#84 = DATE_AND_TIME ( #79, #167 ) ;
#85 = DIRECTION ( 'NONE',  ( -0.000000000000000000, -0.000000000000000000, -1.000000000000000000 ) ) ;
#86 = ORIENTED_EDGE ( 'NONE', *, *, #342, .F. ) ;
#87 = ORIENTED_EDGE ( 'NONE', *, *, #188, .F. ) ;
#88 = EDGE_CURVE ( 'NONE', #232, #340, #126, .T. ) ;
#89 = DIRECTION ( 'NONE',  ( 0.000000000000000000, 0.000000000000000000, 1.000000000000000000 ) ) ;
#90 = DIRECTION ( 'NONE',  ( 0.000000000000000000, 0.000000000000000000, 1.000000000000000000 ) ) ;
#91 = APPROVAL_STATUS ( 'not_yet_approved' ) ;
#92 = PERSON ( 'NEURÈENÝ', 'NEURÈENÝ', 'NEURÈENÝ', ('NEURÈENÝ'), ('NEURÈENÝ'), ('NEURÈENÝ') ) ;
#93 = DIRECTION ( 'NONE',  ( 1.000000000000000000, 0.000000000000000000, 0.000000000000000000 ) ) ;
#94 = EDGE_CURVE ( 'NONE', #162, #340, #118, .T. ) ;
#95 = PERSON_AND_ORGANIZATION ( #92, #288 ) ;
#96 = PLANE ( 'NONE',  #158 ) ;
#97 = CC_DESIGN_APPROVAL ( #281, ( #134 ) ) ;
#98 = CARTESIAN_POINT ( 'NONE',  ( 4.250000000000000000, 5.204748896376250699E-16, 457.0000000000000000 ) ) ;
#99 = FACE_BOUND ( 'NONE', #115, .T. ) ;
#100 = COORDINATED_UNIVERSAL_TIME_OFFSET ( 1, 0, .AHEAD. ) ;
#101 = ORIENTED_EDGE ( 'NONE', *, *, #88, .T. ) ;
#102 = AXIS2_PLACEMENT_3D ( 'NONE', #69, #70, #215 ) ;
#103 = ORIENTED_EDGE ( 'NONE', *, *, #52, .F. ) ;
#104 = ORIENTED_EDGE ( 'NONE', *, *, #319, .T. ) ;
#105 = ORIENTED_EDGE ( 'NONE', *, *, #359, .F. ) ;
#106 = AXIS2_PLACEMENT_3D ( 'NONE', #207, #378, #229 ) ;
#107 = AXIS2_PLACEMENT_3D ( 'NONE', #20, #163, #316 ) ;
#108 = DIRECTION ( 'NONE',  ( 1.000000000000000000, 0.000000000000000000, 0.000000000000000000 ) ) ;
#109 = ORIENTED_EDGE ( 'NONE', *, *, #19, .T. ) ;
#110 = APPLICATION_PROTOCOL_DEFINITION ( 'international standard', 'config_control_design', 1994, #282 ) ;
#111 = CARTESIAN_POINT ( 'NONE',  ( -4.250000000000000000, 0.000000000000000000, 457.0000000000000000 ) ) ;
#112 = CARTESIAN_POINT ( 'NONE',  ( 0.000000000000000000, 0.000000000000000000, 0.000000000000000000 ) ) ;
#113 = EDGE_CURVE ( 'NONE', #248, #362, #29, .T. ) ;
#114 = DIRECTION ( 'NONE',  ( 0.000000000000000000, 0.000000000000000000, -1.000000000000000000 ) ) ;
#115 = EDGE_LOOP ( 'NONE', ( #309, #285 ) ) ;
#116 = APPLICATION_PROTOCOL_DEFINITION ( 'international standard', 'config_control_design', 1994, #68 ) ;
#117 = FACE_OUTER_BOUND ( 'NONE', #164, .T. ) ;
#118 = LINE ( 'NONE', #314, #313 ) ;
#119 = EDGE_LOOP ( 'NONE', ( #17, #176, #135, #86 ) ) ;
#120 = DIRECTION ( 'NONE',  ( 0.000000000000000000, 0.000000000000000000, 1.000000000000000000 ) ) ;
#121 = AXIS2_PLACEMENT_3D ( 'NONE', #324, #182, #351 ) ;
#122 = DIRECTION ( 'NONE',  ( -0.000000000000000000, -0.000000000000000000, -1.000000000000000000 ) ) ;
#123 = ADVANCED_FACE ( 'NONE', ( #147, #266 ), #345, .T. ) ;
#124 = DIRECTION ( 'NONE',  ( -1.000000000000000000, 0.000000000000000000, 0.000000000000000000 ) ) ;
#125 = DIRECTION ( 'NONE',  ( 1.000000000000000000, 0.000000000000000000, 0.000000000000000000 ) ) ;
#126 = CIRCLE ( 'NONE', #138, 10.00000000000000000 ) ;
#127 = FACE_OUTER_BOUND ( 'NONE', #28, .T. ) ;
#128 = CARTESIAN_POINT ( 'NONE',  ( 6.000000000000000888, 7.347880794884120722E-16, 457.0000000000000000 ) ) ;
#129 = CALENDAR_DATE ( 2022, 8, 7 ) ;
#130 = PRODUCT ( '964b', '964b', '', ( #256 ) ) ;
#131 = ORIENTED_EDGE ( 'NONE', *, *, #94, .F. ) ;
#132 = CLOSED_SHELL ( 'NONE', ( #214, #220, #257, #62, #239, #31, #231, #315, #123, #67, #11 ) ) ;
#133 = AXIS2_PLACEMENT_3D ( 'NONE', #299, #216, #269 ) ;
#134 = PRODUCT_DEFINITION ( 'NEZNÁMÝ', '', #212, #372 ) ;
#135 = ORIENTED_EDGE ( 'NONE', *, *, #226, .F. ) ;
#136 = ORIENTED_EDGE ( 'NONE', *, *, #88, .F. ) ;
#137 = DIRECTION ( 'NONE',  ( -0.000000000000000000, -0.000000000000000000, -1.000000000000000000 ) ) ;
#138 = AXIS2_PLACEMENT_3D ( 'NONE', #145, #141, #24 ) ;
#139 = EDGE_CURVE ( 'NONE', #365, #291, #199, .T. ) ;
#140 = CARTESIAN_POINT ( 'NONE',  ( 0.000000000000000000, 0.000000000000000000, 0.000000000000000000 ) ) ;
#141 = DIRECTION ( 'NONE',  ( 0.000000000000000000, 0.000000000000000000, 1.000000000000000000 ) ) ;
#142 = CARTESIAN_POINT ( 'NONE',  ( -10.00000000000000000, 0.000000000000000000, 7.000000000000000000 ) ) ;
#143 = AXIS2_PLACEMENT_3D ( 'NONE', #230, #198, #235 ) ;
#144 = LOCAL_TIME ( 16, 29, 58.00000000000000000, #64 ) ;
#145 = CARTESIAN_POINT ( 'NONE',  ( 0.000000000000000000, 0.000000000000000000, 0.000000000000000000 ) ) ;
#146 = ORIENTED_EDGE ( 'NONE', *, *, #363, .F. ) ;
#147 = FACE_BOUND ( 'NONE', #16, .T. ) ;
#148 = CARTESIAN_POINT ( 'NONE',  ( 6.000000000000000888, 7.347880794884120722E-16, 7.699999999999985079 ) ) ;
#149 = CALENDAR_DATE ( 2022, 8, 7 ) ;
#150 = CYLINDRICAL_SURFACE ( 'NONE', #121, 4.250000000000000000 ) ;
#151 = CARTESIAN_POINT ( 'NONE',  ( -4.250000000000000000, 0.000000000000000000, 0.000000000000000000 ) ) ;
#152 = FACE_OUTER_BOUND ( 'NONE', #119, .T. ) ;
#153 = DIRECTION ( 'NONE',  ( 1.224646799147353207E-16, 1.000000000000000000, -0.000000000000000000 ) ) ;
#154 = AXIS2_PLACEMENT_3D ( 'NONE', #331, #153, #276 ) ;
#155 = EDGE_CURVE ( 'NONE', #187, #232, #61, .T. ) ;
#156 = PERSON_AND_ORGANIZATION ( #92, #288 ) ;
#157 = ORIENTED_EDGE ( 'NONE', *, *, #94, .T. ) ;
#158 = AXIS2_PLACEMENT_3D ( 'NONE', #301, #3, #300 ) ;
#159 = CIRCLE ( 'NONE', #72, 10.00000000000000000 ) ;
#160 = VERTEX_POINT ( 'NONE', #373 ) ;
#161 = CALENDAR_DATE ( 2022, 8, 7 ) ;
#162 = VERTEX_POINT ( 'NONE', #54 ) ;
#163 = DIRECTION ( 'NONE',  ( 0.000000000000000000, -1.000000000000000000, 0.000000000000000000 ) ) ;
#164 = EDGE_LOOP ( 'NONE', ( #219, #157, #193, #75 ) ) ;
#165 = PRODUCT_RELATED_PRODUCT_CATEGORY ( 'detail', '', ( #130 ) ) ;
#166 = VECTOR ( 'NONE', #114, 1000.000000000000000 ) ;
#167 = LOCAL_TIME ( 16, 29, 58.00000000000000000, #228 ) ;
#168 =( NAMED_UNIT ( * ) PLANE_ANGLE_UNIT ( ) SI_UNIT ( $, .RADIAN. ) );
#169 = EDGE_LOOP ( 'NONE', ( #46, #338, #294, #195 ) ) ;
#170 =( NAMED_UNIT ( * ) SI_UNIT ( $, .STERADIAN. ) SOLID_ANGLE_UNIT ( ) );
#171 = CYLINDRICAL_SURFACE ( 'NONE', #82, 10.00000000000000000 ) ;
#172 = DIRECTION ( 'NONE',  ( -0.000000000000000000, -0.000000000000000000, -1.000000000000000000 ) ) ;
#173 = PERSON_AND_ORGANIZATION ( #92, #288 ) ;
#174 = AXIS2_PLACEMENT_3D ( 'NONE', #289, #137, #332 ) ;
#175 = LINE ( 'NONE', #111, #251 ) ;
#176 = ORIENTED_EDGE ( 'NONE', *, *, #325, .T. ) ;
#177 = CARTESIAN_POINT ( 'NONE',  ( 0.000000000000000000, 0.000000000000000000, 457.0000000000000000 ) ) ;
#178 = APPROVAL ( #91, 'NEURÈENÝ' ) ;
#179 = PERSON_AND_ORGANIZATION ( #92, #288 ) ;
#180 = CIRCLE ( 'NONE', #275, 10.00000000000000000 ) ;
#181 = CIRCLE ( 'NONE', #50, 6.000000000000000888 ) ;
#182 = DIRECTION ( 'NONE',  ( 0.000000000000000000, 0.000000000000000000, -1.000000000000000000 ) ) ;
#183 = DIRECTION ( 'NONE',  ( -0.000000000000000000, -0.000000000000000000, -1.000000000000000000 ) ) ;
#184 = DIRECTION ( 'NONE',  ( 0.000000000000000000, 0.000000000000000000, 1.000000000000000000 ) ) ;
#185 = AXIS2_PLACEMENT_3D ( 'NONE', #360, #184, #93 ) ;
#186 = CARTESIAN_POINT ( 'NONE',  ( 0.000000000000000000, 0.000000000000000000, 7.000000000000000000 ) ) ;
#187 = VERTEX_POINT ( 'NONE', #142 ) ;
#188 = EDGE_CURVE ( 'NONE', #187, #162, #180, .T. ) ;
#189 = ORIENTED_EDGE ( 'NONE', *, *, #194, .T. ) ;
#190 = PRODUCT_DEFINITION_SHAPE ( 'NONE', 'NONE',  #134 ) ;
#191 = ORIENTED_EDGE ( 'NONE', *, *, #7, .T. ) ;
#192 = APPROVAL_PERSON_ORGANIZATION ( #376, #281, #347 ) ;
#193 = ORIENTED_EDGE ( 'NONE', *, *, #272, .T. ) ;
#194 = EDGE_CURVE ( 'NONE', #162, #187, #280, .T. ) ;
#195 = ORIENTED_EDGE ( 'NONE', *, *, #77, .F. ) ;
#196 = ADVANCED_BREP_SHAPE_REPRESENTATION ( '964b', ( #66, #253 ), #39 ) ;
#197 = APPROVAL_ROLE ( '' ) ;
#198 = DIRECTION ( 'NONE',  ( 0.000000000000000000, 0.000000000000000000, 1.000000000000000000 ) ) ;
#199 = CIRCLE ( 'NONE', #337, 6.000000000000000888 ) ;
#200 = CARTESIAN_POINT ( 'NONE',  ( 0.000000000000000000, 0.000000000000000000, 457.0000000000000000 ) ) ;
#201 = EDGE_CURVE ( 'NONE', #224, #366, #211, .T. ) ;
#202 = APPROVAL_DATE_TIME ( #84, #281 ) ;
#203 = DIRECTION ( 'NONE',  ( -0.000000000000000000, -0.000000000000000000, -1.000000000000000000 ) ) ;
#204 = FACE_OUTER_BOUND ( 'NONE', #30, .T. ) ;
#205 = AXIS2_PLACEMENT_3D ( 'NONE', #293, #255, #258 ) ;
#206 = APPROVAL_ROLE ( '' ) ;
#207 = CARTESIAN_POINT ( 'NONE',  ( 0.000000000000000000, 0.000000000000000000, 457.0000000000000000 ) ) ;
#208 = CARTESIAN_POINT ( 'NONE',  ( -6.000000000000000888, 0.000000000000000000, 457.0000000000000000 ) ) ;
#209 = EDGE_CURVE ( 'NONE', #366, #224, #287, .T. ) ;
#210 = CARTESIAN_POINT ( 'NONE',  ( -10.00000000000000000, 0.000000000000000000, 0.000000000000000000 ) ) ;
#211 = CIRCLE ( 'NONE', #102, 6.000000000000000888 ) ;
#212 = PRODUCT_DEFINITION_FORMATION_WITH_SPECIFIED_SOURCE ( 'LIBOVOLNÝ', '', #130, .NOT_KNOWN. ) ;
#213 = DIRECTION ( 'NONE',  ( 1.000000000000000000, 0.000000000000000000, 0.000000000000000000 ) ) ;
#214 = ADVANCED_FACE ( 'NONE', ( #273 ), #150, .F. ) ;
#215 = DIRECTION ( 'NONE',  ( 1.000000000000000000, 0.000000000000000000, 0.000000000000000000 ) ) ;
#216 = DIRECTION ( 'NONE',  ( -0.000000000000000000, -0.000000000000000000, -1.000000000000000000 ) ) ;
#217 = AXIS2_PLACEMENT_3D ( 'NONE', #83, #120, #237 ) ;
#218 = AXIS2_PLACEMENT_3D ( 'NONE', #140, #371, #344 ) ;
#219 = ORIENTED_EDGE ( 'NONE', *, *, #194, .F. ) ;
#220 = ADVANCED_FACE ( 'NONE', ( #152 ), #4, .F. ) ;
#221 = ORIENTED_EDGE ( 'NONE', *, *, #342, .T. ) ;
#222 = EDGE_LOOP ( 'NONE', ( #265, #189 ) ) ;
#223 = CIRCLE ( 'NONE', #327, 4.250000000000000000 ) ;
#224 = VERTEX_POINT ( 'NONE', #148 ) ;
#225 = SECURITY_CLASSIFICATION ( '', '', #352 ) ;
#226 = EDGE_CURVE ( 'NONE', #160, #21, #233, .T. ) ;
#227 = ORIENTED_EDGE ( 'NONE', *, *, #319, .F. ) ;
#228 = COORDINATED_UNIVERSAL_TIME_OFFSET ( 1, 0, .AHEAD. ) ;
#229 = DIRECTION ( 'NONE',  ( -1.000000000000000000, 0.000000000000000000, 0.000000000000000000 ) ) ;
#230 = CARTESIAN_POINT ( 'NONE',  ( 0.000000000000000000, 0.000000000000000000, 457.0000000000000000 ) ) ;
#231 = ADVANCED_FACE ( 'NONE', ( #99, #326 ), #96, .F. ) ;
#232 = VERTEX_POINT ( 'NONE', #210 ) ;
#233 = CIRCLE ( 'NONE', #297, 6.700000000000001066 ) ;
#234 = APPROVAL_STATUS ( 'not_yet_approved' ) ;
#235 = DIRECTION ( 'NONE',  ( 1.000000000000000000, 0.000000000000000000, 0.000000000000000000 ) ) ;
#236 = CARTESIAN_POINT ( 'NONE',  ( -6.700000000000001066, 8.205133554287267548E-16, 6.999999999999992006 ) ) ;
#237 = DIRECTION ( 'NONE',  ( 1.000000000000000000, 0.000000000000000000, -0.000000000000000000 ) ) ;
#238 = CC_DESIGN_APPROVAL ( #370, ( #212 ) ) ;
#239 = ADVANCED_FACE ( 'NONE', ( #37 ), #63, .T. ) ;
#240 = FACE_OUTER_BOUND ( 'NONE', #78, .T. ) ;
#241 = CYLINDRICAL_SURFACE ( 'NONE', #5, 6.000000000000000888 ) ;
#242 = COORDINATED_UNIVERSAL_TIME_OFFSET ( 1, 0, .AHEAD. ) ;
#243 = LOCAL_TIME ( 16, 29, 58.00000000000000000, #242 ) ;
#244 = DIRECTION ( 'NONE',  ( 1.000000000000000000, 0.000000000000000000, 0.000000000000000000 ) ) ;
#245 = DIRECTION ( 'NONE',  ( 1.000000000000000000, 0.000000000000000000, 0.000000000000000000 ) ) ;
#246 = DATE_AND_TIME ( #129, #35 ) ;
#247 = CC_DESIGN_PERSON_AND_ORGANIZATION_ASSIGNMENT ( #6, #355, ( #212 ) ) ;
#248 = VERTEX_POINT ( 'NONE', #98 ) ;
#249 = UNCERTAINTY_MEASURE_WITH_UNIT (LENGTH_MEASURE( 1.000000000000000082E-05 ), #339, 'distance_accuracy_value', 'NONE');
#250 = CC_DESIGN_PERSON_AND_ORGANIZATION_ASSIGNMENT ( #23, #47, ( #130 ) ) ;
#251 = VECTOR ( 'NONE', #350, 1000.000000000000000 ) ;
#252 = EDGE_LOOP ( 'NONE', ( #311, #109, #74, #191 ) ) ;
#253 = AXIS2_PLACEMENT_3D ( 'NONE', #112, #53, #108 ) ;
#254 = CARTESIAN_POINT ( 'NONE',  ( 10.00000000000000000, 1.224646799147353256E-15, 0.000000000000000000 ) ) ;
#255 = DIRECTION ( 'NONE',  ( 0.000000000000000000, 0.000000000000000000, 1.000000000000000000 ) ) ;
#256 = MECHANICAL_CONTEXT ( 'NONE', #68, 'mechanical' ) ;
#257 = ADVANCED_FACE ( 'NONE', ( #240 ), #241, .T. ) ;
#258 = DIRECTION ( 'NONE',  ( 1.000000000000000000, 0.000000000000000000, 0.000000000000000000 ) ) ;
#259 = CARTESIAN_POINT ( 'NONE',  ( -4.250000000000000000, 0.000000000000000000, 457.0000000000000000 ) ) ;
#260 = CARTESIAN_POINT ( 'NONE',  ( 0.000000000000000000, 0.000000000000000000, 7.000000000000000000 ) ) ;
#261 = VECTOR ( 'NONE', #317, 1000.000000000000000 ) ;
#262 = ORIENTED_EDGE ( 'NONE', *, *, #278, .T. ) ;
#263 = CIRCLE ( 'NONE', #154, 0.7000000000000000666 ) ;
#264 = FACE_OUTER_BOUND ( 'NONE', #252, .T. ) ;
#265 = ORIENTED_EDGE ( 'NONE', *, *, #188, .T. ) ;
#266 = FACE_OUTER_BOUND ( 'NONE', #48, .T. ) ;
#267 = ORIENTED_EDGE ( 'NONE', *, *, #139, .T. ) ;
#268 = APPROVAL_DATE_TIME ( #298, #178 ) ;
#269 = DIRECTION ( 'NONE',  ( -1.000000000000000000, 0.000000000000000000, 0.000000000000000000 ) ) ;
#270 = CARTESIAN_POINT ( 'NONE',  ( -6.000000000000000888, 0.000000000000000000, 457.0000000000000000 ) ) ;
#271 = SHAPE_DEFINITION_REPRESENTATION ( #190, #196 ) ;
#272 = EDGE_CURVE ( 'NONE', #340, #232, #159, .T. ) ;
#273 = FACE_OUTER_BOUND ( 'NONE', #169, .T. ) ;
#274 = LINE ( 'NONE', #128, #43 ) ;
#275 = AXIS2_PLACEMENT_3D ( 'NONE', #260, #65, #125 ) ;
#276 = DIRECTION ( 'NONE',  ( -1.000000000000000000, 1.224646799147353454E-16, 0.000000000000000000 ) ) ;
#277 = PERSON_AND_ORGANIZATION_ROLE ( 'creator' ) ;
#278 = EDGE_CURVE ( 'NONE', #365, #224, #274, .T. ) ;
#279 = ORIENTED_EDGE ( 'NONE', *, *, #209, .T. ) ;
#280 = CIRCLE ( 'NONE', #34, 10.00000000000000000 ) ;
#281 = APPROVAL ( #234, 'NEURÈENÝ' ) ;
#282 = APPLICATION_CONTEXT ( 'configuration controlled 3d designs of mechanical parts and assemblies' ) ;
#283 = ORIENTED_EDGE ( 'NONE', *, *, #19, .F. ) ;
#284 = DATE_AND_TIME ( #161, #357 ) ;
#285 = ORIENTED_EDGE ( 'NONE', *, *, #335, .F. ) ;
#286 = CARTESIAN_POINT ( 'NONE',  ( -6.000000000000000888, 0.000000000000000000, 7.699999999999985079 ) ) ;
#287 = CIRCLE ( 'NONE', #185, 6.000000000000000888 ) ;
#288 = ORGANIZATION ( 'NEURÈENÝ', 'NEURÈENÝ', '' ) ;
#289 = CARTESIAN_POINT ( 'NONE',  ( 0.000000000000000000, 0.000000000000000000, 7.000000000000000000 ) ) ;
#290 = DIRECTION ( 'NONE',  ( 1.000000000000000000, 0.000000000000000000, 0.000000000000000000 ) ) ;
#291 = VERTEX_POINT ( 'NONE', #270 ) ;
#292 = DIRECTION ( 'NONE',  ( 0.000000000000000000, 0.000000000000000000, 1.000000000000000000 ) ) ;
#293 = CARTESIAN_POINT ( 'NONE',  ( 0.000000000000000000, 0.000000000000000000, 457.0000000000000000 ) ) ;
#294 = ORIENTED_EDGE ( 'NONE', *, *, #335, .T. ) ;
#295 = CARTESIAN_POINT ( 'NONE',  ( -10.00000000000000000, 0.000000000000000000, 7.000000000000000000 ) ) ;
#296 = DIRECTION ( 'NONE',  ( 0.000000000000000000, 0.000000000000000000, 1.000000000000000000 ) ) ;
#297 = AXIS2_PLACEMENT_3D ( 'NONE', #186, #183, #245 ) ;
#298 = DATE_AND_TIME ( #318, #144 ) ;
#299 = CARTESIAN_POINT ( 'NONE',  ( 0.000000000000000000, 0.000000000000000000, 7.000000000000000000 ) ) ;
#300 = DIRECTION ( 'NONE',  ( 1.000000000000000000, 0.000000000000000000, -0.000000000000000000 ) ) ;
#301 = CARTESIAN_POINT ( 'NONE',  ( 0.000000000000000000, 0.000000000000000000, 0.000000000000000000 ) ) ;
#302 = CIRCLE ( 'NONE', #143, 4.250000000000000000 ) ;
#303 = LINE ( 'NONE', #208, #322 ) ;
#304 = CC_DESIGN_DATE_AND_TIME_ASSIGNMENT ( #380, #55, ( #225 ) ) ;
#305 = VERTEX_POINT ( 'NONE', #151 ) ;
#306 = ORIENTED_EDGE ( 'NONE', *, *, #201, .T. ) ;
#307 = CC_DESIGN_PERSON_AND_ORGANIZATION_ASSIGNMENT ( #95, #2, ( #225 ) ) ;
#308 = CIRCLE ( 'NONE', #218, 4.250000000000000000 ) ;
#309 = ORIENTED_EDGE ( 'NONE', *, *, #7, .F. ) ;
#310 = ORIENTED_EDGE ( 'NONE', *, *, #139, .F. ) ;
#311 = ORIENTED_EDGE ( 'NONE', *, *, #113, .F. ) ;
#312 = CARTESIAN_POINT ( 'NONE',  ( 6.000000000000000888, 7.347880794884120722E-16, 457.0000000000000000 ) ) ;
#313 = VECTOR ( 'NONE', #172, 1000.000000000000000 ) ;
#314 = CARTESIAN_POINT ( 'NONE',  ( 10.00000000000000000, 1.224646799147353256E-15, 7.000000000000000000 ) ) ;
#315 = ADVANCED_FACE ( 'NONE', ( #127 ), #353, .T. ) ;
#316 = DIRECTION ( 'NONE',  ( 0.000000000000000000, 0.000000000000000000, -1.000000000000000000 ) ) ;
#317 = DIRECTION ( 'NONE',  ( -0.000000000000000000, -0.000000000000000000, -1.000000000000000000 ) ) ;
#318 = CALENDAR_DATE ( 2022, 8, 7 ) ;
#319 = EDGE_CURVE ( 'NONE', #291, #366, #303, .T. ) ;
#320 = CARTESIAN_POINT ( 'NONE',  ( 0.000000000000000000, 0.000000000000000000, 7.699999999999985079 ) ) ;
#321 = AXIS2_PLACEMENT_3D ( 'NONE', #22, #292, #51 ) ;
#322 = VECTOR ( 'NONE', #358, 1000.000000000000000 ) ;
#323 = CARTESIAN_POINT ( 'NONE',  ( 4.250000000000000000, 5.204748896376250699E-16, 457.0000000000000000 ) ) ;
#324 = CARTESIAN_POINT ( 'NONE',  ( 0.000000000000000000, 0.000000000000000000, 457.0000000000000000 ) ) ;
#325 = EDGE_CURVE ( 'NONE', #366, #21, #263, .T. ) ;
#326 = FACE_OUTER_BOUND ( 'NONE', #369, .T. ) ;
#327 = AXIS2_PLACEMENT_3D ( 'NONE', #374, #203, #1 ) ;
#328 = AXIS2_PLACEMENT_3D ( 'NONE', #177, #33, #124 ) ;
#329 = CARTESIAN_POINT ( 'NONE',  ( 0.000000000000000000, 0.000000000000000000, 7.000000000000000000 ) ) ;
#330 = CC_DESIGN_PERSON_AND_ORGANIZATION_ASSIGNMENT ( #179, #32, ( #212 ) ) ;
#331 = CARTESIAN_POINT ( 'NONE',  ( -6.700000000000001066, 8.205133554287267548E-16, 7.699999999999985079 ) ) ;
#332 = DIRECTION ( 'NONE',  ( 1.000000000000000000, 0.000000000000000000, 0.000000000000000000 ) ) ;
#333 = EDGE_LOOP ( 'NONE', ( #131, #87, #44, #101 ) ) ;
#334 = ORIENTED_EDGE ( 'NONE', *, *, #201, .F. ) ;
#335 = EDGE_CURVE ( 'NONE', #362, #305, #308, .T. ) ;
#336 = VERTEX_POINT ( 'NONE', #259 ) ;
#337 = AXIS2_PLACEMENT_3D ( 'NONE', #200, #89, #343 ) ;
#338 = ORIENTED_EDGE ( 'NONE', *, *, #113, .T. ) ;
#339 =( LENGTH_UNIT ( ) NAMED_UNIT ( * ) SI_UNIT ( .MILLI., .METRE. ) );
#340 = VERTEX_POINT ( 'NONE', #254 ) ;
#341 = CARTESIAN_POINT ( 'NONE',  ( 0.000000000000000000, 0.000000000000000000, 457.0000000000000000 ) ) ;
#342 = EDGE_CURVE ( 'NONE', #224, #160, #346, .T. ) ;
#343 = DIRECTION ( 'NONE',  ( 1.000000000000000000, 0.000000000000000000, 0.000000000000000000 ) ) ;
#344 = DIRECTION ( 'NONE',  ( 1.000000000000000000, 0.000000000000000000, 0.000000000000000000 ) ) ;
#345 = PLANE ( 'NONE',  #217 ) ;
#346 = CIRCLE ( 'NONE', #107, 0.7000000000000000666 ) ;
#347 = APPROVAL_ROLE ( '' ) ;
#348 = CARTESIAN_POINT ( 'NONE',  ( 0.000000000000000000, 0.000000000000000000, 7.000000000000000000 ) ) ;
#349 = FACE_BOUND ( 'NONE', #375, .T. ) ;
#350 = DIRECTION ( 'NONE',  ( 0.000000000000000000, 0.000000000000000000, -1.000000000000000000 ) ) ;
#351 = DIRECTION ( 'NONE',  ( -1.000000000000000000, 0.000000000000000000, 0.000000000000000000 ) ) ;
#352 = SECURITY_CLASSIFICATION_LEVEL ( 'unclassified' ) ;
#353 = CYLINDRICAL_SURFACE ( 'NONE', #328, 6.000000000000000888 ) ;
#354 = CC_DESIGN_PERSON_AND_ORGANIZATION_ASSIGNMENT ( #156, #277, ( #134 ) ) ;
#355 = PERSON_AND_ORGANIZATION_ROLE ( 'creator' ) ;
#356 = CIRCLE ( 'NONE', #205, 4.250000000000000000 ) ;
#357 = LOCAL_TIME ( 16, 29, 58.00000000000000000, #100 ) ;
#358 = DIRECTION ( 'NONE',  ( -0.000000000000000000, -0.000000000000000000, -1.000000000000000000 ) ) ;
#359 = EDGE_CURVE ( 'NONE', #21, #160, #26, .T. ) ;
#360 = CARTESIAN_POINT ( 'NONE',  ( 0.000000000000000000, 0.000000000000000000, 7.699999999999985079 ) ) ;
#361 = DATE_TIME_ROLE ( 'creation_date' ) ;
#362 = VERTEX_POINT ( 'NONE', #40 ) ;
#363 = EDGE_CURVE ( 'NONE', #291, #365, #181, .T. ) ;
#364 = ORIENTED_EDGE ( 'NONE', *, *, #359, .T. ) ;
#365 = VERTEX_POINT ( 'NONE', #312 ) ;
#366 = VERTEX_POINT ( 'NONE', #286 ) ;
#367 = APPROVAL_STATUS ( 'not_yet_approved' ) ;
#368 = APPROVAL_PERSON_ORGANIZATION ( #173, #178, #206 ) ;
#369 = EDGE_LOOP ( 'NONE', ( #136, #41 ) ) ;
#370 = APPROVAL ( #367, 'NEURÈENÝ' ) ;
#371 = DIRECTION ( 'NONE',  ( -0.000000000000000000, -0.000000000000000000, -1.000000000000000000 ) ) ;
#372 = DESIGN_CONTEXT ( 'detailed design', #282, 'design' ) ;
#373 = CARTESIAN_POINT ( 'NONE',  ( 6.700000000000001066, 0.000000000000000000, 6.999999999999992006 ) ) ;
#374 = CARTESIAN_POINT ( 'NONE',  ( 0.000000000000000000, 0.000000000000000000, 0.000000000000000000 ) ) ;
#375 = EDGE_LOOP ( 'NONE', ( #42, #364 ) ) ;
#376 = PERSON_AND_ORGANIZATION ( #92, #288 ) ;
#377 = CC_DESIGN_APPROVAL ( #178, ( #225 ) ) ;
#378 = DIRECTION ( 'NONE',  ( 0.000000000000000000, 0.000000000000000000, -1.000000000000000000 ) ) ;
#379 = CC_DESIGN_DATE_AND_TIME_ASSIGNMENT ( #246, #361, ( #134 ) ) ;
#380 = DATE_AND_TIME ( #149, #243 ) ;
#381 = DIRECTION ( 'NONE',  ( -1.000000000000000000, 0.000000000000000000, 0.000000000000000000 ) ) ;
ENDSEC;
END-ISO-10303-21;
