ISO-10303-21;
HEADER;
FILE_DESCRIPTION (( 'STEP AP203' ),
    '1' );
FILE_NAME ('c954.STEP',
    '2022-07-08T14:54:55',
    ( '' ),
    ( '' ),
    'SwSTEP 2.0',
    'SolidWorks 2019',
    '' );
FILE_SCHEMA (( 'CONFIG_CONTROL_DESIGN' ));
ENDSEC;

DATA;
#1 = CARTESIAN_POINT ( 'NONE',  ( 0.000000000000000000, 0.000000000000000000, 132.0000000000000000 ) ) ;
#2 = APPROVAL_ROLE ( '' ) ;
#3 = CC_DESIGN_DATE_AND_TIME_ASSIGNMENT ( #247, #354, ( #67 ) ) ;
#4 = LINE ( 'NONE', #381, #83 ) ;
#5 = DIRECTION ( 'NONE',  ( 1.000000000000000000, 0.000000000000000000, -0.000000000000000000 ) ) ;
#6 = CARTESIAN_POINT ( 'NONE',  ( 0.000000000000000000, 0.000000000000000000, 7.000000000000000000 ) ) ;
#7 = ADVANCED_FACE ( 'NONE', ( #360, #190 ), #301, .F. ) ;
#8 = DIRECTION ( 'NONE',  ( 1.000000000000000000, 0.000000000000000000, 0.000000000000000000 ) ) ;
#9 = VECTOR ( 'NONE', #373, 1000.000000000000000 ) ;
#10 = EDGE_CURVE ( 'NONE', #112, #172, #24, .T. ) ;
#11 = CARTESIAN_POINT ( 'NONE',  ( -6.000000000000000888, 0.000000000000000000, 7.500000000000007105 ) ) ;
#12 = EDGE_LOOP ( 'NONE', ( #328, #291 ) ) ;
#13 = CARTESIAN_POINT ( 'NONE',  ( 0.000000000000000000, 0.000000000000000000, 132.0000000000000000 ) ) ;
#14 = CIRCLE ( 'NONE', #115, 0.5000000000000004441 ) ;
#15 = ORIENTED_EDGE ( 'NONE', *, *, #335, .T. ) ;
#16 = FACE_OUTER_BOUND ( 'NONE', #296, .T. ) ;
#17 = VERTEX_POINT ( 'NONE', #97 ) ;
#18 = APPROVAL_PERSON_ORGANIZATION ( #148, #338, #95 ) ;
#19 = CARTESIAN_POINT ( 'NONE',  ( -3.000000000000000444, 0.000000000000000000, 132.0000000000000000 ) ) ;
#20 = ORIENTED_EDGE ( 'NONE', *, *, #139, .F. ) ;
#21 = CALENDAR_DATE ( 2022, 8, 7 ) ;
#22 = ORIENTED_EDGE ( 'NONE', *, *, #335, .F. ) ;
#23 = DATE_AND_TIME ( #21, #197 ) ;
#24 = LINE ( 'NONE', #307, #147 ) ;
#25 = PERSON_AND_ORGANIZATION ( #160, #317 ) ;
#26 = CARTESIAN_POINT ( 'NONE',  ( 0.000000000000000000, 0.000000000000000000, 132.0000000000000000 ) ) ;
#27 = FACE_BOUND ( 'NONE', #320, .T. ) ;
#28 = PERSON_AND_ORGANIZATION ( #160, #317 ) ;
#29 = CARTESIAN_POINT ( 'NONE',  ( 0.000000000000000000, 0.000000000000000000, 132.0000000000000000 ) ) ;
#30 = PERSON_AND_ORGANIZATION_ROLE ( 'creator' ) ;
#31 = PLANE ( 'NONE',  #167 ) ;
#32 = APPROVAL_STATUS ( 'not_yet_approved' ) ;
#33 = CIRCLE ( 'NONE', #303, 6.500000000000000888 ) ;
#34 = DIRECTION ( 'NONE',  ( 1.000000000000000000, 0.000000000000000000, 0.000000000000000000 ) ) ;
#35 = ORIENTED_EDGE ( 'NONE', *, *, #249, .F. ) ;
#36 = CARTESIAN_POINT ( 'NONE',  ( 3.000000000000000444, 3.673940397442060361E-16, 0.000000000000000000 ) ) ;
#37 = CARTESIAN_POINT ( 'NONE',  ( 0.000000000000000000, 0.000000000000000000, 7.500000000000007105 ) ) ;
#38 = AXIS2_PLACEMENT_3D ( 'NONE', #271, #311, #34 ) ;
#39 = DIRECTION ( 'NONE',  ( 0.000000000000000000, 0.000000000000000000, 1.000000000000000000 ) ) ;
#40 = AXIS2_PLACEMENT_3D ( 'NONE', #339, #39, #72 ) ;
#41 = EDGE_LOOP ( 'NONE', ( #207, #348, #15, #342 ) ) ;
#42 = DIRECTION ( 'NONE',  ( -1.000000000000000000, 0.000000000000000000, 0.000000000000000000 ) ) ;
#43 = CARTESIAN_POINT ( 'NONE',  ( -3.000000000000000444, 0.000000000000000000, 0.000000000000000000 ) ) ;
#44 = PRODUCT_DEFINITION_SHAPE ( 'NONE', 'NONE',  #255 ) ;
#45 = APPLICATION_CONTEXT ( 'configuration controlled 3d designs of mechanical parts and assemblies' ) ;
#46 = DIRECTION ( 'NONE',  ( 1.000000000000000000, 0.000000000000000000, 0.000000000000000000 ) ) ;
#47 = CC_DESIGN_DATE_AND_TIME_ASSIGNMENT ( #89, #56, ( #255 ) ) ;
#48 = APPROVAL_PERSON_ORGANIZATION ( #185, #117, #2 ) ;
#49 = FACE_OUTER_BOUND ( 'NONE', #41, .T. ) ;
#50 = VERTEX_POINT ( 'NONE', #246 ) ;
#51 = DIRECTION ( 'NONE',  ( -1.000000000000000000, 1.224646799147351482E-16, 0.000000000000000000 ) ) ;
#52 = ORIENTED_EDGE ( 'NONE', *, *, #128, .F. ) ;
#53 = CC_DESIGN_PERSON_AND_ORGANIZATION_ASSIGNMENT ( #28, #187, ( #286 ) ) ;
#54 = CYLINDRICAL_SURFACE ( 'NONE', #169, 3.000000000000000444 ) ;
#55 = EDGE_LOOP ( 'NONE', ( #228, #204 ) ) ;
#56 = DATE_TIME_ROLE ( 'creation_date' ) ;
#57 = ORIENTED_EDGE ( 'NONE', *, *, #226, .F. ) ;
#58 = COORDINATED_UNIVERSAL_TIME_OFFSET ( 1, 0, .AHEAD. ) ;
#59 = DIRECTION ( 'NONE',  ( -0.000000000000000000, -0.000000000000000000, -1.000000000000000000 ) ) ;
#60 = AXIS2_PLACEMENT_3D ( 'NONE', #29, #156, #269 ) ;
#61 = CARTESIAN_POINT ( 'NONE',  ( 3.000000000000000444, 3.673940397442060361E-16, 132.0000000000000000 ) ) ;
#62 = AXIS2_PLACEMENT_3D ( 'NONE', #376, #105, #295 ) ;
#63 = DIRECTION ( 'NONE',  ( -0.000000000000000000, -0.000000000000000000, -1.000000000000000000 ) ) ;
#64 = PERSON_AND_ORGANIZATION_ROLE ( 'creator' ) ;
#65 = FACE_OUTER_BOUND ( 'NONE', #55, .T. ) ;
#66 = CARTESIAN_POINT ( 'NONE',  ( 10.00000000000000000, 1.224646799147353256E-15, 7.000000000000000000 ) ) ;
#67 = SECURITY_CLASSIFICATION ( '', '', #120 ) ;
#68 = CARTESIAN_POINT ( 'NONE',  ( 6.500000000000000888, 0.000000000000000000, 7.500000000000007105 ) ) ;
#69 = CC_DESIGN_PERSON_AND_ORGANIZATION_ASSIGNMENT ( #268, #30, ( #369 ) ) ;
#70 = CIRCLE ( 'NONE', #326, 3.000000000000000444 ) ;
#71 = VERTEX_POINT ( 'NONE', #155 ) ;
#72 = DIRECTION ( 'NONE',  ( 1.000000000000000000, 0.000000000000000000, 0.000000000000000000 ) ) ;
#73 = DIRECTION ( 'NONE',  ( -0.000000000000000000, -0.000000000000000000, -1.000000000000000000 ) ) ;
#74 =( NAMED_UNIT ( * ) PLANE_ANGLE_UNIT ( ) SI_UNIT ( $, .RADIAN. ) );
#75 = ADVANCED_FACE ( 'NONE', ( #357 ), #151, .T. ) ;
#76 = CIRCLE ( 'NONE', #237, 6.000000000000000888 ) ;
#77 = DIRECTION ( 'NONE',  ( 0.000000000000000000, 0.000000000000000000, 1.000000000000000000 ) ) ;
#78 = ORIENTED_EDGE ( 'NONE', *, *, #146, .F. ) ;
#79 = EDGE_CURVE ( 'NONE', #262, #112, #324, .T. ) ;
#80 = CARTESIAN_POINT ( 'NONE',  ( 0.000000000000000000, 0.000000000000000000, 132.0000000000000000 ) ) ;
#81 = FACE_OUTER_BOUND ( 'NONE', #293, .T. ) ;
#82 = EDGE_LOOP ( 'NONE', ( #78, #212, #322, #273 ) ) ;
#83 = VECTOR ( 'NONE', #334, 1000.000000000000000 ) ;
#84 = LINE ( 'NONE', #19, #330 ) ;
#85 = EDGE_CURVE ( 'NONE', #87, #17, #4, .T. ) ;
#86 = ADVANCED_FACE ( 'NONE', ( #219 ), #287, .F. ) ;
#87 = VERTEX_POINT ( 'NONE', #66 ) ;
#88 = CC_DESIGN_SECURITY_CLASSIFICATION ( #67, ( #369 ) ) ;
#89 = DATE_AND_TIME ( #238, #341 ) ;
#90 = ADVANCED_FACE ( 'NONE', ( #27, #65 ), #31, .T. ) ;
#91 = ORIENTED_EDGE ( 'NONE', *, *, #173, .F. ) ;
#92 = EDGE_CURVE ( 'NONE', #50, #141, #215, .T. ) ;
#93 = DIRECTION ( 'NONE',  ( 0.000000000000000000, 0.000000000000000000, 1.000000000000000000 ) ) ;
#94 =( GEOMETRIC_REPRESENTATION_CONTEXT ( 3 ) GLOBAL_UNCERTAINTY_ASSIGNED_CONTEXT ( ( #285 ) ) GLOBAL_UNIT_ASSIGNED_CONTEXT ( ( #104, #74, #230 ) ) REPRESENTATION_CONTEXT ( 'NONE', 'WORKASPACE' ) );
#95 = APPROVAL_ROLE ( '' ) ;
#96 = APPLICATION_PROTOCOL_DEFINITION ( 'international standard', 'config_control_design', 1994, #364 ) ;
#97 = CARTESIAN_POINT ( 'NONE',  ( 10.00000000000000000, 1.224646799147353256E-15, 0.000000000000000000 ) ) ;
#98 = DIRECTION ( 'NONE',  ( 1.000000000000000000, 0.000000000000000000, -0.000000000000000000 ) ) ;
#99 = AXIS2_PLACEMENT_3D ( 'NONE', #283, #73, #8 ) ;
#100 = DESIGN_CONTEXT ( 'detailed design', #364, 'design' ) ;
#101 = DIRECTION ( 'NONE',  ( 0.000000000000000000, 0.000000000000000000, 1.000000000000000000 ) ) ;
#102 = ORIENTED_EDGE ( 'NONE', *, *, #289, .F. ) ;
#103 = CARTESIAN_POINT ( 'NONE',  ( 0.000000000000000000, 0.000000000000000000, 7.000000000000000000 ) ) ;
#104 =( LENGTH_UNIT ( ) NAMED_UNIT ( * ) SI_UNIT ( .MILLI., .METRE. ) );
#105 = DIRECTION ( 'NONE',  ( 0.000000000000000000, 0.000000000000000000, 1.000000000000000000 ) ) ;
#106 = ADVANCED_FACE ( 'NONE', ( #242 ), #308, .F. ) ;
#107 = AXIS2_PLACEMENT_3D ( 'NONE', #244, #333, #194 ) ;
#108 = DIRECTION ( 'NONE',  ( 1.000000000000000000, 0.000000000000000000, 0.000000000000000000 ) ) ;
#109 = AXIS2_PLACEMENT_3D ( 'NONE', #198, #367, #282 ) ;
#110 = ORIENTED_EDGE ( 'NONE', *, *, #92, .F. ) ;
#111 = CYLINDRICAL_SURFACE ( 'NONE', #281, 10.00000000000000000 ) ;
#112 = VERTEX_POINT ( 'NONE', #61 ) ;
#113 = DIRECTION ( 'NONE',  ( 0.000000000000000000, 0.000000000000000000, 1.000000000000000000 ) ) ;
#114 = EDGE_LOOP ( 'NONE', ( #184, #377 ) ) ;
#115 = AXIS2_PLACEMENT_3D ( 'NONE', #68, #170, #251 ) ;
#116 = ORIENTED_EDGE ( 'NONE', *, *, #10, .F. ) ;
#117 = APPROVAL ( #241, 'NEURÈENÝ' ) ;
#118 = COORDINATED_UNIVERSAL_TIME_OFFSET ( 1, 0, .AHEAD. ) ;
#119 = CARTESIAN_POINT ( 'NONE',  ( 0.000000000000000000, 0.000000000000000000, 7.000000000000000000 ) ) ;
#120 = SECURITY_CLASSIFICATION_LEVEL ( 'unclassified' ) ;
#121 = EDGE_CURVE ( 'NONE', #177, #235, #258, .T. ) ;
#122 = EDGE_CURVE ( 'NONE', #87, #267, #350, .T. ) ;
#123 = APPROVAL_STATUS ( 'not_yet_approved' ) ;
#124 = DIRECTION ( 'NONE',  ( 0.000000000000000000, 0.000000000000000000, 1.000000000000000000 ) ) ;
#125 = APPROVAL_PERSON_ORGANIZATION ( #356, #236, #165 ) ;
#126 = PERSON_AND_ORGANIZATION_ROLE ( 'classification_officer' ) ;
#127 = ORIENTED_EDGE ( 'NONE', *, *, #121, .T. ) ;
#128 = EDGE_CURVE ( 'NONE', #141, #50, #76, .T. ) ;
#129 = DIRECTION ( 'NONE',  ( 0.000000000000000000, 0.000000000000000000, 1.000000000000000000 ) ) ;
#130 = ADVANCED_FACE ( 'NONE', ( #306 ), #189, .T. ) ;
#131 = ADVANCED_FACE ( 'NONE', ( #164, #370 ), #313, .T. ) ;
#132 = LINE ( 'NONE', #166, #229 ) ;
#133 = CARTESIAN_POINT ( 'NONE',  ( 6.500000000000000888, 0.000000000000000000, 7.000000000000002665 ) ) ;
#134 = AXIS2_PLACEMENT_3D ( 'NONE', #37, #101, #199 ) ;
#135 = EDGE_LOOP ( 'NONE', ( #298, #353, #179, #22 ) ) ;
#136 = AXIS2_PLACEMENT_3D ( 'NONE', #355, #332, #191 ) ;
#137 = CYLINDRICAL_SURFACE ( 'NONE', #188, 3.000000000000000444 ) ;
#138 = CIRCLE ( 'NONE', #109, 3.000000000000000444 ) ;
#139 = EDGE_CURVE ( 'NONE', #172, #252, #223, .T. ) ;
#140 = VERTEX_POINT ( 'NONE', #11 ) ;
#141 = VERTEX_POINT ( 'NONE', #363 ) ;
#142 = DIRECTION ( 'NONE',  ( -0.000000000000000000, -0.000000000000000000, -1.000000000000000000 ) ) ;
#143 = ORIENTED_EDGE ( 'NONE', *, *, #173, .T. ) ;
#144 = CALENDAR_DATE ( 2022, 8, 7 ) ;
#145 = EDGE_LOOP ( 'NONE', ( #102, #35 ) ) ;
#146 = EDGE_CURVE ( 'NONE', #140, #71, #149, .T. ) ;
#147 = VECTOR ( 'NONE', #161, 1000.000000000000000 ) ;
#148 = PERSON_AND_ORGANIZATION ( #160, #317 ) ;
#149 = CIRCLE ( 'NONE', #134, 6.000000000000000888 ) ;
#150 = LOCAL_TIME ( 16, 54, 55.00000000000000000, #118 ) ;
#151 = CYLINDRICAL_SURFACE ( 'NONE', #208, 10.00000000000000000 ) ;
#152 = PERSON_AND_ORGANIZATION ( #160, #317 ) ;
#153 = DIRECTION ( 'NONE',  ( -0.000000000000000000, -0.000000000000000000, -1.000000000000000000 ) ) ;
#154 = EDGE_LOOP ( 'NONE', ( #231, #158, #375, #284 ) ) ;
#155 = CARTESIAN_POINT ( 'NONE',  ( 6.000000000000000888, 7.347880794884120722E-16, 7.500000000000007105 ) ) ;
#156 = DIRECTION ( 'NONE',  ( 0.000000000000000000, 0.000000000000000000, 1.000000000000000000 ) ) ;
#157 = CIRCLE ( 'NONE', #210, 0.5000000000000004441 ) ;
#158 = ORIENTED_EDGE ( 'NONE', *, *, #331, .F. ) ;
#159 = SHAPE_DEFINITION_REPRESENTATION ( #44, #321 ) ;
#160 = PERSON ( 'NEURÈENÝ', 'NEURÈENÝ', 'NEURÈENÝ', ('NEURÈENÝ'), ('NEURÈENÝ'), ('NEURÈENÝ') ) ;
#161 = DIRECTION ( 'NONE',  ( 0.000000000000000000, 0.000000000000000000, -1.000000000000000000 ) ) ;
#162 = DATE_AND_TIME ( #225, #352 ) ;
#163 = CARTESIAN_POINT ( 'NONE',  ( -6.500000000000000888, 7.960204194457796463E-16, 7.000000000000002665 ) ) ;
#164 = FACE_BOUND ( 'NONE', #114, .T. ) ;
#165 = APPROVAL_ROLE ( '' ) ;
#166 = CARTESIAN_POINT ( 'NONE',  ( -6.000000000000000888, 0.000000000000000000, 132.0000000000000000 ) ) ;
#167 = AXIS2_PLACEMENT_3D ( 'NONE', #119, #124, #98 ) ;
#168 = DIRECTION ( 'NONE',  ( -1.000000000000000000, 0.000000000000000000, 0.000000000000000000 ) ) ;
#169 = AXIS2_PLACEMENT_3D ( 'NONE', #80, #327, #180 ) ;
#170 = DIRECTION ( 'NONE',  ( 0.000000000000000000, -1.000000000000000000, 0.000000000000000000 ) ) ;
#171 = DIRECTION ( 'NONE',  ( 1.000000000000000000, 0.000000000000000000, -0.000000000000000000 ) ) ;
#172 = VERTEX_POINT ( 'NONE', #36 ) ;
#173 = EDGE_CURVE ( 'NONE', #141, #71, #227, .T. ) ;
#174 = DIRECTION ( 'NONE',  ( -0.000000000000000000, -0.000000000000000000, -1.000000000000000000 ) ) ;
#175 = AXIS2_PLACEMENT_3D ( 'NONE', #103, #261, #347 ) ;
#176 = CARTESIAN_POINT ( 'NONE',  ( 0.000000000000000000, 0.000000000000000000, 7.000000000000000000 ) ) ;
#177 = VERTEX_POINT ( 'NONE', #133 ) ;
#178 = DIRECTION ( 'NONE',  ( -0.000000000000000000, -0.000000000000000000, -1.000000000000000000 ) ) ;
#179 = ORIENTED_EDGE ( 'NONE', *, *, #249, .T. ) ;
#180 = DIRECTION ( 'NONE',  ( -1.000000000000000000, 0.000000000000000000, 0.000000000000000000 ) ) ;
#181 = CC_DESIGN_APPROVAL ( #236, ( #67 ) ) ;
#182 = CYLINDRICAL_SURFACE ( 'NONE', #344, 6.000000000000000888 ) ;
#183 = ORIENTED_EDGE ( 'NONE', *, *, #222, .T. ) ;
#184 = ORIENTED_EDGE ( 'NONE', *, *, #79, .F. ) ;
#185 = PERSON_AND_ORGANIZATION ( #160, #317 ) ;
#186 = AXIS2_PLACEMENT_3D ( 'NONE', #217, #129, #5 ) ;
#187 = PERSON_AND_ORGANIZATION_ROLE ( 'design_owner' ) ;
#188 = AXIS2_PLACEMENT_3D ( 'NONE', #292, #254, #203 ) ;
#189 = CYLINDRICAL_SURFACE ( 'NONE', #336, 6.000000000000000888 ) ;
#190 = FACE_OUTER_BOUND ( 'NONE', #145, .T. ) ;
#191 = DIRECTION ( 'NONE',  ( 1.000000000000000000, 0.000000000000000000, 0.000000000000000000 ) ) ;
#192 = ORIENTED_EDGE ( 'NONE', *, *, #331, .T. ) ;
#193 = COORDINATED_UNIVERSAL_TIME_OFFSET ( 1, 0, .AHEAD. ) ;
#194 = DIRECTION ( 'NONE',  ( 1.000000000000000000, 0.000000000000000000, 0.000000000000000000 ) ) ;
#195 = CIRCLE ( 'NONE', #40, 10.00000000000000000 ) ;
#196 = CC_DESIGN_PERSON_AND_ORGANIZATION_ASSIGNMENT ( #152, #64, ( #255 ) ) ;
#197 = LOCAL_TIME ( 16, 54, 55.00000000000000000, #216 ) ;
#198 = CARTESIAN_POINT ( 'NONE',  ( 0.000000000000000000, 0.000000000000000000, 0.000000000000000000 ) ) ;
#199 = DIRECTION ( 'NONE',  ( 1.000000000000000000, 0.000000000000000000, 0.000000000000000000 ) ) ;
#200 = DIRECTION ( 'NONE',  ( -0.000000000000000000, -0.000000000000000000, -1.000000000000000000 ) ) ;
#201 = EDGE_CURVE ( 'NONE', #267, #87, #362, .T. ) ;
#202 = CARTESIAN_POINT ( 'NONE',  ( -10.00000000000000000, 0.000000000000000000, 7.000000000000000000 ) ) ;
#203 = DIRECTION ( 'NONE',  ( -1.000000000000000000, 0.000000000000000000, 0.000000000000000000 ) ) ;
#204 = ORIENTED_EDGE ( 'NONE', *, *, #122, .T. ) ;
#205 = ORIENTED_EDGE ( 'NONE', *, *, #365, .T. ) ;
#206 = DIRECTION ( 'NONE',  ( 1.000000000000000000, 0.000000000000000000, 0.000000000000000000 ) ) ;
#207 = ORIENTED_EDGE ( 'NONE', *, *, #85, .F. ) ;
#208 = AXIS2_PLACEMENT_3D ( 'NONE', #359, #59, #221 ) ;
#209 = DIRECTION ( 'NONE',  ( -1.000000000000000000, 0.000000000000000000, 0.000000000000000000 ) ) ;
#210 = AXIS2_PLACEMENT_3D ( 'NONE', #280, #256, #51 ) ;
#211 = ORIENTED_EDGE ( 'NONE', *, *, #222, .F. ) ;
#212 = ORIENTED_EDGE ( 'NONE', *, *, #264, .T. ) ;
#213 = ADVANCED_FACE ( 'NONE', ( #81 ), #182, .T. ) ;
#214 = DIRECTION ( 'NONE',  ( 1.000000000000000000, 0.000000000000000000, 0.000000000000000000 ) ) ;
#215 = CIRCLE ( 'NONE', #38, 6.000000000000000888 ) ;
#216 = COORDINATED_UNIVERSAL_TIME_OFFSET ( 1, 0, .AHEAD. ) ;
#217 = CARTESIAN_POINT ( 'NONE',  ( 0.000000000000000000, 0.000000000000000000, 0.000000000000000000 ) ) ;
#218 = MECHANICAL_CONTEXT ( 'NONE', #45, 'mechanical' ) ;
#219 = FACE_OUTER_BOUND ( 'NONE', #154, .T. ) ;
#220 = CALENDAR_DATE ( 2022, 8, 7 ) ;
#221 = DIRECTION ( 'NONE',  ( -1.000000000000000000, 0.000000000000000000, 0.000000000000000000 ) ) ;
#222 = EDGE_CURVE ( 'NONE', #252, #172, #138, .T. ) ;
#223 = CIRCLE ( 'NONE', #99, 3.000000000000000444 ) ;
#224 = AXIS2_PLACEMENT_3D ( 'NONE', #270, #265, #297 ) ;
#225 = CALENDAR_DATE ( 2022, 8, 7 ) ;
#226 = EDGE_CURVE ( 'NONE', #50, #140, #132, .T. ) ;
#227 = LINE ( 'NONE', #368, #239 ) ;
#228 = ORIENTED_EDGE ( 'NONE', *, *, #201, .T. ) ;
#229 = VECTOR ( 'NONE', #200, 1000.000000000000000 ) ;
#230 =( NAMED_UNIT ( * ) SI_UNIT ( $, .STERADIAN. ) SOLID_ANGLE_UNIT ( ) );
#231 = ORIENTED_EDGE ( 'NONE', *, *, #264, .F. ) ;
#232 = LINE ( 'NONE', #202, #9 ) ;
#233 = ORIENTED_EDGE ( 'NONE', *, *, #79, .T. ) ;
#234 = CARTESIAN_POINT ( 'NONE',  ( 0.000000000000000000, 0.000000000000000000, 7.500000000000007105 ) ) ;
#235 = VERTEX_POINT ( 'NONE', #163 ) ;
#236 = APPROVAL ( #32, 'NEURÈENÝ' ) ;
#237 = AXIS2_PLACEMENT_3D ( 'NONE', #1, #93, #214 ) ;
#238 = CALENDAR_DATE ( 2022, 8, 7 ) ;
#239 = VECTOR ( 'NONE', #337, 1000.000000000000000 ) ;
#240 = ORIENTED_EDGE ( 'NONE', *, *, #290, .T. ) ;
#241 = APPROVAL_STATUS ( 'not_yet_approved' ) ;
#242 = FACE_OUTER_BOUND ( 'NONE', #82, .T. ) ;
#243 = APPROVAL_DATE_TIME ( #272, #117 ) ;
#244 = CARTESIAN_POINT ( 'NONE',  ( 0.000000000000000000, 0.000000000000000000, 7.500000000000007105 ) ) ;
#245 = CIRCLE ( 'NONE', #260, 6.000000000000000888 ) ;
#246 = CARTESIAN_POINT ( 'NONE',  ( -6.000000000000000888, 0.000000000000000000, 132.0000000000000000 ) ) ;
#247 = DATE_AND_TIME ( #144, #150 ) ;
#248 = CARTESIAN_POINT ( 'NONE',  ( 0.000000000000000000, 0.000000000000000000, 7.000000000000000000 ) ) ;
#249 = EDGE_CURVE ( 'NONE', #17, #329, #195, .T. ) ;
#250 = EDGE_CURVE ( 'NONE', #71, #177, #14, .T. ) ;
#251 = DIRECTION ( 'NONE',  ( 0.000000000000000000, 0.000000000000000000, -1.000000000000000000 ) ) ;
#252 = VERTEX_POINT ( 'NONE', #43 ) ;
#253 = CC_DESIGN_APPROVAL ( #117, ( #255 ) ) ;
#254 = DIRECTION ( 'NONE',  ( 0.000000000000000000, 0.000000000000000000, -1.000000000000000000 ) ) ;
#255 = PRODUCT_DEFINITION ( 'NEZNÁMÝ', '', #369, #100 ) ;
#256 = DIRECTION ( 'NONE',  ( 1.224646799147353207E-16, 1.000000000000000000, -0.000000000000000000 ) ) ;
#257 = CARTESIAN_POINT ( 'NONE',  ( -10.00000000000000000, 0.000000000000000000, 0.000000000000000000 ) ) ;
#258 = CIRCLE ( 'NONE', #316, 6.500000000000000888 ) ;
#259 = ORIENTED_EDGE ( 'NONE', *, *, #365, .F. ) ;
#260 = AXIS2_PLACEMENT_3D ( 'NONE', #234, #77, #108 ) ;
#261 = DIRECTION ( 'NONE',  ( 0.000000000000000000, 0.000000000000000000, 1.000000000000000000 ) ) ;
#262 = VERTEX_POINT ( 'NONE', #314 ) ;
#263 = EDGE_LOOP ( 'NONE', ( #211, #20 ) ) ;
#264 = EDGE_CURVE ( 'NONE', #140, #235, #157, .T. ) ;
#265 = DIRECTION ( 'NONE',  ( 0.000000000000000000, 0.000000000000000000, 1.000000000000000000 ) ) ;
#266 = AXIS2_PLACEMENT_3D ( 'NONE', #6, #275, #361 ) ;
#267 = VERTEX_POINT ( 'NONE', #323 ) ;
#268 = PERSON_AND_ORGANIZATION ( #160, #317 ) ;
#269 = DIRECTION ( 'NONE',  ( 1.000000000000000000, 0.000000000000000000, 0.000000000000000000 ) ) ;
#270 = CARTESIAN_POINT ( 'NONE',  ( 0.000000000000000000, 0.000000000000000000, 0.000000000000000000 ) ) ;
#271 = CARTESIAN_POINT ( 'NONE',  ( 0.000000000000000000, 0.000000000000000000, 132.0000000000000000 ) ) ;
#272 = DATE_AND_TIME ( #220, #358 ) ;
#273 = ORIENTED_EDGE ( 'NONE', *, *, #250, .F. ) ;
#274 = PERSON_AND_ORGANIZATION_ROLE ( 'design_supplier' ) ;
#275 = DIRECTION ( 'NONE',  ( 0.000000000000000000, 0.000000000000000000, 1.000000000000000000 ) ) ;
#276 = EDGE_CURVE ( 'NONE', #235, #177, #33, .T. ) ;
#277 = EDGE_LOOP ( 'NONE', ( #52, #143, #192, #57 ) ) ;
#278 = PRODUCT_RELATED_PRODUCT_CATEGORY ( 'detail', '', ( #286 ) ) ;
#279 = DIRECTION ( 'NONE',  ( 1.000000000000000000, 0.000000000000000000, 0.000000000000000000 ) ) ;
#280 = CARTESIAN_POINT ( 'NONE',  ( -6.500000000000000888, 7.960204194457796463E-16, 7.500000000000007105 ) ) ;
#281 = AXIS2_PLACEMENT_3D ( 'NONE', #176, #142, #209 ) ;
#282 = DIRECTION ( 'NONE',  ( 1.000000000000000000, 0.000000000000000000, 0.000000000000000000 ) ) ;
#283 = CARTESIAN_POINT ( 'NONE',  ( 0.000000000000000000, 0.000000000000000000, 0.000000000000000000 ) ) ;
#284 = ORIENTED_EDGE ( 'NONE', *, *, #276, .F. ) ;
#285 = UNCERTAINTY_MEASURE_WITH_UNIT (LENGTH_MEASURE( 1.000000000000000082E-05 ), #104, 'distance_accuracy_value', 'NONE');
#286 = PRODUCT ( 'c954', 'c954', '', ( #218 ) ) ;
#287 = TOROIDAL_SURFACE ( 'NONE', #107, 6.500000000000000888, 0.5000000000000000000 ) ;
#288 = AXIS2_PLACEMENT_3D ( 'NONE', #315, #340, #171 ) ;
#289 = EDGE_CURVE ( 'NONE', #329, #17, #310, .T. ) ;
#290 = EDGE_CURVE ( 'NONE', #112, #262, #70, .T. ) ;
#291 = ORIENTED_EDGE ( 'NONE', *, *, #128, .T. ) ;
#292 = CARTESIAN_POINT ( 'NONE',  ( 0.000000000000000000, 0.000000000000000000, 132.0000000000000000 ) ) ;
#293 = EDGE_LOOP ( 'NONE', ( #91, #110, #351, #325 ) ) ;
#294 = CC_DESIGN_APPROVAL ( #338, ( #369 ) ) ;
#295 = DIRECTION ( 'NONE',  ( 1.000000000000000000, 0.000000000000000000, 0.000000000000000000 ) ) ;
#296 = EDGE_LOOP ( 'NONE', ( #116, #240, #205, #183 ) ) ;
#297 = DIRECTION ( 'NONE',  ( 1.000000000000000000, 0.000000000000000000, 0.000000000000000000 ) ) ;
#298 = ORIENTED_EDGE ( 'NONE', *, *, #122, .F. ) ;
#299 = ADVANCED_FACE ( 'NONE', ( #346 ), #137, .F. ) ;
#300 = COORDINATED_UNIVERSAL_TIME_OFFSET ( 1, 0, .AHEAD. ) ;
#301 = PLANE ( 'NONE',  #186 ) ;
#302 = APPROVAL_DATE_TIME ( #23, #338 ) ;
#303 = AXIS2_PLACEMENT_3D ( 'NONE', #371, #178, #46 ) ;
#304 = CARTESIAN_POINT ( 'NONE',  ( 0.000000000000000000, 0.000000000000000000, 132.0000000000000000 ) ) ;
#305 = APPLICATION_PROTOCOL_DEFINITION ( 'international standard', 'config_control_design', 1994, #45 ) ;
#306 = FACE_OUTER_BOUND ( 'NONE', #277, .T. ) ;
#307 = CARTESIAN_POINT ( 'NONE',  ( 3.000000000000000444, 3.673940397442060361E-16, 132.0000000000000000 ) ) ;
#308 = TOROIDAL_SURFACE ( 'NONE', #136, 6.500000000000000888, 0.5000000000000000000 ) ;
#309 = CC_DESIGN_PERSON_AND_ORGANIZATION_ASSIGNMENT ( #380, #274, ( #369 ) ) ;
#310 = CIRCLE ( 'NONE', #62, 10.00000000000000000 ) ;
#311 = DIRECTION ( 'NONE',  ( 0.000000000000000000, 0.000000000000000000, 1.000000000000000000 ) ) ;
#312 = APPROVAL_DATE_TIME ( #162, #236 ) ;
#313 = PLANE ( 'NONE',  #288 ) ;
#314 = CARTESIAN_POINT ( 'NONE',  ( -3.000000000000000444, 0.000000000000000000, 132.0000000000000000 ) ) ;
#315 = CARTESIAN_POINT ( 'NONE',  ( 0.000000000000000000, 0.000000000000000000, 132.0000000000000000 ) ) ;
#316 = AXIS2_PLACEMENT_3D ( 'NONE', #248, #63, #279 ) ;
#317 = ORGANIZATION ( 'NEURÈENÝ', 'NEURÈENÝ', '' ) ;
#318 = CLOSED_SHELL ( 'NONE', ( #299, #106, #130, #75, #378, #90, #7, #213, #131, #86, #319 ) ) ;
#319 = ADVANCED_FACE ( 'NONE', ( #16 ), #54, .F. ) ;
#320 = EDGE_LOOP ( 'NONE', ( #127, #372 ) ) ;
#321 = ADVANCED_BREP_SHAPE_REPRESENTATION ( 'c954', ( #374, #224 ), #94 ) ;
#322 = ORIENTED_EDGE ( 'NONE', *, *, #121, .F. ) ;
#323 = CARTESIAN_POINT ( 'NONE',  ( -10.00000000000000000, 0.000000000000000000, 7.000000000000000000 ) ) ;
#324 = CIRCLE ( 'NONE', #60, 3.000000000000000444 ) ;
#325 = ORIENTED_EDGE ( 'NONE', *, *, #146, .T. ) ;
#326 = AXIS2_PLACEMENT_3D ( 'NONE', #13, #113, #206 ) ;
#327 = DIRECTION ( 'NONE',  ( 0.000000000000000000, 0.000000000000000000, -1.000000000000000000 ) ) ;
#328 = ORIENTED_EDGE ( 'NONE', *, *, #92, .T. ) ;
#329 = VERTEX_POINT ( 'NONE', #257 ) ;
#330 = VECTOR ( 'NONE', #349, 1000.000000000000000 ) ;
#331 = EDGE_CURVE ( 'NONE', #71, #140, #245, .T. ) ;
#332 = DIRECTION ( 'NONE',  ( 0.000000000000000000, 0.000000000000000000, 1.000000000000000000 ) ) ;
#333 = DIRECTION ( 'NONE',  ( 0.000000000000000000, 0.000000000000000000, 1.000000000000000000 ) ) ;
#334 = DIRECTION ( 'NONE',  ( -0.000000000000000000, -0.000000000000000000, -1.000000000000000000 ) ) ;
#335 = EDGE_CURVE ( 'NONE', #267, #329, #232, .T. ) ;
#336 = AXIS2_PLACEMENT_3D ( 'NONE', #304, #174, #168 ) ;
#337 = DIRECTION ( 'NONE',  ( -0.000000000000000000, -0.000000000000000000, -1.000000000000000000 ) ) ;
#338 = APPROVAL ( #123, 'NEURÈENÝ' ) ;
#339 = CARTESIAN_POINT ( 'NONE',  ( 0.000000000000000000, 0.000000000000000000, 0.000000000000000000 ) ) ;
#340 = DIRECTION ( 'NONE',  ( 0.000000000000000000, 0.000000000000000000, 1.000000000000000000 ) ) ;
#341 = LOCAL_TIME ( 16, 54, 55.00000000000000000, #58 ) ;
#342 = ORIENTED_EDGE ( 'NONE', *, *, #289, .T. ) ;
#343 = CC_DESIGN_PERSON_AND_ORGANIZATION_ASSIGNMENT ( #25, #126, ( #67 ) ) ;
#344 = AXIS2_PLACEMENT_3D ( 'NONE', #26, #153, #42 ) ;
#345 = ORIENTED_EDGE ( 'NONE', *, *, #139, .T. ) ;
#346 = FACE_OUTER_BOUND ( 'NONE', #379, .T. ) ;
#347 = DIRECTION ( 'NONE',  ( 1.000000000000000000, 0.000000000000000000, 0.000000000000000000 ) ) ;
#348 = ORIENTED_EDGE ( 'NONE', *, *, #201, .F. ) ;
#349 = DIRECTION ( 'NONE',  ( 0.000000000000000000, 0.000000000000000000, -1.000000000000000000 ) ) ;
#350 = CIRCLE ( 'NONE', #266, 10.00000000000000000 ) ;
#351 = ORIENTED_EDGE ( 'NONE', *, *, #226, .T. ) ;
#352 = LOCAL_TIME ( 16, 54, 55.00000000000000000, #193 ) ;
#353 = ORIENTED_EDGE ( 'NONE', *, *, #85, .T. ) ;
#354 = DATE_TIME_ROLE ( 'classification_date' ) ;
#355 = CARTESIAN_POINT ( 'NONE',  ( 0.000000000000000000, 0.000000000000000000, 7.500000000000007105 ) ) ;
#356 = PERSON_AND_ORGANIZATION ( #160, #317 ) ;
#357 = FACE_OUTER_BOUND ( 'NONE', #135, .T. ) ;
#358 = LOCAL_TIME ( 16, 54, 55.00000000000000000, #300 ) ;
#359 = CARTESIAN_POINT ( 'NONE',  ( 0.000000000000000000, 0.000000000000000000, 7.000000000000000000 ) ) ;
#360 = FACE_BOUND ( 'NONE', #263, .T. ) ;
#361 = DIRECTION ( 'NONE',  ( 1.000000000000000000, 0.000000000000000000, 0.000000000000000000 ) ) ;
#362 = CIRCLE ( 'NONE', #175, 10.00000000000000000 ) ;
#363 = CARTESIAN_POINT ( 'NONE',  ( 6.000000000000000888, 7.347880794884120722E-16, 132.0000000000000000 ) ) ;
#364 = APPLICATION_CONTEXT ( 'configuration controlled 3d designs of mechanical parts and assemblies' ) ;
#365 = EDGE_CURVE ( 'NONE', #262, #252, #84, .T. ) ;
#366 = ORIENTED_EDGE ( 'NONE', *, *, #10, .T. ) ;
#367 = DIRECTION ( 'NONE',  ( -0.000000000000000000, -0.000000000000000000, -1.000000000000000000 ) ) ;
#368 = CARTESIAN_POINT ( 'NONE',  ( 6.000000000000000888, 7.347880794884120722E-16, 132.0000000000000000 ) ) ;
#369 = PRODUCT_DEFINITION_FORMATION_WITH_SPECIFIED_SOURCE ( 'LIBOVOLNÝ', '', #286, .NOT_KNOWN. ) ;
#370 = FACE_OUTER_BOUND ( 'NONE', #12, .T. ) ;
#371 = CARTESIAN_POINT ( 'NONE',  ( 0.000000000000000000, 0.000000000000000000, 7.000000000000000000 ) ) ;
#372 = ORIENTED_EDGE ( 'NONE', *, *, #276, .T. ) ;
#373 = DIRECTION ( 'NONE',  ( -0.000000000000000000, -0.000000000000000000, -1.000000000000000000 ) ) ;
#374 = MANIFOLD_SOLID_BREP ( 'Odebrat vysunutím3', #318 ) ;
#375 = ORIENTED_EDGE ( 'NONE', *, *, #250, .T. ) ;
#376 = CARTESIAN_POINT ( 'NONE',  ( 0.000000000000000000, 0.000000000000000000, 0.000000000000000000 ) ) ;
#377 = ORIENTED_EDGE ( 'NONE', *, *, #290, .F. ) ;
#378 = ADVANCED_FACE ( 'NONE', ( #49 ), #111, .T. ) ;
#379 = EDGE_LOOP ( 'NONE', ( #233, #366, #345, #259 ) ) ;
#380 = PERSON_AND_ORGANIZATION ( #160, #317 ) ;
#381 = CARTESIAN_POINT ( 'NONE',  ( 10.00000000000000000, 1.224646799147353256E-15, 7.000000000000000000 ) ) ;
ENDSEC;
END-ISO-10303-21;
