ISO-10303-21;
HEADER;
FILE_DESCRIPTION (( 'STEP AP203' ),
    '1' );
FILE_NAME ('e121.STEP',
    '2022-07-08T14:53:20',
    ( '' ),
    ( '' ),
    'SwSTEP 2.0',
    'SolidWorks 2019',
    '' );
FILE_SCHEMA (( 'CONFIG_CONTROL_DESIGN' ));
ENDSEC;

DATA;
#1 = VERTEX_POINT ( 'NONE', #67 ) ;
#2 = PLANE ( 'NONE',  #319 ) ;
#3 = PLANE ( 'NONE',  #192 ) ;
#4 = APPROVAL_PERSON_ORGANIZATION ( #351, #265, #353 ) ;
#5 = CARTESIAN_POINT ( 'NONE',  ( 3.000000000000000444, 3.673940397442060361E-16, 0.000000000000000000 ) ) ;
#6 = CC_DESIGN_DATE_AND_TIME_ASSIGNMENT ( #276, #293, ( #326 ) ) ;
#7 = ADVANCED_FACE ( 'NONE', ( #221, #191 ), #3, .T. ) ;
#8 = FACE_OUTER_BOUND ( 'NONE', #236, .T. ) ;
#9 = DIRECTION ( 'NONE',  ( 1.000000000000000000, 0.000000000000000000, 0.000000000000000000 ) ) ;
#10 = AXIS2_PLACEMENT_3D ( 'NONE', #188, #216, #333 ) ;
#11 = ADVANCED_FACE ( 'NONE', ( #189 ), #335, .F. ) ;
#12 = PERSON ( 'NEURÈENÝ', 'NEURÈENÝ', 'NEURÈENÝ', ('NEURÈENÝ'), ('NEURÈENÝ'), ('NEURÈENÝ') ) ;
#13 = DIRECTION ( 'NONE',  ( -0.000000000000000000, -0.000000000000000000, -1.000000000000000000 ) ) ;
#14 = CYLINDRICAL_SURFACE ( 'NONE', #318, 3.000000000000000444 ) ;
#15 = ORIENTED_EDGE ( 'NONE', *, *, #150, .T. ) ;
#16 = DIRECTION ( 'NONE',  ( -1.000000000000000000, 0.000000000000000000, 0.000000000000000000 ) ) ;
#17 = VECTOR ( 'NONE', #366, 1000.000000000000000 ) ;
#18 = DIRECTION ( 'NONE',  ( 0.000000000000000000, 0.000000000000000000, 1.000000000000000000 ) ) ;
#19 =( GEOMETRIC_REPRESENTATION_CONTEXT ( 3 ) GLOBAL_UNCERTAINTY_ASSIGNED_CONTEXT ( ( #80 ) ) GLOBAL_UNIT_ASSIGNED_CONTEXT ( ( #54, #77, #81 ) ) REPRESENTATION_CONTEXT ( 'NONE', 'WORKASPACE' ) );
#20 = ORIENTED_EDGE ( 'NONE', *, *, #343, .F. ) ;
#21 = CC_DESIGN_PERSON_AND_ORGANIZATION_ASSIGNMENT ( #242, #145, ( #251 ) ) ;
#22 = PERSON_AND_ORGANIZATION ( #12, #138 ) ;
#23 = FACE_OUTER_BOUND ( 'NONE', #195, .T. ) ;
#24 = ORIENTED_EDGE ( 'NONE', *, *, #88, .T. ) ;
#25 = CALENDAR_DATE ( 2022, 8, 7 ) ;
#26 = VERTEX_POINT ( 'NONE', #253 ) ;
#27 = CALENDAR_DATE ( 2022, 8, 7 ) ;
#28 = LOCAL_TIME ( 16, 53, 20.00000000000000000, #240 ) ;
#29 = ORIENTED_EDGE ( 'NONE', *, *, #59, .T. ) ;
#30 = EDGE_LOOP ( 'NONE', ( #375, #113 ) ) ;
#31 = CARTESIAN_POINT ( 'NONE',  ( 0.000000000000000000, 0.000000000000000000, 357.0000000000000000 ) ) ;
#32 = ORIENTED_EDGE ( 'NONE', *, *, #303, .T. ) ;
#33 = AXIS2_PLACEMENT_3D ( 'NONE', #166, #18, #201 ) ;
#34 = AXIS2_PLACEMENT_3D ( 'NONE', #165, #13, #225 ) ;
#35 = EDGE_CURVE ( 'NONE', #1, #215, #306, .T. ) ;
#36 = ORIENTED_EDGE ( 'NONE', *, *, #305, .F. ) ;
#37 = CARTESIAN_POINT ( 'NONE',  ( 0.000000000000000000, 0.000000000000000000, 0.000000000000000000 ) ) ;
#38 = DIRECTION ( 'NONE',  ( 1.000000000000000000, 0.000000000000000000, 0.000000000000000000 ) ) ;
#39 = CIRCLE ( 'NONE', #146, 3.000000000000000444 ) ;
#40 = CIRCLE ( 'NONE', #164, 6.000000000000000888 ) ;
#41 = FACE_OUTER_BOUND ( 'NONE', #337, .T. ) ;
#42 = CARTESIAN_POINT ( 'NONE',  ( 0.000000000000000000, 0.000000000000000000, 357.0000000000000000 ) ) ;
#43 = CARTESIAN_POINT ( 'NONE',  ( 3.000000000000000444, 3.673940397442060361E-16, 357.0000000000000000 ) ) ;
#44 = CARTESIAN_POINT ( 'NONE',  ( 6.500000000000000888, 0.000000000000000000, 7.000000000000002665 ) ) ;
#45 = VERTEX_POINT ( 'NONE', #129 ) ;
#46 = AXIS2_PLACEMENT_3D ( 'NONE', #99, #310, #120 ) ;
#47 = DIRECTION ( 'NONE',  ( -1.000000000000000000, 0.000000000000000000, 0.000000000000000000 ) ) ;
#48 = ORIENTED_EDGE ( 'NONE', *, *, #279, .T. ) ;
#49 = APPROVAL ( #140, 'NEURÈENÝ' ) ;
#50 = ORIENTED_EDGE ( 'NONE', *, *, #108, .F. ) ;
#51 = PERSON_AND_ORGANIZATION ( #12, #138 ) ;
#52 = AXIS2_PLACEMENT_3D ( 'NONE', #147, #354, #297 ) ;
#53 = ORIENTED_EDGE ( 'NONE', *, *, #88, .F. ) ;
#54 =( LENGTH_UNIT ( ) NAMED_UNIT ( * ) SI_UNIT ( .MILLI., .METRE. ) );
#55 = SHAPE_DEFINITION_REPRESENTATION ( #207, #143 ) ;
#56 = CALENDAR_DATE ( 2022, 8, 7 ) ;
#57 = VERTEX_POINT ( 'NONE', #43 ) ;
#58 = EDGE_CURVE ( 'NONE', #270, #320, #39, .T. ) ;
#59 = EDGE_CURVE ( 'NONE', #215, #26, #186, .T. ) ;
#60 = ORIENTED_EDGE ( 'NONE', *, *, #254, .T. ) ;
#61 = AXIS2_PLACEMENT_3D ( 'NONE', #255, #96, #101 ) ;
#62 = DIRECTION ( 'NONE',  ( 0.000000000000000000, 0.000000000000000000, 1.000000000000000000 ) ) ;
#63 = FACE_OUTER_BOUND ( 'NONE', #263, .T. ) ;
#64 = EDGE_CURVE ( 'NONE', #57, #184, #204, .T. ) ;
#65 = DIRECTION ( 'NONE',  ( 0.000000000000000000, 0.000000000000000000, 1.000000000000000000 ) ) ;
#66 = CYLINDRICAL_SURFACE ( 'NONE', #205, 6.000000000000000888 ) ;
#67 = CARTESIAN_POINT ( 'NONE',  ( -10.00000000000000000, 0.000000000000000000, 7.000000000000000000 ) ) ;
#68 = AXIS2_PLACEMENT_3D ( 'NONE', #128, #309, #69 ) ;
#69 = DIRECTION ( 'NONE',  ( 0.000000000000000000, 0.000000000000000000, -1.000000000000000000 ) ) ;
#70 = ORIENTED_EDGE ( 'NONE', *, *, #285, .T. ) ;
#71 = DIRECTION ( 'NONE',  ( 1.000000000000000000, 0.000000000000000000, 0.000000000000000000 ) ) ;
#72 = EDGE_CURVE ( 'NONE', #144, #182, #199, .T. ) ;
#73 = ADVANCED_FACE ( 'NONE', ( #23 ), #14, .F. ) ;
#74 = CARTESIAN_POINT ( 'NONE',  ( -6.500000000000000888, 7.960204194457796463E-16, 7.000000000000002665 ) ) ;
#75 = CARTESIAN_POINT ( 'NONE',  ( -6.000000000000000888, 0.000000000000000000, 7.500000000000007105 ) ) ;
#76 = CIRCLE ( 'NONE', #124, 6.000000000000000888 ) ;
#77 =( NAMED_UNIT ( * ) PLANE_ANGLE_UNIT ( ) SI_UNIT ( $, .RADIAN. ) );
#78 = CC_DESIGN_APPROVAL ( #265, ( #251 ) ) ;
#79 = ORIENTED_EDGE ( 'NONE', *, *, #303, .F. ) ;
#80 = UNCERTAINTY_MEASURE_WITH_UNIT (LENGTH_MEASURE( 1.000000000000000082E-05 ), #54, 'distance_accuracy_value', 'NONE');
#81 =( NAMED_UNIT ( * ) SI_UNIT ( $, .STERADIAN. ) SOLID_ANGLE_UNIT ( ) );
#82 = ORIENTED_EDGE ( 'NONE', *, *, #169, .T. ) ;
#83 = DIRECTION ( 'NONE',  ( 0.000000000000000000, 0.000000000000000000, 1.000000000000000000 ) ) ;
#84 = APPROVAL_DATE_TIME ( #346, #49 ) ;
#85 = LINE ( 'NONE', #135, #154 ) ;
#86 = AXIS2_PLACEMENT_3D ( 'NONE', #345, #203, #133 ) ;
#87 = COORDINATED_UNIVERSAL_TIME_OFFSET ( 1, 0, .AHEAD. ) ;
#88 = EDGE_CURVE ( 'NONE', #184, #320, #85, .T. ) ;
#89 = APPROVAL_DATE_TIME ( #272, #315 ) ;
#90 = DIRECTION ( 'NONE',  ( 1.000000000000000000, 0.000000000000000000, 0.000000000000000000 ) ) ;
#91 = ORIENTED_EDGE ( 'NONE', *, *, #169, .F. ) ;
#92 = SECURITY_CLASSIFICATION_LEVEL ( 'unclassified' ) ;
#93 = ORIENTED_EDGE ( 'NONE', *, *, #167, .F. ) ;
#94 = SECURITY_CLASSIFICATION ( '', '', #92 ) ;
#95 = DIRECTION ( 'NONE',  ( -0.000000000000000000, -0.000000000000000000, -1.000000000000000000 ) ) ;
#96 = DIRECTION ( 'NONE',  ( 0.000000000000000000, 0.000000000000000000, 1.000000000000000000 ) ) ;
#97 = CC_DESIGN_APPROVAL ( #49, ( #326 ) ) ;
#98 = DIRECTION ( 'NONE',  ( 1.000000000000000000, 0.000000000000000000, 0.000000000000000000 ) ) ;
#99 = CARTESIAN_POINT ( 'NONE',  ( -6.500000000000000888, 7.960204194457796463E-16, 7.500000000000007105 ) ) ;
#100 = CIRCLE ( 'NONE', #61, 6.000000000000000888 ) ;
#101 = DIRECTION ( 'NONE',  ( 1.000000000000000000, 0.000000000000000000, 0.000000000000000000 ) ) ;
#102 = DIRECTION ( 'NONE',  ( -0.000000000000000000, -0.000000000000000000, -1.000000000000000000 ) ) ;
#103 = DIRECTION ( 'NONE',  ( -0.000000000000000000, -0.000000000000000000, -1.000000000000000000 ) ) ;
#104 = DIRECTION ( 'NONE',  ( -0.000000000000000000, -0.000000000000000000, -1.000000000000000000 ) ) ;
#105 = DIRECTION ( 'NONE',  ( 1.000000000000000000, 0.000000000000000000, 0.000000000000000000 ) ) ;
#106 = DIRECTION ( 'NONE',  ( 0.000000000000000000, 0.000000000000000000, 1.000000000000000000 ) ) ;
#107 = ORIENTED_EDGE ( 'NONE', *, *, #279, .F. ) ;
#108 = EDGE_CURVE ( 'NONE', #1, #172, #117, .T. ) ;
#109 = ORIENTED_EDGE ( 'NONE', *, *, #190, .T. ) ;
#110 = COORDINATED_UNIVERSAL_TIME_OFFSET ( 1, 0, .AHEAD. ) ;
#111 = DATE_AND_TIME ( #27, #298 ) ;
#112 = AXIS2_PLACEMENT_3D ( 'NONE', #304, #286, #98 ) ;
#113 = ORIENTED_EDGE ( 'NONE', *, *, #58, .F. ) ;
#114 = EDGE_LOOP ( 'NONE', ( #358, #151 ) ) ;
#115 = PERSON_AND_ORGANIZATION ( #12, #138 ) ;
#116 = DIRECTION ( 'NONE',  ( 0.000000000000000000, 0.000000000000000000, -1.000000000000000000 ) ) ;
#117 = CIRCLE ( 'NONE', #33, 10.00000000000000000 ) ;
#118 = AXIS2_PLACEMENT_3D ( 'NONE', #312, #311, #200 ) ;
#119 = ORIENTED_EDGE ( 'NONE', *, *, #64, .T. ) ;
#120 = DIRECTION ( 'NONE',  ( -1.000000000000000000, 1.224646799147351482E-16, 0.000000000000000000 ) ) ;
#121 = ORIENTED_EDGE ( 'NONE', *, *, #35, .F. ) ;
#122 = DIRECTION ( 'NONE',  ( -1.000000000000000000, 0.000000000000000000, 0.000000000000000000 ) ) ;
#123 = CC_DESIGN_DATE_AND_TIME_ASSIGNMENT ( #111, #356, ( #94 ) ) ;
#124 = AXIS2_PLACEMENT_3D ( 'NONE', #370, #106, #230 ) ;
#125 = APPROVAL_PERSON_ORGANIZATION ( #377, #315, #325 ) ;
#126 = CARTESIAN_POINT ( 'NONE',  ( 0.000000000000000000, 0.000000000000000000, 7.500000000000007105 ) ) ;
#127 = DIRECTION ( 'NONE',  ( 1.000000000000000000, 0.000000000000000000, -0.000000000000000000 ) ) ;
#128 = CARTESIAN_POINT ( 'NONE',  ( 6.500000000000000888, 0.000000000000000000, 7.500000000000007105 ) ) ;
#129 = CARTESIAN_POINT ( 'NONE',  ( -6.000000000000000888, 0.000000000000000000, 357.0000000000000000 ) ) ;
#130 = APPROVAL_PERSON_ORGANIZATION ( #22, #49, #267 ) ;
#131 = FACE_OUTER_BOUND ( 'NONE', #329, .T. ) ;
#132 = CARTESIAN_POINT ( 'NONE',  ( 0.000000000000000000, 0.000000000000000000, 357.0000000000000000 ) ) ;
#133 = DIRECTION ( 'NONE',  ( 1.000000000000000000, 0.000000000000000000, 0.000000000000000000 ) ) ;
#134 = CARTESIAN_POINT ( 'NONE',  ( 0.000000000000000000, 0.000000000000000000, 0.000000000000000000 ) ) ;
#135 = CARTESIAN_POINT ( 'NONE',  ( -3.000000000000000444, 0.000000000000000000, 357.0000000000000000 ) ) ;
#136 = EDGE_LOOP ( 'NONE', ( #91, #50, #266, #29 ) ) ;
#137 = EDGE_CURVE ( 'NONE', #57, #270, #206, .T. ) ;
#138 = ORGANIZATION ( 'NEURÈENÝ', 'NEURÈENÝ', '' ) ;
#139 = VERTEX_POINT ( 'NONE', #75 ) ;
#140 = APPROVAL_STATUS ( 'not_yet_approved' ) ;
#141 = ORIENTED_EDGE ( 'NONE', *, *, #218, .F. ) ;
#142 = DIRECTION ( 'NONE',  ( 0.000000000000000000, 0.000000000000000000, -1.000000000000000000 ) ) ;
#143 = ADVANCED_BREP_SHAPE_REPRESENTATION ( 'e121', ( #259, #86 ), #19 ) ;
#144 = VERTEX_POINT ( 'NONE', #171 ) ;
#145 = PERSON_AND_ORGANIZATION_ROLE ( 'design_supplier' ) ;
#146 = AXIS2_PLACEMENT_3D ( 'NONE', #256, #102, #71 ) ;
#147 = CARTESIAN_POINT ( 'NONE',  ( 0.000000000000000000, 0.000000000000000000, 7.000000000000000000 ) ) ;
#148 = AXIS2_PLACEMENT_3D ( 'NONE', #134, #83, #290 ) ;
#149 = ORIENTED_EDGE ( 'NONE', *, *, #59, .F. ) ;
#150 = EDGE_CURVE ( 'NONE', #139, #182, #76, .T. ) ;
#151 = ORIENTED_EDGE ( 'NONE', *, *, #64, .F. ) ;
#152 = EDGE_CURVE ( 'NONE', #184, #57, #179, .T. ) ;
#153 = CARTESIAN_POINT ( 'NONE',  ( -6.000000000000000888, 0.000000000000000000, 357.0000000000000000 ) ) ;
#154 = VECTOR ( 'NONE', #262, 1000.000000000000000 ) ;
#155 = ORIENTED_EDGE ( 'NONE', *, *, #343, .T. ) ;
#156 = AXIS2_PLACEMENT_3D ( 'NONE', #31, #116, #299 ) ;
#157 = ORIENTED_EDGE ( 'NONE', *, *, #233, .F. ) ;
#158 = CIRCLE ( 'NONE', #148, 10.00000000000000000 ) ;
#159 = DIRECTION ( 'NONE',  ( -0.000000000000000000, -0.000000000000000000, -1.000000000000000000 ) ) ;
#160 = FACE_OUTER_BOUND ( 'NONE', #239, .T. ) ;
#161 = ADVANCED_FACE ( 'NONE', ( #378 ), #301, .F. ) ;
#162 = DIRECTION ( 'NONE',  ( 0.000000000000000000, 0.000000000000000000, 1.000000000000000000 ) ) ;
#163 = APPLICATION_CONTEXT ( 'configuration controlled 3d designs of mechanical parts and assemblies' ) ;
#164 = AXIS2_PLACEMENT_3D ( 'NONE', #229, #232, #105 ) ;
#165 = CARTESIAN_POINT ( 'NONE',  ( 0.000000000000000000, 0.000000000000000000, 7.000000000000000000 ) ) ;
#166 = CARTESIAN_POINT ( 'NONE',  ( 0.000000000000000000, 0.000000000000000000, 7.000000000000000000 ) ) ;
#167 = EDGE_CURVE ( 'NONE', #328, #209, #371, .T. ) ;
#168 = CARTESIAN_POINT ( 'NONE',  ( -3.000000000000000444, 0.000000000000000000, 0.000000000000000000 ) ) ;
#169 = EDGE_CURVE ( 'NONE', #172, #26, #244, .T. ) ;
#170 = ORIENTED_EDGE ( 'NONE', *, *, #137, .T. ) ;
#171 = CARTESIAN_POINT ( 'NONE',  ( 6.000000000000000888, 7.347880794884120722E-16, 357.0000000000000000 ) ) ;
#172 = VERTEX_POINT ( 'NONE', #357 ) ;
#173 = LOCAL_TIME ( 16, 53, 20.00000000000000000, #87 ) ;
#174 = DIRECTION ( 'NONE',  ( -1.000000000000000000, 0.000000000000000000, 0.000000000000000000 ) ) ;
#175 = CYLINDRICAL_SURFACE ( 'NONE', #34, 10.00000000000000000 ) ;
#176 = PERSON_AND_ORGANIZATION_ROLE ( 'creator' ) ;
#177 = ORIENTED_EDGE ( 'NONE', *, *, #198, .F. ) ;
#178 = COORDINATED_UNIVERSAL_TIME_OFFSET ( 1, 0, .AHEAD. ) ;
#179 = CIRCLE ( 'NONE', #223, 3.000000000000000444 ) ;
#180 = AXIS2_PLACEMENT_3D ( 'NONE', #261, #103, #174 ) ;
#181 = APPROVAL_STATUS ( 'not_yet_approved' ) ;
#182 = VERTEX_POINT ( 'NONE', #210 ) ;
#183 = PERSON_AND_ORGANIZATION_ROLE ( 'classification_officer' ) ;
#184 = VERTEX_POINT ( 'NONE', #327 ) ;
#185 = DIRECTION ( 'NONE',  ( -0.000000000000000000, -0.000000000000000000, -1.000000000000000000 ) ) ;
#186 = CIRCLE ( 'NONE', #362, 10.00000000000000000 ) ;
#187 = CIRCLE ( 'NONE', #68, 0.5000000000000004441 ) ;
#188 = CARTESIAN_POINT ( 'NONE',  ( 0.000000000000000000, 0.000000000000000000, 7.000000000000000000 ) ) ;
#189 = FACE_OUTER_BOUND ( 'NONE', #302, .T. ) ;
#190 = EDGE_CURVE ( 'NONE', #45, #139, #214, .T. ) ;
#191 = FACE_OUTER_BOUND ( 'NONE', #342, .T. ) ;
#192 = AXIS2_PLACEMENT_3D ( 'NONE', #132, #65, #284 ) ;
#193 = AXIS2_PLACEMENT_3D ( 'NONE', #219, #159, #248 ) ;
#194 = CARTESIAN_POINT ( 'NONE',  ( -10.00000000000000000, 0.000000000000000000, 0.000000000000000000 ) ) ;
#195 = EDGE_LOOP ( 'NONE', ( #282, #170, #323, #53 ) ) ;
#196 = CARTESIAN_POINT ( 'NONE',  ( 0.000000000000000000, 0.000000000000000000, 0.000000000000000000 ) ) ;
#197 = AXIS2_PLACEMENT_3D ( 'NONE', #368, #226, #234 ) ;
#198 = EDGE_CURVE ( 'NONE', #209, #328, #280, .T. ) ;
#199 = LINE ( 'NONE', #313, #307 ) ;
#200 = DIRECTION ( 'NONE',  ( 1.000000000000000000, 0.000000000000000000, 0.000000000000000000 ) ) ;
#201 = DIRECTION ( 'NONE',  ( 1.000000000000000000, 0.000000000000000000, 0.000000000000000000 ) ) ;
#202 = ORIENTED_EDGE ( 'NONE', *, *, #305, .T. ) ;
#203 = DIRECTION ( 'NONE',  ( 0.000000000000000000, 0.000000000000000000, 1.000000000000000000 ) ) ;
#204 = CIRCLE ( 'NONE', #197, 3.000000000000000444 ) ;
#205 = AXIS2_PLACEMENT_3D ( 'NONE', #361, #104, #16 ) ;
#206 = LINE ( 'NONE', #269, #250 ) ;
#207 = PRODUCT_DEFINITION_SHAPE ( 'NONE', 'NONE',  #326 ) ;
#208 = DATE_AND_TIME ( #25, #173 ) ;
#209 = VERTEX_POINT ( 'NONE', #44 ) ;
#210 = CARTESIAN_POINT ( 'NONE',  ( 6.000000000000000888, 7.347880794884120722E-16, 7.500000000000007105 ) ) ;
#211 = CC_DESIGN_PERSON_AND_ORGANIZATION_ASSIGNMENT ( #241, #176, ( #251 ) ) ;
#212 = AXIS2_PLACEMENT_3D ( 'NONE', #363, #287, #9 ) ;
#213 = PERSON_AND_ORGANIZATION ( #12, #138 ) ;
#214 = LINE ( 'NONE', #153, #350 ) ;
#215 = VERTEX_POINT ( 'NONE', #194 ) ;
#216 = DIRECTION ( 'NONE',  ( 0.000000000000000000, 0.000000000000000000, 1.000000000000000000 ) ) ;
#217 = AXIS2_PLACEMENT_3D ( 'NONE', #380, #95, #38 ) ;
#218 = EDGE_CURVE ( 'NONE', #182, #209, #187, .T. ) ;
#219 = CARTESIAN_POINT ( 'NONE',  ( 0.000000000000000000, 0.000000000000000000, 0.000000000000000000 ) ) ;
#220 = ADVANCED_FACE ( 'NONE', ( #332, #63 ), #2, .F. ) ;
#221 = FACE_BOUND ( 'NONE', #114, .T. ) ;
#222 = CYLINDRICAL_SURFACE ( 'NONE', #264, 6.000000000000000888 ) ;
#223 = AXIS2_PLACEMENT_3D ( 'NONE', #322, #246, #90 ) ;
#224 = FACE_BOUND ( 'NONE', #300, .T. ) ;
#225 = DIRECTION ( 'NONE',  ( -1.000000000000000000, 0.000000000000000000, 0.000000000000000000 ) ) ;
#226 = DIRECTION ( 'NONE',  ( 0.000000000000000000, 0.000000000000000000, 1.000000000000000000 ) ) ;
#227 = MECHANICAL_CONTEXT ( 'NONE', #163, 'mechanical' ) ;
#228 = CC_DESIGN_SECURITY_CLASSIFICATION ( #94, ( #251 ) ) ;
#229 = CARTESIAN_POINT ( 'NONE',  ( 0.000000000000000000, 0.000000000000000000, 357.0000000000000000 ) ) ;
#230 = DIRECTION ( 'NONE',  ( 1.000000000000000000, 0.000000000000000000, 0.000000000000000000 ) ) ;
#231 = ORIENTED_EDGE ( 'NONE', *, *, #137, .F. ) ;
#232 = DIRECTION ( 'NONE',  ( 0.000000000000000000, 0.000000000000000000, 1.000000000000000000 ) ) ;
#233 = EDGE_CURVE ( 'NONE', #182, #139, #100, .T. ) ;
#234 = DIRECTION ( 'NONE',  ( 1.000000000000000000, 0.000000000000000000, 0.000000000000000000 ) ) ;
#235 = CALENDAR_DATE ( 2022, 8, 7 ) ;
#236 = EDGE_LOOP ( 'NONE', ( #277, #260, #317, #295 ) ) ;
#237 = CALENDAR_DATE ( 2022, 8, 7 ) ;
#238 = PRODUCT ( 'e121', 'e121', '', ( #227 ) ) ;
#239 = EDGE_LOOP ( 'NONE', ( #344, #48, #177, #141 ) ) ;
#240 = COORDINATED_UNIVERSAL_TIME_OFFSET ( 1, 0, .AHEAD. ) ;
#241 = PERSON_AND_ORGANIZATION ( #12, #138 ) ;
#242 = PERSON_AND_ORGANIZATION ( #12, #138 ) ;
#243 = CC_DESIGN_APPROVAL ( #315, ( #94 ) ) ;
#244 = LINE ( 'NONE', #379, #336 ) ;
#245 = APPROVAL_STATUS ( 'not_yet_approved' ) ;
#246 = DIRECTION ( 'NONE',  ( 0.000000000000000000, 0.000000000000000000, 1.000000000000000000 ) ) ;
#247 = ADVANCED_FACE ( 'NONE', ( #224, #41 ), #338, .T. ) ;
#248 = DIRECTION ( 'NONE',  ( 1.000000000000000000, 0.000000000000000000, 0.000000000000000000 ) ) ;
#249 = DIRECTION ( 'NONE',  ( -0.000000000000000000, -0.000000000000000000, -1.000000000000000000 ) ) ;
#250 = VECTOR ( 'NONE', #339, 1000.000000000000000 ) ;
#251 = PRODUCT_DEFINITION_FORMATION_WITH_SPECIFIED_SOURCE ( 'LIBOVOLNÝ', '', #238, .NOT_KNOWN. ) ;
#252 = ADVANCED_FACE ( 'NONE', ( #283 ), #222, .T. ) ;
#253 = CARTESIAN_POINT ( 'NONE',  ( 10.00000000000000000, 1.224646799147353256E-15, 0.000000000000000000 ) ) ;
#254 = EDGE_CURVE ( 'NONE', #144, #45, #324, .T. ) ;
#255 = CARTESIAN_POINT ( 'NONE',  ( 0.000000000000000000, 0.000000000000000000, 7.500000000000007105 ) ) ;
#256 = CARTESIAN_POINT ( 'NONE',  ( 0.000000000000000000, 0.000000000000000000, 0.000000000000000000 ) ) ;
#257 = PERSON_AND_ORGANIZATION_ROLE ( 'design_owner' ) ;
#258 = FACE_OUTER_BOUND ( 'NONE', #136, .T. ) ;
#259 = MANIFOLD_SOLID_BREP ( 'Odebrat vysunutím3', #348 ) ;
#260 = ORIENTED_EDGE ( 'NONE', *, *, #72, .T. ) ;
#261 = CARTESIAN_POINT ( 'NONE',  ( 0.000000000000000000, 0.000000000000000000, 7.000000000000000000 ) ) ;
#262 = DIRECTION ( 'NONE',  ( 0.000000000000000000, 0.000000000000000000, -1.000000000000000000 ) ) ;
#263 = EDGE_LOOP ( 'NONE', ( #149, #20 ) ) ;
#264 = AXIS2_PLACEMENT_3D ( 'NONE', #42, #249, #122 ) ;
#265 = APPROVAL ( #181, 'NEURÈENÝ' ) ;
#266 = ORIENTED_EDGE ( 'NONE', *, *, #35, .T. ) ;
#267 = APPROVAL_ROLE ( '' ) ;
#268 = APPROVAL_DATE_TIME ( #208, #265 ) ;
#269 = CARTESIAN_POINT ( 'NONE',  ( 3.000000000000000444, 3.673940397442060361E-16, 357.0000000000000000 ) ) ;
#270 = VERTEX_POINT ( 'NONE', #5 ) ;
#271 = LOCAL_TIME ( 16, 53, 20.00000000000000000, #110 ) ;
#272 = DATE_AND_TIME ( #237, #355 ) ;
#273 = CC_DESIGN_PERSON_AND_ORGANIZATION_ASSIGNMENT ( #213, #183, ( #94 ) ) ;
#274 = EDGE_LOOP ( 'NONE', ( #231, #119, #24, #70 ) ) ;
#275 = ADVANCED_FACE ( 'NONE', ( #160 ), #291, .F. ) ;
#276 = DATE_AND_TIME ( #56, #28 ) ;
#277 = ORIENTED_EDGE ( 'NONE', *, *, #254, .F. ) ;
#278 = ORIENTED_EDGE ( 'NONE', *, *, #167, .T. ) ;
#279 = EDGE_CURVE ( 'NONE', #139, #328, #376, .T. ) ;
#280 = CIRCLE ( 'NONE', #217, 6.500000000000000888 ) ;
#281 = DIRECTION ( 'NONE',  ( -0.000000000000000000, -0.000000000000000000, -1.000000000000000000 ) ) ;
#282 = ORIENTED_EDGE ( 'NONE', *, *, #152, .T. ) ;
#283 = FACE_OUTER_BOUND ( 'NONE', #347, .T. ) ;
#284 = DIRECTION ( 'NONE',  ( 1.000000000000000000, 0.000000000000000000, -0.000000000000000000 ) ) ;
#285 = EDGE_CURVE ( 'NONE', #320, #270, #341, .T. ) ;
#286 = DIRECTION ( 'NONE',  ( 0.000000000000000000, 0.000000000000000000, 1.000000000000000000 ) ) ;
#287 = DIRECTION ( 'NONE',  ( 0.000000000000000000, 0.000000000000000000, 1.000000000000000000 ) ) ;
#288 = DIRECTION ( 'NONE',  ( 1.000000000000000000, 0.000000000000000000, 0.000000000000000000 ) ) ;
#289 = DIRECTION ( 'NONE',  ( 1.000000000000000000, 0.000000000000000000, 0.000000000000000000 ) ) ;
#290 = DIRECTION ( 'NONE',  ( 1.000000000000000000, 0.000000000000000000, 0.000000000000000000 ) ) ;
#291 = TOROIDAL_SURFACE ( 'NONE', #367, 6.500000000000000888, 0.5000000000000000000 ) ;
#292 = APPLICATION_PROTOCOL_DEFINITION ( 'international standard', 'config_control_design', 1994, #349 ) ;
#293 = DATE_TIME_ROLE ( 'creation_date' ) ;
#294 = ADVANCED_FACE ( 'NONE', ( #8 ), #66, .T. ) ;
#295 = ORIENTED_EDGE ( 'NONE', *, *, #190, .F. ) ;
#296 = CC_DESIGN_PERSON_AND_ORGANIZATION_ASSIGNMENT ( #51, #257, ( #238 ) ) ;
#297 = DIRECTION ( 'NONE',  ( 1.000000000000000000, 0.000000000000000000, 0.000000000000000000 ) ) ;
#298 = LOCAL_TIME ( 16, 53, 20.00000000000000000, #178 ) ;
#299 = DIRECTION ( 'NONE',  ( -1.000000000000000000, 0.000000000000000000, 0.000000000000000000 ) ) ;
#300 = EDGE_LOOP ( 'NONE', ( #381, #278 ) ) ;
#301 = CYLINDRICAL_SURFACE ( 'NONE', #156, 3.000000000000000444 ) ;
#302 = EDGE_LOOP ( 'NONE', ( #107, #157, #369, #93 ) ) ;
#303 = EDGE_CURVE ( 'NONE', #45, #144, #40, .T. ) ;
#304 = CARTESIAN_POINT ( 'NONE',  ( 0.000000000000000000, 0.000000000000000000, 357.0000000000000000 ) ) ;
#305 = EDGE_CURVE ( 'NONE', #172, #1, #308, .T. ) ;
#306 = LINE ( 'NONE', #334, #17 ) ;
#307 = VECTOR ( 'NONE', #316, 1000.000000000000000 ) ;
#308 = CIRCLE ( 'NONE', #118, 10.00000000000000000 ) ;
#309 = DIRECTION ( 'NONE',  ( 0.000000000000000000, -1.000000000000000000, 0.000000000000000000 ) ) ;
#310 = DIRECTION ( 'NONE',  ( 1.224646799147353207E-16, 1.000000000000000000, -0.000000000000000000 ) ) ;
#311 = DIRECTION ( 'NONE',  ( 0.000000000000000000, 0.000000000000000000, 1.000000000000000000 ) ) ;
#312 = CARTESIAN_POINT ( 'NONE',  ( 0.000000000000000000, 0.000000000000000000, 7.000000000000000000 ) ) ;
#313 = CARTESIAN_POINT ( 'NONE',  ( 6.000000000000000888, 7.347880794884120722E-16, 357.0000000000000000 ) ) ;
#314 = DESIGN_CONTEXT ( 'detailed design', #349, 'design' ) ;
#315 = APPROVAL ( #245, 'NEURÈENÝ' ) ;
#316 = DIRECTION ( 'NONE',  ( -0.000000000000000000, -0.000000000000000000, -1.000000000000000000 ) ) ;
#317 = ORIENTED_EDGE ( 'NONE', *, *, #233, .T. ) ;
#318 = AXIS2_PLACEMENT_3D ( 'NONE', #374, #142, #47 ) ;
#319 = AXIS2_PLACEMENT_3D ( 'NONE', #37, #62, #127 ) ;
#320 = VERTEX_POINT ( 'NONE', #168 ) ;
#321 = PERSON_AND_ORGANIZATION_ROLE ( 'creator' ) ;
#322 = CARTESIAN_POINT ( 'NONE',  ( 0.000000000000000000, 0.000000000000000000, 357.0000000000000000 ) ) ;
#323 = ORIENTED_EDGE ( 'NONE', *, *, #58, .T. ) ;
#324 = CIRCLE ( 'NONE', #112, 6.000000000000000888 ) ;
#325 = APPROVAL_ROLE ( '' ) ;
#326 = PRODUCT_DEFINITION ( 'NEZNÁMÝ', '', #251, #314 ) ;
#327 = CARTESIAN_POINT ( 'NONE',  ( -3.000000000000000444, 0.000000000000000000, 357.0000000000000000 ) ) ;
#328 = VERTEX_POINT ( 'NONE', #74 ) ;
#329 = EDGE_LOOP ( 'NONE', ( #36, #82, #155, #121 ) ) ;
#330 = CC_DESIGN_PERSON_AND_ORGANIZATION_ASSIGNMENT ( #115, #321, ( #326 ) ) ;
#331 = ADVANCED_FACE ( 'NONE', ( #131 ), #175, .T. ) ;
#332 = FACE_BOUND ( 'NONE', #30, .T. ) ;
#333 = DIRECTION ( 'NONE',  ( 1.000000000000000000, 0.000000000000000000, -0.000000000000000000 ) ) ;
#334 = CARTESIAN_POINT ( 'NONE',  ( -10.00000000000000000, 0.000000000000000000, 7.000000000000000000 ) ) ;
#335 = TOROIDAL_SURFACE ( 'NONE', #212, 6.500000000000000888, 0.5000000000000000000 ) ;
#336 = VECTOR ( 'NONE', #185, 1000.000000000000000 ) ;
#337 = EDGE_LOOP ( 'NONE', ( #360, #202 ) ) ;
#338 = PLANE ( 'NONE',  #10 ) ;
#339 = DIRECTION ( 'NONE',  ( 0.000000000000000000, 0.000000000000000000, -1.000000000000000000 ) ) ;
#340 = CYLINDRICAL_SURFACE ( 'NONE', #180, 10.00000000000000000 ) ;
#341 = CIRCLE ( 'NONE', #193, 3.000000000000000444 ) ;
#342 = EDGE_LOOP ( 'NONE', ( #32, #60 ) ) ;
#343 = EDGE_CURVE ( 'NONE', #26, #215, #158, .T. ) ;
#344 = ORIENTED_EDGE ( 'NONE', *, *, #150, .F. ) ;
#345 = CARTESIAN_POINT ( 'NONE',  ( 0.000000000000000000, 0.000000000000000000, 0.000000000000000000 ) ) ;
#346 = DATE_AND_TIME ( #235, #271 ) ;
#347 = EDGE_LOOP ( 'NONE', ( #372, #79, #109, #15 ) ) ;
#348 = CLOSED_SHELL ( 'NONE', ( #73, #275, #294, #331, #352, #247, #220, #252, #7, #11, #161 ) ) ;
#349 = APPLICATION_CONTEXT ( 'configuration controlled 3d designs of mechanical parts and assemblies' ) ;
#350 = VECTOR ( 'NONE', #281, 1000.000000000000000 ) ;
#351 = PERSON_AND_ORGANIZATION ( #12, #138 ) ;
#352 = ADVANCED_FACE ( 'NONE', ( #258 ), #340, .T. ) ;
#353 = APPROVAL_ROLE ( '' ) ;
#354 = DIRECTION ( 'NONE',  ( -0.000000000000000000, -0.000000000000000000, -1.000000000000000000 ) ) ;
#355 = LOCAL_TIME ( 16, 53, 20.00000000000000000, #359 ) ;
#356 = DATE_TIME_ROLE ( 'classification_date' ) ;
#357 = CARTESIAN_POINT ( 'NONE',  ( 10.00000000000000000, 1.224646799147353256E-15, 7.000000000000000000 ) ) ;
#358 = ORIENTED_EDGE ( 'NONE', *, *, #152, .F. ) ;
#359 = COORDINATED_UNIVERSAL_TIME_OFFSET ( 1, 0, .AHEAD. ) ;
#360 = ORIENTED_EDGE ( 'NONE', *, *, #108, .T. ) ;
#361 = CARTESIAN_POINT ( 'NONE',  ( 0.000000000000000000, 0.000000000000000000, 357.0000000000000000 ) ) ;
#362 = AXIS2_PLACEMENT_3D ( 'NONE', #196, #162, #289 ) ;
#363 = CARTESIAN_POINT ( 'NONE',  ( 0.000000000000000000, 0.000000000000000000, 7.500000000000007105 ) ) ;
#364 = DIRECTION ( 'NONE',  ( 0.000000000000000000, 0.000000000000000000, 1.000000000000000000 ) ) ;
#365 = PRODUCT_RELATED_PRODUCT_CATEGORY ( 'detail', '', ( #238 ) ) ;
#366 = DIRECTION ( 'NONE',  ( -0.000000000000000000, -0.000000000000000000, -1.000000000000000000 ) ) ;
#367 = AXIS2_PLACEMENT_3D ( 'NONE', #126, #364, #288 ) ;
#368 = CARTESIAN_POINT ( 'NONE',  ( 0.000000000000000000, 0.000000000000000000, 357.0000000000000000 ) ) ;
#369 = ORIENTED_EDGE ( 'NONE', *, *, #218, .T. ) ;
#370 = CARTESIAN_POINT ( 'NONE',  ( 0.000000000000000000, 0.000000000000000000, 7.500000000000007105 ) ) ;
#371 = CIRCLE ( 'NONE', #52, 6.500000000000000888 ) ;
#372 = ORIENTED_EDGE ( 'NONE', *, *, #72, .F. ) ;
#373 = APPLICATION_PROTOCOL_DEFINITION ( 'international standard', 'config_control_design', 1994, #163 ) ;
#374 = CARTESIAN_POINT ( 'NONE',  ( 0.000000000000000000, 0.000000000000000000, 357.0000000000000000 ) ) ;
#375 = ORIENTED_EDGE ( 'NONE', *, *, #285, .F. ) ;
#376 = CIRCLE ( 'NONE', #46, 0.5000000000000004441 ) ;
#377 = PERSON_AND_ORGANIZATION ( #12, #138 ) ;
#378 = FACE_OUTER_BOUND ( 'NONE', #274, .T. ) ;
#379 = CARTESIAN_POINT ( 'NONE',  ( 10.00000000000000000, 1.224646799147353256E-15, 7.000000000000000000 ) ) ;
#380 = CARTESIAN_POINT ( 'NONE',  ( 0.000000000000000000, 0.000000000000000000, 7.000000000000000000 ) ) ;
#381 = ORIENTED_EDGE ( 'NONE', *, *, #198, .T. ) ;
ENDSEC;
END-ISO-10303-21;
