ISO-10303-21;
HEADER;
FILE_DESCRIPTION (( 'STEP AP203' ),
    '1' );
FILE_NAME ('9574.STEP',
    '2022-07-08T15:28:40',
    ( '' ),
    ( '' ),
    'SwSTEP 2.0',
    'SolidWorks 2019',
    '' );
FILE_SCHEMA (( 'CONFIG_CONTROL_DESIGN' ));
ENDSEC;

DATA;
#1 = CYLINDRICAL_SURFACE ( 'NONE', #214, 7.000000000000000000 ) ;
#2 = CYLINDRICAL_SURFACE ( 'NONE', #200, 7.000000000000000000 ) ;
#3 = ORIENTED_EDGE ( 'NONE', *, *, #56, .T. ) ;
#4 = LOCAL_TIME ( 17, 28, 40.00000000000000000, #152 ) ;
#5 = CARTESIAN_POINT ( 'NONE',  ( 0.000000000000000000, 0.000000000000000000, 105.0000000000000142 ) ) ;
#6 = DIRECTION ( 'NONE',  ( -1.000000000000000000, 0.000000000000000000, 0.000000000000000000 ) ) ;
#7 = PERSON_AND_ORGANIZATION_ROLE ( 'design_supplier' ) ;
#8 = CARTESIAN_POINT ( 'NONE',  ( 0.000000000000000000, 0.000000000000000000, 5.500000000000005329 ) ) ;
#9 = CARTESIAN_POINT ( 'NONE',  ( 0.000000000000000000, 0.000000000000000000, 105.0000000000000142 ) ) ;
#10 = CALENDAR_DATE ( 2022, 8, 7 ) ;
#11 = CIRCLE ( 'NONE', #373, 4.000000000000000000 ) ;
#12 = ORIENTED_EDGE ( 'NONE', *, *, #206, .F. ) ;
#13 = CC_DESIGN_DATE_AND_TIME_ASSIGNMENT ( #357, #196, ( #50 ) ) ;
#14 = APPLICATION_PROTOCOL_DEFINITION ( 'international standard', 'config_control_design', 1994, #193 ) ;
#15 = ORIENTED_EDGE ( 'NONE', *, *, #248, .F. ) ;
#16 = EDGE_CURVE ( 'NONE', #80, #55, #116, .T. ) ;
#17 = PERSON_AND_ORGANIZATION_ROLE ( 'design_owner' ) ;
#18 = EDGE_LOOP ( 'NONE', ( #192, #318, #229, #103 ) ) ;
#19 = ADVANCED_FACE ( 'NONE', ( #321 ), #2, .T. ) ;
#20 = CARTESIAN_POINT ( 'NONE',  ( -4.500000000000000888, 5.510910596163089556E-16, 5.500000000000005329 ) ) ;
#21 = UNCERTAINTY_MEASURE_WITH_UNIT (LENGTH_MEASURE( 1.000000000000000082E-05 ), #219, 'distance_accuracy_value', 'NONE');
#22 = ORIENTED_EDGE ( 'NONE', *, *, #150, .T. ) ;
#23 = AXIS2_PLACEMENT_3D ( 'NONE', #130, #48, #135 ) ;
#24 = CC_DESIGN_APPROVAL ( #232, ( #47 ) ) ;
#25 = EDGE_CURVE ( 'NONE', #55, #140, #11, .T. ) ;
#26 = ORIENTED_EDGE ( 'NONE', *, *, #108, .F. ) ;
#27 = DIRECTION ( 'NONE',  ( -0.000000000000000000, -0.000000000000000000, -1.000000000000000000 ) ) ;
#28 = CC_DESIGN_PERSON_AND_ORGANIZATION_ASSIGNMENT ( #223, #255, ( #47 ) ) ;
#29 = DIRECTION ( 'NONE',  ( 1.000000000000000000, 0.000000000000000000, 0.000000000000000000 ) ) ;
#30 = TOROIDAL_SURFACE ( 'NONE', #344, 4.500000000000000888, 0.5000000000000000000 ) ;
#31 = DIRECTION ( 'NONE',  ( -1.000000000000000000, 0.000000000000000000, 0.000000000000000000 ) ) ;
#32 = EDGE_CURVE ( 'NONE', #350, #80, #263, .T. ) ;
#33 = DIRECTION ( 'NONE',  ( 0.000000000000000000, 0.000000000000000000, 1.000000000000000000 ) ) ;
#34 = DIRECTION ( 'NONE',  ( 0.000000000000000000, 0.000000000000000000, -1.000000000000000000 ) ) ;
#35 = CARTESIAN_POINT ( 'NONE',  ( 0.000000000000000000, 0.000000000000000000, 105.0000000000000142 ) ) ;
#36 = APPROVAL_DATE_TIME ( #293, #70 ) ;
#37 = FACE_OUTER_BOUND ( 'NONE', #224, .T. ) ;
#38 = DIRECTION ( 'NONE',  ( 0.000000000000000000, 0.000000000000000000, 1.000000000000000000 ) ) ;
#39 = AXIS2_PLACEMENT_3D ( 'NONE', #301, #33, #294 ) ;
#40 = DIRECTION ( 'NONE',  ( 1.000000000000000000, 0.000000000000000000, -0.000000000000000000 ) ) ;
#41 = FACE_BOUND ( 'NONE', #45, .T. ) ;
#42 = MECHANICAL_CONTEXT ( 'NONE', #78, 'mechanical' ) ;
#43 = DIRECTION ( 'NONE',  ( 1.000000000000000000, 0.000000000000000000, 0.000000000000000000 ) ) ;
#44 = AXIS2_PLACEMENT_3D ( 'NONE', #153, #181, #362 ) ;
#45 = EDGE_LOOP ( 'NONE', ( #15, #285 ) ) ;
#46 = VERTEX_POINT ( 'NONE', #145 ) ;
#47 = PRODUCT_DEFINITION ( 'NEZNÁMÝ', '', #290, #66 ) ;
#48 = DIRECTION ( 'NONE',  ( -0.000000000000000000, -0.000000000000000000, -1.000000000000000000 ) ) ;
#49 = VERTEX_POINT ( 'NONE', #147 ) ;
#50 = SECURITY_CLASSIFICATION ( '', '', #261 ) ;
#51 = FACE_OUTER_BOUND ( 'NONE', #313, .T. ) ;
#52 = ORIENTED_EDGE ( 'NONE', *, *, #59, .T. ) ;
#53 = APPROVAL_PERSON_ORGANIZATION ( #141, #70, #121 ) ;
#54 = APPROVAL_STATUS ( 'not_yet_approved' ) ;
#55 = VERTEX_POINT ( 'NONE', #267 ) ;
#56 = EDGE_CURVE ( 'NONE', #310, #258, #269, .T. ) ;
#57 = CARTESIAN_POINT ( 'NONE',  ( 4.000000000000000000, 4.898587196589412829E-16, 105.0000000000000142 ) ) ;
#58 = CARTESIAN_POINT ( 'NONE',  ( 0.000000000000000000, 0.000000000000000000, 5.500000000000005329 ) ) ;
#59 = EDGE_CURVE ( 'NONE', #164, #109, #110, .T. ) ;
#60 = AXIS2_PLACEMENT_3D ( 'NONE', #20, #251, #194 ) ;
#61 = ORIENTED_EDGE ( 'NONE', *, *, #218, .T. ) ;
#62 = EDGE_CURVE ( 'NONE', #217, #49, #283, .T. ) ;
#63 = EDGE_LOOP ( 'NONE', ( #74, #161, #227, #376 ) ) ;
#64 = APPROVAL_ROLE ( '' ) ;
#65 = CARTESIAN_POINT ( 'NONE',  ( 0.000000000000000000, 0.000000000000000000, 5.000000000000000000 ) ) ;
#66 = DESIGN_CONTEXT ( 'detailed design', #193, 'design' ) ;
#67 = VECTOR ( 'NONE', #27, 1000.000000000000000 ) ;
#68 = DIRECTION ( 'NONE',  ( -0.000000000000000000, -0.000000000000000000, -1.000000000000000000 ) ) ;
#69 = DIRECTION ( 'NONE',  ( 0.000000000000000000, 0.000000000000000000, -1.000000000000000000 ) ) ;
#70 = APPROVAL ( #54, 'NEURÈENÝ' ) ;
#71 = DIRECTION ( 'NONE',  ( 1.000000000000000000, 0.000000000000000000, 0.000000000000000000 ) ) ;
#72 = CARTESIAN_POINT ( 'NONE',  ( 0.000000000000000000, 0.000000000000000000, 0.000000000000000000 ) ) ;
#73 = APPLICATION_PROTOCOL_DEFINITION ( 'international standard', 'config_control_design', 1994, #78 ) ;
#74 = ORIENTED_EDGE ( 'NONE', *, *, #16, .F. ) ;
#75 = DIRECTION ( 'NONE',  ( 1.000000000000000000, 0.000000000000000000, 0.000000000000000000 ) ) ;
#76 = ORIENTED_EDGE ( 'NONE', *, *, #248, .T. ) ;
#77 = ORIENTED_EDGE ( 'NONE', *, *, #338, .T. ) ;
#78 = APPLICATION_CONTEXT ( 'configuration controlled 3d designs of mechanical parts and assemblies' ) ;
#79 = DIRECTION ( 'NONE',  ( 0.000000000000000000, 0.000000000000000000, 1.000000000000000000 ) ) ;
#80 = VERTEX_POINT ( 'NONE', #83 ) ;
#81 = EDGE_CURVE ( 'NONE', #260, #175, #111, .T. ) ;
#82 = PERSON_AND_ORGANIZATION ( #365, #345 ) ;
#83 = CARTESIAN_POINT ( 'NONE',  ( 4.000000000000000000, 4.898587196589412829E-16, 105.0000000000000142 ) ) ;
#84 = CLOSED_SHELL ( 'NONE', ( #314, #97, #323, #19, #126, #203, #280, #243, #222, #297, #341 ) ) ;
#85 = DIRECTION ( 'NONE',  ( 0.000000000000000000, 0.000000000000000000, 1.000000000000000000 ) ) ;
#86 = CARTESIAN_POINT ( 'NONE',  ( -4.000000000000000000, 0.000000000000000000, 5.500000000000005329 ) ) ;
#87 = DIRECTION ( 'NONE',  ( 0.000000000000000000, 0.000000000000000000, 1.000000000000000000 ) ) ;
#88 = AXIS2_PLACEMENT_3D ( 'NONE', #5, #363, #6 ) ;
#89 = DIRECTION ( 'NONE',  ( -0.000000000000000000, -0.000000000000000000, -1.000000000000000000 ) ) ;
#90 = PERSON_AND_ORGANIZATION ( #365, #345 ) ;
#91 = FACE_OUTER_BOUND ( 'NONE', #235, .T. ) ;
#92 = FACE_BOUND ( 'NONE', #288, .T. ) ;
#93 = VECTOR ( 'NONE', #34, 1000.000000000000000 ) ;
#94 = CIRCLE ( 'NONE', #319, 4.000000000000000000 ) ;
#95 = CARTESIAN_POINT ( 'NONE',  ( 2.100000000000000089, 2.571758278209441957E-16, 105.0000000000000142 ) ) ;
#96 = CARTESIAN_POINT ( 'NONE',  ( 2.100000000000000089, 2.571758278209441957E-16, 0.000000000000000000 ) ) ;
#97 = ADVANCED_FACE ( 'NONE', ( #352 ), #326, .F. ) ;
#98 = CARTESIAN_POINT ( 'NONE',  ( -4.500000000000000888, 5.510910596163088569E-16, 5.000000000000002665 ) ) ;
#99 = CC_DESIGN_APPROVAL ( #70, ( #50 ) ) ;
#100 = AXIS2_PLACEMENT_3D ( 'NONE', #9, #151, #71 ) ;
#101 = CARTESIAN_POINT ( 'NONE',  ( 0.000000000000000000, 0.000000000000000000, 0.000000000000000000 ) ) ;
#102 = CYLINDRICAL_SURFACE ( 'NONE', #183, 2.100000000000000089 ) ;
#103 = ORIENTED_EDGE ( 'NONE', *, *, #146, .F. ) ;
#104 = ORIENTED_EDGE ( 'NONE', *, *, #338, .F. ) ;
#105 = CARTESIAN_POINT ( 'NONE',  ( -2.100000000000000089, 0.000000000000000000, 0.000000000000000000 ) ) ;
#106 = ORIENTED_EDGE ( 'NONE', *, *, #247, .F. ) ;
#107 = DIRECTION ( 'NONE',  ( 0.000000000000000000, 0.000000000000000000, -1.000000000000000000 ) ) ;
#108 = EDGE_CURVE ( 'NONE', #55, #49, #123, .T. ) ;
#109 = VERTEX_POINT ( 'NONE', #324 ) ;
#110 = LINE ( 'NONE', #204, #67 ) ;
#111 = LINE ( 'NONE', #233, #155 ) ;
#112 = CIRCLE ( 'NONE', #160, 2.100000000000000089 ) ;
#113 = CARTESIAN_POINT ( 'NONE',  ( 0.000000000000000000, 0.000000000000000000, 5.000000000000000000 ) ) ;
#114 = DIRECTION ( 'NONE',  ( 1.000000000000000000, 0.000000000000000000, 0.000000000000000000 ) ) ;
#115 = CIRCLE ( 'NONE', #337, 2.100000000000000089 ) ;
#116 = LINE ( 'NONE', #57, #250 ) ;
#117 = APPROVAL_PERSON_ORGANIZATION ( #210, #220, #64 ) ;
#118 = LINE ( 'NONE', #335, #298 ) ;
#119 = FACE_BOUND ( 'NONE', #166, .T. ) ;
#120 = EDGE_CURVE ( 'NONE', #46, #310, #112, .T. ) ;
#121 = APPROVAL_ROLE ( '' ) ;
#122 = DIRECTION ( 'NONE',  ( 0.000000000000000000, 0.000000000000000000, 1.000000000000000000 ) ) ;
#123 = CIRCLE ( 'NONE', #306, 0.5000000000000004441 ) ;
#124 = AXIS2_PLACEMENT_3D ( 'NONE', #249, #190, #187 ) ;
#125 = CARTESIAN_POINT ( 'NONE',  ( 0.000000000000000000, 0.000000000000000000, 5.500000000000005329 ) ) ;
#126 = ADVANCED_FACE ( 'NONE', ( #144 ), #1, .T. ) ;
#127 = CARTESIAN_POINT ( 'NONE',  ( 0.000000000000000000, 0.000000000000000000, 0.000000000000000000 ) ) ;
#128 = DIRECTION ( 'NONE',  ( -1.000000000000000000, 0.000000000000000000, 0.000000000000000000 ) ) ;
#129 = CIRCLE ( 'NONE', #351, 4.500000000000000888 ) ;
#130 = CARTESIAN_POINT ( 'NONE',  ( 0.000000000000000000, 0.000000000000000000, 105.0000000000000142 ) ) ;
#131 = EDGE_LOOP ( 'NONE', ( #266, #149 ) ) ;
#132 = CC_DESIGN_PERSON_AND_ORGANIZATION_ASSIGNMENT ( #90, #7, ( #290 ) ) ;
#133 = APPROVAL_DATE_TIME ( #317, #232 ) ;
#134 = ORIENTED_EDGE ( 'NONE', *, *, #25, .F. ) ;
#135 = DIRECTION ( 'NONE',  ( -1.000000000000000000, 0.000000000000000000, 0.000000000000000000 ) ) ;
#136 = EDGE_LOOP ( 'NONE', ( #370, #106, #52, #368 ) ) ;
#137 = AXIS2_PLACEMENT_3D ( 'NONE', #72, #238, #332 ) ;
#138 = DATE_AND_TIME ( #163, #165 ) ;
#139 =( GEOMETRIC_REPRESENTATION_CONTEXT ( 3 ) GLOBAL_UNCERTAINTY_ASSIGNED_CONTEXT ( ( #21 ) ) GLOBAL_UNIT_ASSIGNED_CONTEXT ( ( #219, #369, #284 ) ) REPRESENTATION_CONTEXT ( 'NONE', 'WORKASPACE' ) );
#140 = VERTEX_POINT ( 'NONE', #86 ) ;
#141 = PERSON_AND_ORGANIZATION ( #365, #345 ) ;
#142 = ORIENTED_EDGE ( 'NONE', *, *, #120, .F. ) ;
#143 = CIRCLE ( 'NONE', #137, 2.100000000000000089 ) ;
#144 = FACE_OUTER_BOUND ( 'NONE', #136, .T. ) ;
#145 = CARTESIAN_POINT ( 'NONE',  ( -2.100000000000000089, 0.000000000000000000, 105.0000000000000142 ) ) ;
#146 = EDGE_CURVE ( 'NONE', #350, #140, #199, .T. ) ;
#147 = CARTESIAN_POINT ( 'NONE',  ( 4.500000000000000888, 0.000000000000000000, 5.000000000000002665 ) ) ;
#148 = MANIFOLD_SOLID_BREP ( 'Odebrat vysunutím3', #84 ) ;
#149 = ORIENTED_EDGE ( 'NONE', *, *, #379, .T. ) ;
#150 = EDGE_CURVE ( 'NONE', #310, #46, #381, .T. ) ;
#151 = DIRECTION ( 'NONE',  ( 0.000000000000000000, 0.000000000000000000, 1.000000000000000000 ) ) ;
#152 = COORDINATED_UNIVERSAL_TIME_OFFSET ( 1, 0, .AHEAD. ) ;
#153 = CARTESIAN_POINT ( 'NONE',  ( 0.000000000000000000, 0.000000000000000000, 0.000000000000000000 ) ) ;
#154 = DIRECTION ( 'NONE',  ( 0.000000000000000000, 0.000000000000000000, 1.000000000000000000 ) ) ;
#155 = VECTOR ( 'NONE', #327, 1000.000000000000000 ) ;
#156 = DIRECTION ( 'NONE',  ( 1.000000000000000000, 0.000000000000000000, 0.000000000000000000 ) ) ;
#157 = DIRECTION ( 'NONE',  ( 1.000000000000000000, 0.000000000000000000, -0.000000000000000000 ) ) ;
#158 = DIRECTION ( 'NONE',  ( -0.000000000000000000, -0.000000000000000000, -1.000000000000000000 ) ) ;
#159 = ORIENTED_EDGE ( 'NONE', *, *, #62, .T. ) ;
#160 = AXIS2_PLACEMENT_3D ( 'NONE', #300, #169, #29 ) ;
#161 = ORIENTED_EDGE ( 'NONE', *, *, #32, .F. ) ;
#162 = ORIENTED_EDGE ( 'NONE', *, *, #120, .T. ) ;
#163 = CALENDAR_DATE ( 2022, 8, 7 ) ;
#164 = VERTEX_POINT ( 'NONE', #184 ) ;
#165 = LOCAL_TIME ( 17, 28, 40.00000000000000000, #253 ) ;
#166 = EDGE_LOOP ( 'NONE', ( #282, #159 ) ) ;
#167 = APPROVAL_STATUS ( 'not_yet_approved' ) ;
#168 = DIRECTION ( 'NONE',  ( -0.000000000000000000, -0.000000000000000000, -1.000000000000000000 ) ) ;
#169 = DIRECTION ( 'NONE',  ( 0.000000000000000000, 0.000000000000000000, 1.000000000000000000 ) ) ;
#170 = AXIS2_PLACEMENT_3D ( 'NONE', #65, #276, #157 ) ;
#171 = CARTESIAN_POINT ( 'NONE',  ( -4.000000000000000000, 0.000000000000000000, 105.0000000000000142 ) ) ;
#172 = CIRCLE ( 'NONE', #124, 7.000000000000000000 ) ;
#173 = CARTESIAN_POINT ( 'NONE',  ( 0.000000000000000000, 0.000000000000000000, 5.000000000000000000 ) ) ;
#174 = EDGE_CURVE ( 'NONE', #109, #175, #209, .T. ) ;
#175 = VERTEX_POINT ( 'NONE', #364 ) ;
#176 = COORDINATED_UNIVERSAL_TIME_OFFSET ( 1, 0, .AHEAD. ) ;
#177 = FACE_OUTER_BOUND ( 'NONE', #262, .T. ) ;
#178 = AXIS2_PLACEMENT_3D ( 'NONE', #35, #330, #336 ) ;
#179 = DATE_TIME_ROLE ( 'creation_date' ) ;
#180 = CARTESIAN_POINT ( 'NONE',  ( 0.000000000000000000, 0.000000000000000000, 5.000000000000000000 ) ) ;
#181 = DIRECTION ( 'NONE',  ( 0.000000000000000000, 0.000000000000000000, 1.000000000000000000 ) ) ;
#182 = CARTESIAN_POINT ( 'NONE',  ( 7.000000000000000000, 8.572527594031473190E-16, 5.000000000000000000 ) ) ;
#183 = AXIS2_PLACEMENT_3D ( 'NONE', #342, #107, #279 ) ;
#184 = CARTESIAN_POINT ( 'NONE',  ( -7.000000000000000000, 0.000000000000000000, 5.000000000000000000 ) ) ;
#185 = CYLINDRICAL_SURFACE ( 'NONE', #23, 4.000000000000000000 ) ;
#186 = ORIENTED_EDGE ( 'NONE', *, *, #198, .F. ) ;
#187 = DIRECTION ( 'NONE',  ( 1.000000000000000000, 0.000000000000000000, 0.000000000000000000 ) ) ;
#188 = ORIENTED_EDGE ( 'NONE', *, *, #375, .T. ) ;
#189 = AXIS2_PLACEMENT_3D ( 'NONE', #127, #275, #40 ) ;
#190 = DIRECTION ( 'NONE',  ( 0.000000000000000000, 0.000000000000000000, 1.000000000000000000 ) ) ;
#191 = ORIENTED_EDGE ( 'NONE', *, *, #218, .F. ) ;
#192 = ORIENTED_EDGE ( 'NONE', *, *, #346, .F. ) ;
#193 = APPLICATION_CONTEXT ( 'configuration controlled 3d designs of mechanical parts and assemblies' ) ;
#194 = DIRECTION ( 'NONE',  ( -1.000000000000000000, 1.224646799147351482E-16, 0.000000000000000000 ) ) ;
#195 = ORIENTED_EDGE ( 'NONE', *, *, #379, .F. ) ;
#196 = DATE_TIME_ROLE ( 'classification_date' ) ;
#197 = DIRECTION ( 'NONE',  ( 0.000000000000000000, -1.000000000000000000, 0.000000000000000000 ) ) ;
#198 = EDGE_CURVE ( 'NONE', #140, #55, #94, .T. ) ;
#199 = LINE ( 'NONE', #171, #268 ) ;
#200 = AXIS2_PLACEMENT_3D ( 'NONE', #173, #168, #31 ) ;
#201 = CARTESIAN_POINT ( 'NONE',  ( 0.000000000000000000, 0.000000000000000000, 5.500000000000005329 ) ) ;
#202 = LOCAL_TIME ( 17, 28, 40.00000000000000000, #281 ) ;
#203 = ADVANCED_FACE ( 'NONE', ( #119, #359 ), #307, .T. ) ;
#204 = CARTESIAN_POINT ( 'NONE',  ( -7.000000000000000000, 0.000000000000000000, 5.000000000000000000 ) ) ;
#205 = DIRECTION ( 'NONE',  ( 0.000000000000000000, 0.000000000000000000, 1.000000000000000000 ) ) ;
#206 = EDGE_CURVE ( 'NONE', #49, #217, #129, .T. ) ;
#207 = CALENDAR_DATE ( 2022, 8, 7 ) ;
#208 = DIRECTION ( 'NONE',  ( 1.000000000000000000, 0.000000000000000000, 0.000000000000000000 ) ) ;
#209 = CIRCLE ( 'NONE', #44, 7.000000000000000000 ) ;
#210 = PERSON_AND_ORGANIZATION ( #365, #345 ) ;
#211 = CYLINDRICAL_SURFACE ( 'NONE', #225, 2.100000000000000089 ) ;
#212 = DIRECTION ( 'NONE',  ( 1.000000000000000000, 0.000000000000000000, 0.000000000000000000 ) ) ;
#213 = FACE_OUTER_BOUND ( 'NONE', #63, .T. ) ;
#214 = AXIS2_PLACEMENT_3D ( 'NONE', #113, #234, #325 ) ;
#215 = LOCAL_TIME ( 17, 28, 40.00000000000000000, #333 ) ;
#216 = DIRECTION ( 'NONE',  ( 1.000000000000000000, 0.000000000000000000, 0.000000000000000000 ) ) ;
#217 = VERTEX_POINT ( 'NONE', #98 ) ;
#218 = EDGE_CURVE ( 'NONE', #46, #340, #118, .T. ) ;
#219 =( LENGTH_UNIT ( ) NAMED_UNIT ( * ) SI_UNIT ( .MILLI., .METRE. ) );
#220 = APPROVAL ( #167, 'NEURÈENÝ' ) ;
#221 = ORIENTED_EDGE ( 'NONE', *, *, #32, .T. ) ;
#222 = ADVANCED_FACE ( 'NONE', ( #92, #177 ), #278, .T. ) ;
#223 = PERSON_AND_ORGANIZATION ( #365, #345 ) ;
#224 = EDGE_LOOP ( 'NONE', ( #162, #3, #188, #191 ) ) ;
#225 = AXIS2_PLACEMENT_3D ( 'NONE', #334, #69, #128 ) ;
#226 = APPROVAL_STATUS ( 'not_yet_approved' ) ;
#227 = ORIENTED_EDGE ( 'NONE', *, *, #146, .T. ) ;
#228 = CARTESIAN_POINT ( 'NONE',  ( -4.000000000000000000, 0.000000000000000000, 105.0000000000000142 ) ) ;
#229 = ORIENTED_EDGE ( 'NONE', *, *, #25, .T. ) ;
#230 = CARTESIAN_POINT ( 'NONE',  ( 0.000000000000000000, 0.000000000000000000, 5.000000000000000000 ) ) ;
#231 = AXIS2_PLACEMENT_3D ( 'NONE', #230, #89, #237 ) ;
#232 = APPROVAL ( #226, 'NEURÈENÝ' ) ;
#233 = CARTESIAN_POINT ( 'NONE',  ( 7.000000000000000000, 8.572527594031473190E-16, 5.000000000000000000 ) ) ;
#234 = DIRECTION ( 'NONE',  ( -0.000000000000000000, -0.000000000000000000, -1.000000000000000000 ) ) ;
#235 = EDGE_LOOP ( 'NONE', ( #104, #134, #292, #286 ) ) ;
#236 = CIRCLE ( 'NONE', #289, 4.000000000000000000 ) ;
#237 = DIRECTION ( 'NONE',  ( 1.000000000000000000, 0.000000000000000000, 0.000000000000000000 ) ) ;
#238 = DIRECTION ( 'NONE',  ( -0.000000000000000000, -0.000000000000000000, -1.000000000000000000 ) ) ;
#239 = DIRECTION ( 'NONE',  ( -0.000000000000000000, -0.000000000000000000, -1.000000000000000000 ) ) ;
#240 = DIRECTION ( 'NONE',  ( 1.000000000000000000, 0.000000000000000000, 0.000000000000000000 ) ) ;
#241 = CC_DESIGN_PERSON_AND_ORGANIZATION_ASSIGNMENT ( #82, #320, ( #50 ) ) ;
#242 = CC_DESIGN_APPROVAL ( #220, ( #290 ) ) ;
#243 = ADVANCED_FACE ( 'NONE', ( #213 ), #272, .T. ) ;
#244 = DIRECTION ( 'NONE',  ( 0.000000000000000000, 0.000000000000000000, -1.000000000000000000 ) ) ;
#245 = PRODUCT_RELATED_PRODUCT_CATEGORY ( 'detail', '', ( #322 ) ) ;
#246 = DIRECTION ( 'NONE',  ( 1.000000000000000000, 0.000000000000000000, 0.000000000000000000 ) ) ;
#247 = EDGE_CURVE ( 'NONE', #164, #260, #312, .T. ) ;
#248 = EDGE_CURVE ( 'NONE', #340, #258, #143, .T. ) ;
#249 = CARTESIAN_POINT ( 'NONE',  ( 0.000000000000000000, 0.000000000000000000, 5.000000000000000000 ) ) ;
#250 = VECTOR ( 'NONE', #353, 1000.000000000000000 ) ;
#251 = DIRECTION ( 'NONE',  ( 1.224646799147353207E-16, 1.000000000000000000, -0.000000000000000000 ) ) ;
#252 = ORIENTED_EDGE ( 'NONE', *, *, #259, .F. ) ;
#253 = COORDINATED_UNIVERSAL_TIME_OFFSET ( 1, 0, .AHEAD. ) ;
#254 = ORIENTED_EDGE ( 'NONE', *, *, #81, .T. ) ;
#255 = PERSON_AND_ORGANIZATION_ROLE ( 'creator' ) ;
#256 = ORIENTED_EDGE ( 'NONE', *, *, #259, .T. ) ;
#257 = CARTESIAN_POINT ( 'NONE',  ( 0.000000000000000000, 0.000000000000000000, 105.0000000000000142 ) ) ;
#258 = VERTEX_POINT ( 'NONE', #96 ) ;
#259 = EDGE_CURVE ( 'NONE', #175, #109, #354, .T. ) ;
#260 = VERTEX_POINT ( 'NONE', #182 ) ;
#261 = SECURITY_CLASSIFICATION_LEVEL ( 'unclassified' ) ;
#262 = EDGE_LOOP ( 'NONE', ( #221, #349 ) ) ;
#263 = CIRCLE ( 'NONE', #39, 4.000000000000000000 ) ;
#264 = SHAPE_DEFINITION_REPRESENTATION ( #339, #329 ) ;
#265 = DIRECTION ( 'NONE',  ( 0.000000000000000000, 0.000000000000000000, -1.000000000000000000 ) ) ;
#266 = ORIENTED_EDGE ( 'NONE', *, *, #247, .T. ) ;
#267 = CARTESIAN_POINT ( 'NONE',  ( 4.000000000000000000, 4.898587196589412829E-16, 5.500000000000005329 ) ) ;
#268 = VECTOR ( 'NONE', #68, 1000.000000000000000 ) ;
#269 = LINE ( 'NONE', #380, #93 ) ;
#270 = LOCAL_TIME ( 17, 28, 40.00000000000000000, #176 ) ;
#271 = PERSON_AND_ORGANIZATION_ROLE ( 'creator' ) ;
#272 = CYLINDRICAL_SURFACE ( 'NONE', #88, 4.000000000000000000 ) ;
#273 = APPROVAL_DATE_TIME ( #360, #220 ) ;
#274 = CC_DESIGN_PERSON_AND_ORGANIZATION_ASSIGNMENT ( #377, #271, ( #290 ) ) ;
#275 = DIRECTION ( 'NONE',  ( 0.000000000000000000, 0.000000000000000000, 1.000000000000000000 ) ) ;
#276 = DIRECTION ( 'NONE',  ( 0.000000000000000000, 0.000000000000000000, 1.000000000000000000 ) ) ;
#277 = CIRCLE ( 'NONE', #60, 0.5000000000000004441 ) ;
#278 = PLANE ( 'NONE',  #178 ) ;
#279 = DIRECTION ( 'NONE',  ( -1.000000000000000000, 0.000000000000000000, 0.000000000000000000 ) ) ;
#280 = ADVANCED_FACE ( 'NONE', ( #41, #305 ), #356, .F. ) ;
#281 = COORDINATED_UNIVERSAL_TIME_OFFSET ( 1, 0, .AHEAD. ) ;
#282 = ORIENTED_EDGE ( 'NONE', *, *, #206, .T. ) ;
#283 = CIRCLE ( 'NONE', #231, 4.500000000000000888 ) ;
#284 =( NAMED_UNIT ( * ) SI_UNIT ( $, .STERADIAN. ) SOLID_ANGLE_UNIT ( ) );
#285 = ORIENTED_EDGE ( 'NONE', *, *, #375, .F. ) ;
#286 = ORIENTED_EDGE ( 'NONE', *, *, #62, .F. ) ;
#287 = DIRECTION ( 'NONE',  ( 0.000000000000000000, 0.000000000000000000, 1.000000000000000000 ) ) ;
#288 = EDGE_LOOP ( 'NONE', ( #142, #316 ) ) ;
#289 = AXIS2_PLACEMENT_3D ( 'NONE', #257, #287, #43 ) ;
#290 = PRODUCT_DEFINITION_FORMATION_WITH_SPECIFIED_SOURCE ( 'LIBOVOLNÝ', '', #322, .NOT_KNOWN. ) ;
#291 = CALENDAR_DATE ( 2022, 8, 7 ) ;
#292 = ORIENTED_EDGE ( 'NONE', *, *, #108, .T. ) ;
#293 = DATE_AND_TIME ( #328, #270 ) ;
#294 = DIRECTION ( 'NONE',  ( 1.000000000000000000, 0.000000000000000000, 0.000000000000000000 ) ) ;
#295 = CC_DESIGN_DATE_AND_TIME_ASSIGNMENT ( #138, #179, ( #47 ) ) ;
#296 = DIRECTION ( 'NONE',  ( 1.000000000000000000, 0.000000000000000000, 0.000000000000000000 ) ) ;
#297 = ADVANCED_FACE ( 'NONE', ( #91 ), #30, .F. ) ;
#298 = VECTOR ( 'NONE', #244, 1000.000000000000000 ) ;
#299 = CC_DESIGN_SECURITY_CLASSIFICATION ( #50, ( #290 ) ) ;
#300 = CARTESIAN_POINT ( 'NONE',  ( 0.000000000000000000, 0.000000000000000000, 105.0000000000000142 ) ) ;
#301 = CARTESIAN_POINT ( 'NONE',  ( 0.000000000000000000, 0.000000000000000000, 105.0000000000000142 ) ) ;
#302 = ORIENTED_EDGE ( 'NONE', *, *, #174, .F. ) ;
#303 = CARTESIAN_POINT ( 'NONE',  ( 0.000000000000000000, 0.000000000000000000, 5.000000000000000000 ) ) ;
#304 = CARTESIAN_POINT ( 'NONE',  ( 0.000000000000000000, 0.000000000000000000, 0.000000000000000000 ) ) ;
#305 = FACE_OUTER_BOUND ( 'NONE', #347, .T. ) ;
#306 = AXIS2_PLACEMENT_3D ( 'NONE', #355, #197, #265 ) ;
#307 = PLANE ( 'NONE',  #170 ) ;
#308 = EDGE_LOOP ( 'NONE', ( #186, #77, #12, #26 ) ) ;
#309 = PERSON_AND_ORGANIZATION ( #365, #345 ) ;
#310 = VERTEX_POINT ( 'NONE', #95 ) ;
#311 = AXIS2_PLACEMENT_3D ( 'NONE', #180, #38, #208 ) ;
#312 = CIRCLE ( 'NONE', #311, 7.000000000000000000 ) ;
#313 = EDGE_LOOP ( 'NONE', ( #378, #22, #61, #76 ) ) ;
#314 = ADVANCED_FACE ( 'NONE', ( #37 ), #211, .F. ) ;
#315 = APPROVAL_ROLE ( '' ) ;
#316 = ORIENTED_EDGE ( 'NONE', *, *, #150, .F. ) ;
#317 = DATE_AND_TIME ( #10, #202 ) ;
#318 = ORIENTED_EDGE ( 'NONE', *, *, #16, .T. ) ;
#319 = AXIS2_PLACEMENT_3D ( 'NONE', #125, #154, #246 ) ;
#320 = PERSON_AND_ORGANIZATION_ROLE ( 'classification_officer' ) ;
#321 = FACE_OUTER_BOUND ( 'NONE', #372, .T. ) ;
#322 = PRODUCT ( '9574', '9574', '', ( #42 ) ) ;
#323 = ADVANCED_FACE ( 'NONE', ( #371 ), #185, .T. ) ;
#324 = CARTESIAN_POINT ( 'NONE',  ( -7.000000000000000000, 0.000000000000000000, 0.000000000000000000 ) ) ;
#325 = DIRECTION ( 'NONE',  ( -1.000000000000000000, 0.000000000000000000, 0.000000000000000000 ) ) ;
#326 = TOROIDAL_SURFACE ( 'NONE', #331, 4.500000000000000888, 0.5000000000000000000 ) ;
#327 = DIRECTION ( 'NONE',  ( -0.000000000000000000, -0.000000000000000000, -1.000000000000000000 ) ) ;
#328 = CALENDAR_DATE ( 2022, 8, 7 ) ;
#329 = ADVANCED_BREP_SHAPE_REPRESENTATION ( '9574', ( #148, #374 ), #139 ) ;
#330 = DIRECTION ( 'NONE',  ( 0.000000000000000000, 0.000000000000000000, 1.000000000000000000 ) ) ;
#331 = AXIS2_PLACEMENT_3D ( 'NONE', #58, #85, #114 ) ;
#332 = DIRECTION ( 'NONE',  ( 1.000000000000000000, 0.000000000000000000, 0.000000000000000000 ) ) ;
#333 = COORDINATED_UNIVERSAL_TIME_OFFSET ( 1, 0, .AHEAD. ) ;
#334 = CARTESIAN_POINT ( 'NONE',  ( 0.000000000000000000, 0.000000000000000000, 105.0000000000000142 ) ) ;
#335 = CARTESIAN_POINT ( 'NONE',  ( -2.100000000000000089, 0.000000000000000000, 105.0000000000000142 ) ) ;
#336 = DIRECTION ( 'NONE',  ( 1.000000000000000000, 0.000000000000000000, -0.000000000000000000 ) ) ;
#337 = AXIS2_PLACEMENT_3D ( 'NONE', #367, #158, #75 ) ;
#338 = EDGE_CURVE ( 'NONE', #140, #217, #277, .T. ) ;
#339 = PRODUCT_DEFINITION_SHAPE ( 'NONE', 'NONE',  #47 ) ;
#340 = VERTEX_POINT ( 'NONE', #105 ) ;
#341 = ADVANCED_FACE ( 'NONE', ( #51 ), #102, .F. ) ;
#342 = CARTESIAN_POINT ( 'NONE',  ( 0.000000000000000000, 0.000000000000000000, 105.0000000000000142 ) ) ;
#343 = ORIENTED_EDGE ( 'NONE', *, *, #59, .F. ) ;
#344 = AXIS2_PLACEMENT_3D ( 'NONE', #8, #122, #240 ) ;
#345 = ORGANIZATION ( 'NEURÈENÝ', 'NEURÈENÝ', '' ) ;
#346 = EDGE_CURVE ( 'NONE', #80, #350, #236, .T. ) ;
#347 = EDGE_LOOP ( 'NONE', ( #302, #252 ) ) ;
#348 = PERSON_AND_ORGANIZATION ( #365, #345 ) ;
#349 = ORIENTED_EDGE ( 'NONE', *, *, #346, .T. ) ;
#350 = VERTEX_POINT ( 'NONE', #228 ) ;
#351 = AXIS2_PLACEMENT_3D ( 'NONE', #303, #239, #156 ) ;
#352 = FACE_OUTER_BOUND ( 'NONE', #308, .T. ) ;
#353 = DIRECTION ( 'NONE',  ( -0.000000000000000000, -0.000000000000000000, -1.000000000000000000 ) ) ;
#354 = CIRCLE ( 'NONE', #361, 7.000000000000000000 ) ;
#355 = CARTESIAN_POINT ( 'NONE',  ( 4.500000000000000888, 0.000000000000000000, 5.500000000000005329 ) ) ;
#356 = PLANE ( 'NONE',  #189 ) ;
#357 = DATE_AND_TIME ( #207, #215 ) ;
#358 = CC_DESIGN_PERSON_AND_ORGANIZATION_ASSIGNMENT ( #309, #17, ( #322 ) ) ;
#359 = FACE_OUTER_BOUND ( 'NONE', #131, .T. ) ;
#360 = DATE_AND_TIME ( #291, #4 ) ;
#361 = AXIS2_PLACEMENT_3D ( 'NONE', #304, #205, #212 ) ;
#362 = DIRECTION ( 'NONE',  ( 1.000000000000000000, 0.000000000000000000, 0.000000000000000000 ) ) ;
#363 = DIRECTION ( 'NONE',  ( -0.000000000000000000, -0.000000000000000000, -1.000000000000000000 ) ) ;
#364 = CARTESIAN_POINT ( 'NONE',  ( 7.000000000000000000, 8.572527594031473190E-16, 0.000000000000000000 ) ) ;
#365 = PERSON ( 'NEURÈENÝ', 'NEURÈENÝ', 'NEURÈENÝ', ('NEURÈENÝ'), ('NEURÈENÝ'), ('NEURÈENÝ') ) ;
#366 = APPROVAL_PERSON_ORGANIZATION ( #348, #232, #315 ) ;
#367 = CARTESIAN_POINT ( 'NONE',  ( 0.000000000000000000, 0.000000000000000000, 0.000000000000000000 ) ) ;
#368 = ORIENTED_EDGE ( 'NONE', *, *, #174, .T. ) ;
#369 =( NAMED_UNIT ( * ) PLANE_ANGLE_UNIT ( ) SI_UNIT ( $, .RADIAN. ) );
#370 = ORIENTED_EDGE ( 'NONE', *, *, #81, .F. ) ;
#371 = FACE_OUTER_BOUND ( 'NONE', #18, .T. ) ;
#372 = EDGE_LOOP ( 'NONE', ( #195, #254, #256, #343 ) ) ;
#373 = AXIS2_PLACEMENT_3D ( 'NONE', #201, #87, #296 ) ;
#374 = AXIS2_PLACEMENT_3D ( 'NONE', #101, #79, #216 ) ;
#375 = EDGE_CURVE ( 'NONE', #258, #340, #115, .T. ) ;
#376 = ORIENTED_EDGE ( 'NONE', *, *, #198, .T. ) ;
#377 = PERSON_AND_ORGANIZATION ( #365, #345 ) ;
#378 = ORIENTED_EDGE ( 'NONE', *, *, #56, .F. ) ;
#379 = EDGE_CURVE ( 'NONE', #260, #164, #172, .T. ) ;
#380 = CARTESIAN_POINT ( 'NONE',  ( 2.100000000000000089, 2.571758278209441957E-16, 105.0000000000000142 ) ) ;
#381 = CIRCLE ( 'NONE', #100, 2.100000000000000089 ) ;
ENDSEC;
END-ISO-10303-21;
