ISO-10303-21;
HEADER;
FILE_DESCRIPTION (( 'STEP AP203' ),
    '1' );
FILE_NAME ('fc72.STEP',
    '2022-07-08T14:24:31',
    ( '' ),
    ( '' ),
    'SwSTEP 2.0',
    'SolidWorks 2019',
    '' );
FILE_SCHEMA (( 'CONFIG_CONTROL_DESIGN' ));
ENDSEC;

DATA;
#1 = CARTESIAN_POINT ( 'NONE',  ( 11.00000000000000000, 1.347111479062088405E-15, 7.000000000000000000 ) ) ;
#2 = AXIS2_PLACEMENT_3D ( 'NONE', #375, #115, #341 ) ;
#3 = ORIENTED_EDGE ( 'NONE', *, *, #294, .T. ) ;
#4 = CYLINDRICAL_SURFACE ( 'NONE', #211, 5.000000000000000000 ) ;
#5 = ORIENTED_EDGE ( 'NONE', *, *, #267, .F. ) ;
#6 = CARTESIAN_POINT ( 'NONE',  ( 0.000000000000000000, 0.000000000000000000, 7.000000000000000000 ) ) ;
#7 = ORIENTED_EDGE ( 'NONE', *, *, #91, .F. ) ;
#8 = CARTESIAN_POINT ( 'NONE',  ( -7.700000000000001066, 9.429780353434621002E-16, 7.699999999999998401 ) ) ;
#9 = ORIENTED_EDGE ( 'NONE', *, *, #304, .F. ) ;
#10 = DIRECTION ( 'NONE',  ( -1.000000000000000000, 0.000000000000000000, 0.000000000000000000 ) ) ;
#11 = EDGE_LOOP ( 'NONE', ( #276, #104, #9, #333 ) ) ;
#12 = AXIS2_PLACEMENT_3D ( 'NONE', #240, #97, #92 ) ;
#13 = PLANE ( 'NONE',  #352 ) ;
#14 = APPROVAL_ROLE ( '' ) ;
#15 = ORIENTED_EDGE ( 'NONE', *, *, #163, .F. ) ;
#16 = DIRECTION ( 'NONE',  ( 1.000000000000000000, 0.000000000000000000, 0.000000000000000000 ) ) ;
#17 = CARTESIAN_POINT ( 'NONE',  ( 0.000000000000000000, 0.000000000000000000, 7.699999999999998401 ) ) ;
#18 = UNCERTAINTY_MEASURE_WITH_UNIT (LENGTH_MEASURE( 1.000000000000000082E-05 ), #67, 'distance_accuracy_value', 'NONE');
#19 = EDGE_CURVE ( 'NONE', #243, #361, #295, .T. ) ;
#20 = CALENDAR_DATE ( 2022, 8, 7 ) ;
#21 = EDGE_LOOP ( 'NONE', ( #197, #5, #142, #274 ) ) ;
#22 = COORDINATED_UNIVERSAL_TIME_OFFSET ( 1, 0, .AHEAD. ) ;
#23 = DIRECTION ( 'NONE',  ( 1.000000000000000000, 0.000000000000000000, 0.000000000000000000 ) ) ;
#24 = AXIS2_PLACEMENT_3D ( 'NONE', #17, #228, #315 ) ;
#25 = APPROVAL_DATE_TIME ( #176, #379 ) ;
#26 = EDGE_CURVE ( 'NONE', #55, #64, #266, .T. ) ;
#27 = DIRECTION ( 'NONE',  ( 1.000000000000000000, 0.000000000000000000, 0.000000000000000000 ) ) ;
#28 = APPROVAL_STATUS ( 'not_yet_approved' ) ;
#29 = DIRECTION ( 'NONE',  ( 0.000000000000000000, 0.000000000000000000, 1.000000000000000000 ) ) ;
#30 = CC_DESIGN_APPROVAL ( #379, ( #360 ) ) ;
#31 = PERSON_AND_ORGANIZATION ( #189, #380 ) ;
#32 = DIRECTION ( 'NONE',  ( 1.000000000000000000, 0.000000000000000000, 0.000000000000000000 ) ) ;
#33 = ADVANCED_FACE ( 'NONE', ( #51, #80 ), #376, .T. ) ;
#34 = AXIS2_PLACEMENT_3D ( 'NONE', #76, #275, #166 ) ;
#35 = EDGE_LOOP ( 'NONE', ( #15, #330, #374, #144 ) ) ;
#36 = DIRECTION ( 'NONE',  ( 0.000000000000000000, 0.000000000000000000, -1.000000000000000000 ) ) ;
#37 = EDGE_LOOP ( 'NONE', ( #167, #45 ) ) ;
#38 = DIRECTION ( 'NONE',  ( 1.224646799147353207E-16, 1.000000000000000000, -0.000000000000000000 ) ) ;
#39 = EDGE_CURVE ( 'NONE', #127, #55, #247, .T. ) ;
#40 = CARTESIAN_POINT ( 'NONE',  ( 0.000000000000000000, 0.000000000000000000, 107.0000000000000142 ) ) ;
#41 = ORIENTED_EDGE ( 'NONE', *, *, #210, .T. ) ;
#42 = ORIENTED_EDGE ( 'NONE', *, *, #183, .F. ) ;
#43 = DIRECTION ( 'NONE',  ( -1.000000000000000000, 1.224646799147351975E-16, 0.000000000000000000 ) ) ;
#44 = AXIS2_PLACEMENT_3D ( 'NONE', #182, #29, #381 ) ;
#45 = ORIENTED_EDGE ( 'NONE', *, *, #317, .T. ) ;
#46 = CARTESIAN_POINT ( 'NONE',  ( 7.700000000000001066, 0.000000000000000000, 7.699999999999998401 ) ) ;
#47 = EDGE_LOOP ( 'NONE', ( #367, #69, #344, #112 ) ) ;
#48 = PERSON_AND_ORGANIZATION_ROLE ( 'classification_officer' ) ;
#49 = CYLINDRICAL_SURFACE ( 'NONE', #105, 7.000000000000000888 ) ;
#50 = APPROVAL_ROLE ( '' ) ;
#51 = FACE_BOUND ( 'NONE', #99, .T. ) ;
#52 = AXIS2_PLACEMENT_3D ( 'NONE', #224, #74, #10 ) ;
#53 = COORDINATED_UNIVERSAL_TIME_OFFSET ( 1, 0, .AHEAD. ) ;
#54 = EDGE_CURVE ( 'NONE', #222, #64, #309, .T. ) ;
#55 = VERTEX_POINT ( 'NONE', #370 ) ;
#56 = FACE_OUTER_BOUND ( 'NONE', #21, .T. ) ;
#57 = FACE_BOUND ( 'NONE', #66, .T. ) ;
#58 = VECTOR ( 'NONE', #36, 1000.000000000000000 ) ;
#59 = EDGE_CURVE ( 'NONE', #186, #358, #169, .T. ) ;
#60 = CIRCLE ( 'NONE', #120, 5.000000000000000000 ) ;
#61 = AXIS2_PLACEMENT_3D ( 'NONE', #259, #212, #261 ) ;
#62 = DIRECTION ( 'NONE',  ( -0.000000000000000000, -0.000000000000000000, -1.000000000000000000 ) ) ;
#63 = ADVANCED_FACE ( 'NONE', ( #231 ), #284, .T. ) ;
#64 = VERTEX_POINT ( 'NONE', #81 ) ;
#65 = DIRECTION ( 'NONE',  ( 1.000000000000000000, 0.000000000000000000, 0.000000000000000000 ) ) ;
#66 = EDGE_LOOP ( 'NONE', ( #155, #194 ) ) ;
#67 =( LENGTH_UNIT ( ) NAMED_UNIT ( * ) SI_UNIT ( .MILLI., .METRE. ) );
#68 = MANIFOLD_SOLID_BREP ( 'Odebrat vysunutím3', #177 ) ;
#69 = ORIENTED_EDGE ( 'NONE', *, *, #137, .T. ) ;
#70 = VECTOR ( 'NONE', #129, 1000.000000000000000 ) ;
#71 = DIRECTION ( 'NONE',  ( 0.000000000000000000, 0.000000000000000000, -1.000000000000000000 ) ) ;
#72 = APPROVAL_PERSON_ORGANIZATION ( #232, #379, #50 ) ;
#73 = EDGE_LOOP ( 'NONE', ( #238, #339 ) ) ;
#74 = DIRECTION ( 'NONE',  ( -0.000000000000000000, -0.000000000000000000, -1.000000000000000000 ) ) ;
#75 = ORIENTED_EDGE ( 'NONE', *, *, #114, .T. ) ;
#76 = CARTESIAN_POINT ( 'NONE',  ( 0.000000000000000000, 0.000000000000000000, 0.000000000000000000 ) ) ;
#77 = DIRECTION ( 'NONE',  ( -0.000000000000000000, -0.000000000000000000, -1.000000000000000000 ) ) ;
#78 = APPLICATION_PROTOCOL_DEFINITION ( 'international standard', 'config_control_design', 1994, #118 ) ;
#79 = CARTESIAN_POINT ( 'NONE',  ( 0.000000000000000000, 0.000000000000000000, 7.699999999999998401 ) ) ;
#80 = FACE_OUTER_BOUND ( 'NONE', #37, .T. ) ;
#81 = CARTESIAN_POINT ( 'NONE',  ( 11.00000000000000000, 1.347111479062088405E-15, 0.000000000000000000 ) ) ;
#82 = ADVANCED_FACE ( 'NONE', ( #106 ), #49, .T. ) ;
#83 = COORDINATED_UNIVERSAL_TIME_OFFSET ( 1, 0, .AHEAD. ) ;
#84 = FACE_OUTER_BOUND ( 'NONE', #220, .T. ) ;
#85 = CC_DESIGN_SECURITY_CLASSIFICATION ( #319, ( #360 ) ) ;
#86 = CARTESIAN_POINT ( 'NONE',  ( 7.700000000000001066, 0.000000000000000000, 6.999999999999999112 ) ) ;
#87 = CARTESIAN_POINT ( 'NONE',  ( 5.000000000000000000, 6.123233995736765296E-16, 107.0000000000000142 ) ) ;
#88 = CC_DESIGN_PERSON_AND_ORGANIZATION_ASSIGNMENT ( #31, #202, ( #250 ) ) ;
#89 = CIRCLE ( 'NONE', #128, 7.000000000000000888 ) ;
#90 = AXIS2_PLACEMENT_3D ( 'NONE', #235, #285, #195 ) ;
#91 = EDGE_CURVE ( 'NONE', #361, #243, #335, .T. ) ;
#92 = DIRECTION ( 'NONE',  ( 1.000000000000000000, 0.000000000000000000, 0.000000000000000000 ) ) ;
#93 = ADVANCED_BREP_SHAPE_REPRESENTATION ( 'fc72', ( #68, #34 ), #184 ) ;
#94 = CIRCLE ( 'NONE', #124, 0.7000000000000000666 ) ;
#95 = DIRECTION ( 'NONE',  ( -0.000000000000000000, -0.000000000000000000, -1.000000000000000000 ) ) ;
#96 = ORIENTED_EDGE ( 'NONE', *, *, #158, .T. ) ;
#97 = DIRECTION ( 'NONE',  ( 0.000000000000000000, 0.000000000000000000, 1.000000000000000000 ) ) ;
#98 = CC_DESIGN_DATE_AND_TIME_ASSIGNMENT ( #346, #290, ( #319 ) ) ;
#99 = EDGE_LOOP ( 'NONE', ( #164, #42 ) ) ;
#100 = DATE_AND_TIME ( #340, #191 ) ;
#101 = ORIENTED_EDGE ( 'NONE', *, *, #137, .F. ) ;
#102 = DIRECTION ( 'NONE',  ( 1.000000000000000000, 0.000000000000000000, 0.000000000000000000 ) ) ;
#103 = CIRCLE ( 'NONE', #135, 5.000000000000000000 ) ;
#104 = ORIENTED_EDGE ( 'NONE', *, *, #329, .T. ) ;
#105 = AXIS2_PLACEMENT_3D ( 'NONE', #173, #249, #312 ) ;
#106 = FACE_OUTER_BOUND ( 'NONE', #372, .T. ) ;
#107 = ADVANCED_FACE ( 'NONE', ( #278, #84 ), #13, .T. ) ;
#108 = CARTESIAN_POINT ( 'NONE',  ( 7.000000000000000888, 8.572527594031474176E-16, 107.0000000000000142 ) ) ;
#109 = CARTESIAN_POINT ( 'NONE',  ( 11.00000000000000000, 1.347111479062088405E-15, 7.000000000000000000 ) ) ;
#110 = CARTESIAN_POINT ( 'NONE',  ( 0.000000000000000000, 0.000000000000000000, 107.0000000000000142 ) ) ;
#111 = LOCAL_TIME ( 16, 24, 31.00000000000000000, #53 ) ;
#112 = ORIENTED_EDGE ( 'NONE', *, *, #114, .F. ) ;
#113 = CALENDAR_DATE ( 2022, 8, 7 ) ;
#114 = EDGE_CURVE ( 'NONE', #186, #243, #288, .T. ) ;
#115 = DIRECTION ( 'NONE',  ( -0.000000000000000000, -0.000000000000000000, -1.000000000000000000 ) ) ;
#116 = CARTESIAN_POINT ( 'NONE',  ( -11.00000000000000000, 0.000000000000000000, 7.000000000000000000 ) ) ;
#117 = COORDINATED_UNIVERSAL_TIME_OFFSET ( 1, 0, .AHEAD. ) ;
#118 = APPLICATION_CONTEXT ( 'configuration controlled 3d designs of mechanical parts and assemblies' ) ;
#119 = CYLINDRICAL_SURFACE ( 'NONE', #279, 11.00000000000000000 ) ;
#120 = AXIS2_PLACEMENT_3D ( 'NONE', #154, #293, #297 ) ;
#121 = AXIS2_PLACEMENT_3D ( 'NONE', #325, #378, #207 ) ;
#122 = DIRECTION ( 'NONE',  ( -0.000000000000000000, -0.000000000000000000, -1.000000000000000000 ) ) ;
#123 = CIRCLE ( 'NONE', #280, 5.000000000000000000 ) ;
#124 = AXIS2_PLACEMENT_3D ( 'NONE', #8, #38, #43 ) ;
#125 = ORIENTED_EDGE ( 'NONE', *, *, #19, .T. ) ;
#126 = CARTESIAN_POINT ( 'NONE',  ( -5.000000000000000000, 0.000000000000000000, 107.0000000000000142 ) ) ;
#127 = VERTEX_POINT ( 'NONE', #305 ) ;
#128 = AXIS2_PLACEMENT_3D ( 'NONE', #40, #133, #102 ) ;
#129 = DIRECTION ( 'NONE',  ( 0.000000000000000000, 0.000000000000000000, -1.000000000000000000 ) ) ;
#130 = VERTEX_POINT ( 'NONE', #322 ) ;
#131 = DIRECTION ( 'NONE',  ( 0.000000000000000000, -1.000000000000000000, 0.000000000000000000 ) ) ;
#132 = ORIENTED_EDGE ( 'NONE', *, *, #272, .T. ) ;
#133 = DIRECTION ( 'NONE',  ( 0.000000000000000000, 0.000000000000000000, 1.000000000000000000 ) ) ;
#134 =( NAMED_UNIT ( * ) PLANE_ANGLE_UNIT ( ) SI_UNIT ( $, .RADIAN. ) );
#135 = AXIS2_PLACEMENT_3D ( 'NONE', #162, #365, #331 ) ;
#136 = CARTESIAN_POINT ( 'NONE',  ( -7.000000000000000888, 0.000000000000000000, 107.0000000000000142 ) ) ;
#137 = EDGE_CURVE ( 'NONE', #358, #361, #316, .T. ) ;
#138 = COORDINATED_UNIVERSAL_TIME_OFFSET ( 1, 0, .AHEAD. ) ;
#139 = DIRECTION ( 'NONE',  ( 0.000000000000000000, 0.000000000000000000, 1.000000000000000000 ) ) ;
#140 = PRODUCT_DEFINITION_SHAPE ( 'NONE', 'NONE',  #250 ) ;
#141 = CARTESIAN_POINT ( 'NONE',  ( 0.000000000000000000, 0.000000000000000000, 107.0000000000000142 ) ) ;
#142 = ORIENTED_EDGE ( 'NONE', *, *, #39, .T. ) ;
#143 = SECURITY_CLASSIFICATION_LEVEL ( 'unclassified' ) ;
#144 = ORIENTED_EDGE ( 'NONE', *, *, #171, .T. ) ;
#145 = PERSON_AND_ORGANIZATION_ROLE ( 'creator' ) ;
#146 = DIRECTION ( 'NONE',  ( 1.000000000000000000, 0.000000000000000000, 0.000000000000000000 ) ) ;
#147 = FACE_OUTER_BOUND ( 'NONE', #73, .T. ) ;
#148 = PERSON_AND_ORGANIZATION ( #189, #380 ) ;
#149 = DIRECTION ( 'NONE',  ( -1.000000000000000000, 0.000000000000000000, 0.000000000000000000 ) ) ;
#150 = APPLICATION_CONTEXT ( 'configuration controlled 3d designs of mechanical parts and assemblies' ) ;
#151 = ADVANCED_FACE ( 'NONE', ( #56 ), #119, .T. ) ;
#152 = AXIS2_PLACEMENT_3D ( 'NONE', #46, #131, #334 ) ;
#153 = AXIS2_PLACEMENT_3D ( 'NONE', #79, #348, #175 ) ;
#154 = CARTESIAN_POINT ( 'NONE',  ( 0.000000000000000000, 0.000000000000000000, 0.000000000000000000 ) ) ;
#155 = ORIENTED_EDGE ( 'NONE', *, *, #171, .F. ) ;
#156 = CARTESIAN_POINT ( 'NONE',  ( -5.000000000000000000, 0.000000000000000000, 107.0000000000000142 ) ) ;
#157 = VERTEX_POINT ( 'NONE', #354 ) ;
#158 = EDGE_CURVE ( 'NONE', #204, #157, #60, .T. ) ;
#159 = LOCAL_TIME ( 16, 24, 31.00000000000000000, #117 ) ;
#160 = VECTOR ( 'NONE', #77, 1000.000000000000000 ) ;
#161 = ORIENTED_EDGE ( 'NONE', *, *, #216, .F. ) ;
#162 = CARTESIAN_POINT ( 'NONE',  ( 0.000000000000000000, 0.000000000000000000, 107.0000000000000142 ) ) ;
#163 = EDGE_CURVE ( 'NONE', #296, #204, #237, .T. ) ;
#164 = ORIENTED_EDGE ( 'NONE', *, *, #294, .F. ) ;
#165 = AXIS2_PLACEMENT_3D ( 'NONE', #362, #95, #146 ) ;
#166 = DIRECTION ( 'NONE',  ( 1.000000000000000000, 0.000000000000000000, 0.000000000000000000 ) ) ;
#167 = ORIENTED_EDGE ( 'NONE', *, *, #59, .T. ) ;
#168 = PERSON_AND_ORGANIZATION ( #189, #380 ) ;
#169 = CIRCLE ( 'NONE', #90, 7.000000000000000888 ) ;
#170 = CARTESIAN_POINT ( 'NONE',  ( 0.000000000000000000, 0.000000000000000000, 0.000000000000000000 ) ) ;
#171 = EDGE_CURVE ( 'NONE', #157, #204, #286, .T. ) ;
#172 = APPROVAL_DATE_TIME ( #349, #321 ) ;
#173 = CARTESIAN_POINT ( 'NONE',  ( 0.000000000000000000, 0.000000000000000000, 107.0000000000000142 ) ) ;
#174 = CIRCLE ( 'NONE', #366, 11.00000000000000000 ) ;
#175 = DIRECTION ( 'NONE',  ( 1.000000000000000000, 0.000000000000000000, 0.000000000000000000 ) ) ;
#176 = DATE_AND_TIME ( #20, #196 ) ;
#177 = CLOSED_SHELL ( 'NONE', ( #193, #223, #63, #363, #151, #107, #206, #82, #33, #256, #337 ) ) ;
#178 = CARTESIAN_POINT ( 'NONE',  ( 0.000000000000000000, 0.000000000000000000, 107.0000000000000142 ) ) ;
#179 = SHAPE_DEFINITION_REPRESENTATION ( #140, #93 ) ;
#180 = CC_DESIGN_PERSON_AND_ORGANIZATION_ASSIGNMENT ( #262, #258, ( #360 ) ) ;
#181 = DIRECTION ( 'NONE',  ( -1.000000000000000000, 0.000000000000000000, 0.000000000000000000 ) ) ;
#182 = CARTESIAN_POINT ( 'NONE',  ( 0.000000000000000000, 0.000000000000000000, 0.000000000000000000 ) ) ;
#183 = EDGE_CURVE ( 'NONE', #296, #257, #123, .T. ) ;
#184 =( GEOMETRIC_REPRESENTATION_CONTEXT ( 3 ) GLOBAL_UNCERTAINTY_ASSIGNED_CONTEXT ( ( #18 ) ) GLOBAL_UNIT_ASSIGNED_CONTEXT ( ( #67, #134, #221 ) ) REPRESENTATION_CONTEXT ( 'NONE', 'WORKASPACE' ) );
#185 = CARTESIAN_POINT ( 'NONE',  ( -7.000000000000000888, 0.000000000000000000, 7.699999999999998401 ) ) ;
#186 = VERTEX_POINT ( 'NONE', #351 ) ;
#187 = LINE ( 'NONE', #126, #58 ) ;
#188 = EDGE_LOOP ( 'NONE', ( #3, #270, #96, #161 ) ) ;
#189 = PERSON ( 'NEURÈENÝ', 'NEURÈENÝ', 'NEURÈENÝ', ('NEURÈENÝ'), ('NEURÈENÝ'), ('NEURÈENÝ') ) ;
#190 = ORIENTED_EDGE ( 'NONE', *, *, #54, .T. ) ;
#191 = LOCAL_TIME ( 16, 24, 31.00000000000000000, #138 ) ;
#192 = EDGE_LOOP ( 'NONE', ( #213, #190, #241, #225 ) ) ;
#193 = ADVANCED_FACE ( 'NONE', ( #236 ), #4, .F. ) ;
#194 = ORIENTED_EDGE ( 'NONE', *, *, #158, .F. ) ;
#195 = DIRECTION ( 'NONE',  ( 1.000000000000000000, 0.000000000000000000, 0.000000000000000000 ) ) ;
#196 = LOCAL_TIME ( 16, 24, 31.00000000000000000, #83 ) ;
#197 = ORIENTED_EDGE ( 'NONE', *, *, #54, .F. ) ;
#198 = PERSON_AND_ORGANIZATION ( #189, #380 ) ;
#199 = ORIENTED_EDGE ( 'NONE', *, *, #210, .F. ) ;
#200 = CC_DESIGN_PERSON_AND_ORGANIZATION_ASSIGNMENT ( #198, #48, ( #319 ) ) ;
#201 = DIRECTION ( 'NONE',  ( 1.000000000000000000, 0.000000000000000000, -0.000000000000000000 ) ) ;
#202 = PERSON_AND_ORGANIZATION_ROLE ( 'creator' ) ;
#203 = CIRCLE ( 'NONE', #323, 11.00000000000000000 ) ;
#204 = VERTEX_POINT ( 'NONE', #318 ) ;
#205 = APPROVAL_ROLE ( '' ) ;
#206 = ADVANCED_FACE ( 'NONE', ( #57, #147 ), #328, .F. ) ;
#207 = DIRECTION ( 'NONE',  ( 1.000000000000000000, 0.000000000000000000, 0.000000000000000000 ) ) ;
#208 = CALENDAR_DATE ( 2022, 8, 7 ) ;
#209 = CARTESIAN_POINT ( 'NONE',  ( 0.000000000000000000, 0.000000000000000000, 107.0000000000000142 ) ) ;
#210 = EDGE_CURVE ( 'NONE', #130, #245, #253, .T. ) ;
#211 = AXIS2_PLACEMENT_3D ( 'NONE', #209, #291, #149 ) ;
#212 = DIRECTION ( 'NONE',  ( 0.000000000000000000, 0.000000000000000000, 1.000000000000000000 ) ) ;
#213 = ORIENTED_EDGE ( 'NONE', *, *, #272, .F. ) ;
#214 = CIRCLE ( 'NONE', #12, 11.00000000000000000 ) ;
#215 = FACE_OUTER_BOUND ( 'NONE', #282, .T. ) ;
#216 = EDGE_CURVE ( 'NONE', #257, #157, #187, .T. ) ;
#217 = ORIENTED_EDGE ( 'NONE', *, *, #267, .T. ) ;
#218 = VECTOR ( 'NONE', #252, 1000.000000000000000 ) ;
#219 = DIRECTION ( 'NONE',  ( -0.000000000000000000, -0.000000000000000000, -1.000000000000000000 ) ) ;
#220 = EDGE_LOOP ( 'NONE', ( #217, #132 ) ) ;
#221 =( NAMED_UNIT ( * ) SI_UNIT ( $, .STERADIAN. ) SOLID_ANGLE_UNIT ( ) );
#222 = VERTEX_POINT ( 'NONE', #1 ) ;
#223 = ADVANCED_FACE ( 'NONE', ( #289 ), #271, .F. ) ;
#224 = CARTESIAN_POINT ( 'NONE',  ( 0.000000000000000000, 0.000000000000000000, 7.000000000000000000 ) ) ;
#225 = ORIENTED_EDGE ( 'NONE', *, *, #39, .F. ) ;
#226 = DIRECTION ( 'NONE',  ( -0.000000000000000000, -0.000000000000000000, -1.000000000000000000 ) ) ;
#227 = PERSON_AND_ORGANIZATION_ROLE ( 'design_owner' ) ;
#228 = DIRECTION ( 'NONE',  ( 0.000000000000000000, 0.000000000000000000, 1.000000000000000000 ) ) ;
#229 = FACE_OUTER_BOUND ( 'NONE', #192, .T. ) ;
#230 = EDGE_CURVE ( 'NONE', #64, #55, #214, .T. ) ;
#231 = FACE_OUTER_BOUND ( 'NONE', #47, .T. ) ;
#232 = PERSON_AND_ORGANIZATION ( #189, #380 ) ;
#233 = CARTESIAN_POINT ( 'NONE',  ( 0.000000000000000000, 0.000000000000000000, 7.000000000000000000 ) ) ;
#234 = PERSON_AND_ORGANIZATION ( #189, #380 ) ;
#235 = CARTESIAN_POINT ( 'NONE',  ( 0.000000000000000000, 0.000000000000000000, 107.0000000000000142 ) ) ;
#236 = FACE_OUTER_BOUND ( 'NONE', #188, .T. ) ;
#237 = LINE ( 'NONE', #87, #70 ) ;
#238 = ORIENTED_EDGE ( 'NONE', *, *, #26, .F. ) ;
#239 = CC_DESIGN_PERSON_AND_ORGANIZATION_ASSIGNMENT ( #148, #145, ( #360 ) ) ;
#240 = CARTESIAN_POINT ( 'NONE',  ( 0.000000000000000000, 0.000000000000000000, 0.000000000000000000 ) ) ;
#241 = ORIENTED_EDGE ( 'NONE', *, *, #230, .T. ) ;
#242 = CARTESIAN_POINT ( 'NONE',  ( 7.000000000000000888, 8.572527594031474176E-16, 107.0000000000000142 ) ) ;
#243 = VERTEX_POINT ( 'NONE', #185 ) ;
#244 = ORIENTED_EDGE ( 'NONE', *, *, #329, .F. ) ;
#245 = VERTEX_POINT ( 'NONE', #86 ) ;
#246 = APPROVAL_PERSON_ORGANIZATION ( #234, #321, #205 ) ;
#247 = LINE ( 'NONE', #116, #160 ) ;
#248 = CYLINDRICAL_SURFACE ( 'NONE', #306, 5.000000000000000000 ) ;
#249 = DIRECTION ( 'NONE',  ( -0.000000000000000000, -0.000000000000000000, -1.000000000000000000 ) ) ;
#250 = PRODUCT_DEFINITION ( 'NEZNÁMÝ', '', #360, #345 ) ;
#251 = DIRECTION ( 'NONE',  ( -1.000000000000000000, 0.000000000000000000, 0.000000000000000000 ) ) ;
#252 = DIRECTION ( 'NONE',  ( -0.000000000000000000, -0.000000000000000000, -1.000000000000000000 ) ) ;
#253 = CIRCLE ( 'NONE', #313, 7.700000000000001066 ) ;
#254 = DIRECTION ( 'NONE',  ( 0.000000000000000000, 0.000000000000000000, 1.000000000000000000 ) ) ;
#255 = CALENDAR_DATE ( 2022, 8, 7 ) ;
#256 = ADVANCED_FACE ( 'NONE', ( #215 ), #292, .F. ) ;
#257 = VERTEX_POINT ( 'NONE', #156 ) ;
#258 = PERSON_AND_ORGANIZATION_ROLE ( 'design_supplier' ) ;
#259 = CARTESIAN_POINT ( 'NONE',  ( 0.000000000000000000, 0.000000000000000000, 7.699999999999998401 ) ) ;
#260 = CIRCLE ( 'NONE', #287, 7.700000000000001066 ) ;
#261 = DIRECTION ( 'NONE',  ( 1.000000000000000000, 0.000000000000000000, 0.000000000000000000 ) ) ;
#262 = PERSON_AND_ORGANIZATION ( #189, #380 ) ;
#263 = CARTESIAN_POINT ( 'NONE',  ( 0.000000000000000000, 0.000000000000000000, 7.000000000000000000 ) ) ;
#264 = APPROVAL ( #338, 'NEURÈENÝ' ) ;
#265 = CC_DESIGN_APPROVAL ( #321, ( #319 ) ) ;
#266 = CIRCLE ( 'NONE', #320, 11.00000000000000000 ) ;
#267 = EDGE_CURVE ( 'NONE', #127, #222, #174, .T. ) ;
#268 = DIRECTION ( 'NONE',  ( 0.000000000000000000, 0.000000000000000000, 1.000000000000000000 ) ) ;
#269 = CARTESIAN_POINT ( 'NONE',  ( 0.000000000000000000, 0.000000000000000000, 7.000000000000000000 ) ) ;
#270 = ORIENTED_EDGE ( 'NONE', *, *, #163, .T. ) ;
#271 = TOROIDAL_SURFACE ( 'NONE', #61, 7.700000000000001066, 0.6999999999999999556 ) ;
#272 = EDGE_CURVE ( 'NONE', #222, #127, #203, .T. ) ;
#273 = CARTESIAN_POINT ( 'NONE',  ( 0.000000000000000000, 0.000000000000000000, 7.000000000000000000 ) ) ;
#274 = ORIENTED_EDGE ( 'NONE', *, *, #26, .T. ) ;
#275 = DIRECTION ( 'NONE',  ( 0.000000000000000000, 0.000000000000000000, 1.000000000000000000 ) ) ;
#276 = ORIENTED_EDGE ( 'NONE', *, *, #19, .F. ) ;
#277 = FACE_OUTER_BOUND ( 'NONE', #35, .T. ) ;
#278 = FACE_BOUND ( 'NONE', #327, .T. ) ;
#279 = AXIS2_PLACEMENT_3D ( 'NONE', #359, #219, #181 ) ;
#280 = AXIS2_PLACEMENT_3D ( 'NONE', #178, #357, #32 ) ;
#281 = MECHANICAL_CONTEXT ( 'NONE', #118, 'mechanical' ) ;
#282 = EDGE_LOOP ( 'NONE', ( #244, #7, #336, #199 ) ) ;
#283 = APPLICATION_PROTOCOL_DEFINITION ( 'international standard', 'config_control_design', 1994, #150 ) ;
#284 = CYLINDRICAL_SURFACE ( 'NONE', #2, 7.000000000000000888 ) ;
#285 = DIRECTION ( 'NONE',  ( 0.000000000000000000, 0.000000000000000000, 1.000000000000000000 ) ) ;
#286 = CIRCLE ( 'NONE', #165, 5.000000000000000000 ) ;
#287 = AXIS2_PLACEMENT_3D ( 'NONE', #273, #298, #303 ) ;
#288 = LINE ( 'NONE', #136, #353 ) ;
#289 = FACE_OUTER_BOUND ( 'NONE', #11, .T. ) ;
#290 = DATE_TIME_ROLE ( 'classification_date' ) ;
#291 = DIRECTION ( 'NONE',  ( 0.000000000000000000, 0.000000000000000000, -1.000000000000000000 ) ) ;
#292 = TOROIDAL_SURFACE ( 'NONE', #121, 7.700000000000001066, 0.6999999999999999556 ) ;
#293 = DIRECTION ( 'NONE',  ( -0.000000000000000000, -0.000000000000000000, -1.000000000000000000 ) ) ;
#294 = EDGE_CURVE ( 'NONE', #257, #296, #103, .T. ) ;
#295 = CIRCLE ( 'NONE', #24, 7.000000000000000888 ) ;
#296 = VERTEX_POINT ( 'NONE', #369 ) ;
#297 = DIRECTION ( 'NONE',  ( 1.000000000000000000, 0.000000000000000000, 0.000000000000000000 ) ) ;
#298 = DIRECTION ( 'NONE',  ( -0.000000000000000000, -0.000000000000000000, -1.000000000000000000 ) ) ;
#299 = ORIENTED_EDGE ( 'NONE', *, *, #59, .F. ) ;
#300 = CC_DESIGN_APPROVAL ( #264, ( #250 ) ) ;
#301 = DIRECTION ( 'NONE',  ( 0.000000000000000000, 0.000000000000000000, 1.000000000000000000 ) ) ;
#302 = CARTESIAN_POINT ( 'NONE',  ( 7.000000000000000888, 8.572527594031474176E-16, 7.699999999999998401 ) ) ;
#303 = DIRECTION ( 'NONE',  ( 1.000000000000000000, 0.000000000000000000, 0.000000000000000000 ) ) ;
#304 = EDGE_CURVE ( 'NONE', #245, #130, #260, .T. ) ;
#305 = CARTESIAN_POINT ( 'NONE',  ( -11.00000000000000000, 0.000000000000000000, 7.000000000000000000 ) ) ;
#306 = AXIS2_PLACEMENT_3D ( 'NONE', #110, #71, #251 ) ;
#307 = DIRECTION ( 'NONE',  ( 0.000000000000000000, 0.000000000000000000, 1.000000000000000000 ) ) ;
#308 = APPROVAL_STATUS ( 'not_yet_approved' ) ;
#309 = LINE ( 'NONE', #109, #218 ) ;
#310 = CC_DESIGN_PERSON_AND_ORGANIZATION_ASSIGNMENT ( #168, #227, ( #350 ) ) ;
#311 = DATE_TIME_ROLE ( 'creation_date' ) ;
#312 = DIRECTION ( 'NONE',  ( -1.000000000000000000, 0.000000000000000000, 0.000000000000000000 ) ) ;
#313 = AXIS2_PLACEMENT_3D ( 'NONE', #263, #62, #27 ) ;
#314 = DATE_AND_TIME ( #113, #111 ) ;
#315 = DIRECTION ( 'NONE',  ( 1.000000000000000000, 0.000000000000000000, 0.000000000000000000 ) ) ;
#316 = LINE ( 'NONE', #242, #377 ) ;
#317 = EDGE_CURVE ( 'NONE', #358, #186, #89, .T. ) ;
#318 = CARTESIAN_POINT ( 'NONE',  ( 5.000000000000000000, 6.123233995736765296E-16, 0.000000000000000000 ) ) ;
#319 = SECURITY_CLASSIFICATION ( '', '', #143 ) ;
#320 = AXIS2_PLACEMENT_3D ( 'NONE', #170, #254, #23 ) ;
#321 = APPROVAL ( #308, 'NEURÈENÝ' ) ;
#322 = CARTESIAN_POINT ( 'NONE',  ( -7.700000000000001066, 9.429780353434621002E-16, 6.999999999999999112 ) ) ;
#323 = AXIS2_PLACEMENT_3D ( 'NONE', #6, #301, #16 ) ;
#324 = ORIENTED_EDGE ( 'NONE', *, *, #304, .T. ) ;
#325 = CARTESIAN_POINT ( 'NONE',  ( 0.000000000000000000, 0.000000000000000000, 7.699999999999998401 ) ) ;
#326 = AXIS2_PLACEMENT_3D ( 'NONE', #141, #139, #201 ) ;
#327 = EDGE_LOOP ( 'NONE', ( #324, #41 ) ) ;
#328 = PLANE ( 'NONE',  #44 ) ;
#329 = EDGE_CURVE ( 'NONE', #243, #130, #94, .T. ) ;
#330 = ORIENTED_EDGE ( 'NONE', *, *, #183, .T. ) ;
#331 = DIRECTION ( 'NONE',  ( 1.000000000000000000, 0.000000000000000000, 0.000000000000000000 ) ) ;
#332 = LOCAL_TIME ( 16, 24, 31.00000000000000000, #22 ) ;
#333 = ORIENTED_EDGE ( 'NONE', *, *, #343, .F. ) ;
#334 = DIRECTION ( 'NONE',  ( 0.000000000000000000, 0.000000000000000000, -1.000000000000000000 ) ) ;
#335 = CIRCLE ( 'NONE', #153, 7.000000000000000888 ) ;
#336 = ORIENTED_EDGE ( 'NONE', *, *, #343, .T. ) ;
#337 = ADVANCED_FACE ( 'NONE', ( #277 ), #248, .F. ) ;
#338 = APPROVAL_STATUS ( 'not_yet_approved' ) ;
#339 = ORIENTED_EDGE ( 'NONE', *, *, #230, .F. ) ;
#340 = CALENDAR_DATE ( 2022, 8, 7 ) ;
#341 = DIRECTION ( 'NONE',  ( -1.000000000000000000, 0.000000000000000000, 0.000000000000000000 ) ) ;
#342 = APPROVAL_PERSON_ORGANIZATION ( #364, #264, #14 ) ;
#343 = EDGE_CURVE ( 'NONE', #361, #245, #355, .T. ) ;
#344 = ORIENTED_EDGE ( 'NONE', *, *, #91, .T. ) ;
#345 = DESIGN_CONTEXT ( 'detailed design', #150, 'design' ) ;
#346 = DATE_AND_TIME ( #208, #332 ) ;
#347 = DIRECTION ( 'NONE',  ( 1.000000000000000000, 0.000000000000000000, -0.000000000000000000 ) ) ;
#348 = DIRECTION ( 'NONE',  ( 0.000000000000000000, 0.000000000000000000, 1.000000000000000000 ) ) ;
#349 = DATE_AND_TIME ( #255, #159 ) ;
#350 = PRODUCT ( 'fc72', 'fc72', '', ( #281 ) ) ;
#351 = CARTESIAN_POINT ( 'NONE',  ( -7.000000000000000888, 0.000000000000000000, 107.0000000000000142 ) ) ;
#352 = AXIS2_PLACEMENT_3D ( 'NONE', #233, #307, #347 ) ;
#353 = VECTOR ( 'NONE', #226, 1000.000000000000000 ) ;
#354 = CARTESIAN_POINT ( 'NONE',  ( -5.000000000000000000, 0.000000000000000000, 0.000000000000000000 ) ) ;
#355 = CIRCLE ( 'NONE', #152, 0.7000000000000000666 ) ;
#356 = PRODUCT_RELATED_PRODUCT_CATEGORY ( 'detail', '', ( #350 ) ) ;
#357 = DIRECTION ( 'NONE',  ( 0.000000000000000000, 0.000000000000000000, 1.000000000000000000 ) ) ;
#358 = VERTEX_POINT ( 'NONE', #108 ) ;
#359 = CARTESIAN_POINT ( 'NONE',  ( 0.000000000000000000, 0.000000000000000000, 7.000000000000000000 ) ) ;
#360 = PRODUCT_DEFINITION_FORMATION_WITH_SPECIFIED_SOURCE ( 'LIBOVOLNÝ', '', #350, .NOT_KNOWN. ) ;
#361 = VERTEX_POINT ( 'NONE', #302 ) ;
#362 = CARTESIAN_POINT ( 'NONE',  ( 0.000000000000000000, 0.000000000000000000, 0.000000000000000000 ) ) ;
#363 = ADVANCED_FACE ( 'NONE', ( #229 ), #371, .T. ) ;
#364 = PERSON_AND_ORGANIZATION ( #189, #380 ) ;
#365 = DIRECTION ( 'NONE',  ( 0.000000000000000000, 0.000000000000000000, 1.000000000000000000 ) ) ;
#366 = AXIS2_PLACEMENT_3D ( 'NONE', #269, #268, #65 ) ;
#367 = ORIENTED_EDGE ( 'NONE', *, *, #317, .F. ) ;
#368 = CC_DESIGN_DATE_AND_TIME_ASSIGNMENT ( #314, #311, ( #250 ) ) ;
#369 = CARTESIAN_POINT ( 'NONE',  ( 5.000000000000000000, 6.123233995736765296E-16, 107.0000000000000142 ) ) ;
#370 = CARTESIAN_POINT ( 'NONE',  ( -11.00000000000000000, 0.000000000000000000, 0.000000000000000000 ) ) ;
#371 = CYLINDRICAL_SURFACE ( 'NONE', #52, 11.00000000000000000 ) ;
#372 = EDGE_LOOP ( 'NONE', ( #101, #299, #75, #125 ) ) ;
#373 = APPROVAL_DATE_TIME ( #100, #264 ) ;
#374 = ORIENTED_EDGE ( 'NONE', *, *, #216, .T. ) ;
#375 = CARTESIAN_POINT ( 'NONE',  ( 0.000000000000000000, 0.000000000000000000, 107.0000000000000142 ) ) ;
#376 = PLANE ( 'NONE',  #326 ) ;
#377 = VECTOR ( 'NONE', #122, 1000.000000000000000 ) ;
#378 = DIRECTION ( 'NONE',  ( 0.000000000000000000, 0.000000000000000000, 1.000000000000000000 ) ) ;
#379 = APPROVAL ( #28, 'NEURÈENÝ' ) ;
#380 = ORGANIZATION ( 'NEURÈENÝ', 'NEURÈENÝ', '' ) ;
#381 = DIRECTION ( 'NONE',  ( 1.000000000000000000, 0.000000000000000000, -0.000000000000000000 ) ) ;
ENDSEC;
END-ISO-10303-21;
