ISO-10303-21;
HEADER;
FILE_DESCRIPTION (( 'STEP AP203' ),
    '1' );
FILE_NAME ('6814.STEP',
    '2022-07-08T15:53:45',
    ( '' ),
    ( '' ),
    'SwSTEP 2.0',
    'SolidWorks 2019',
    '' );
FILE_SCHEMA (( 'CONFIG_CONTROL_DESIGN' ));
ENDSEC;

DATA;
#1 = ORIENTED_EDGE ( 'NONE', *, *, #334, .F. ) ;
#2 = EDGE_CURVE ( 'NONE', #224, #320, #313, .T. ) ;
#3 = FACE_OUTER_BOUND ( 'NONE', #238, .T. ) ;
#4 = APPROVAL ( #99, 'NEURÈENÝ' ) ;
#5 = CARTESIAN_POINT ( 'NONE',  ( 0.000000000000000000, 0.000000000000000000, 403.0000000000000000 ) ) ;
#6 = AXIS2_PLACEMENT_3D ( 'NONE', #197, #167, #139 ) ;
#7 = DIRECTION ( 'NONE',  ( 0.000000000000000000, 0.000000000000000000, 1.000000000000000000 ) ) ;
#8 = CC_DESIGN_APPROVAL ( #138, ( #79 ) ) ;
#9 = APPLICATION_CONTEXT ( 'configuration controlled 3d designs of mechanical parts and assemblies' ) ;
#10 = DATE_TIME_ROLE ( 'creation_date' ) ;
#11 = ORIENTED_EDGE ( 'NONE', *, *, #207, .F. ) ;
#12 = COORDINATED_UNIVERSAL_TIME_OFFSET ( 1, 0, .AHEAD. ) ;
#13 = CYLINDRICAL_SURFACE ( 'NONE', #159, 2.000000000000000000 ) ;
#14 = PERSON_AND_ORGANIZATION_ROLE ( 'creator' ) ;
#15 = ORIENTED_EDGE ( 'NONE', *, *, #150, .T. ) ;
#16 = COORDINATED_UNIVERSAL_TIME_OFFSET ( 1, 0, .AHEAD. ) ;
#17 = DIRECTION ( 'NONE',  ( 1.000000000000000000, 0.000000000000000000, 0.000000000000000000 ) ) ;
#18 = CARTESIAN_POINT ( 'NONE',  ( 0.000000000000000000, 0.000000000000000000, 3.000000000000000000 ) ) ;
#19 = FACE_BOUND ( 'NONE', #215, .T. ) ;
#20 = CARTESIAN_POINT ( 'NONE',  ( 0.000000000000000000, 0.000000000000000000, 403.0000000000000000 ) ) ;
#21 = CARTESIAN_POINT ( 'NONE',  ( 0.000000000000000000, 0.000000000000000000, 3.000000000000000000 ) ) ;
#22 = ORIENTED_EDGE ( 'NONE', *, *, #280, .T. ) ;
#23 = DIRECTION ( 'NONE',  ( 1.000000000000000000, 0.000000000000000000, 0.000000000000000000 ) ) ;
#24 = CIRCLE ( 'NONE', #36, 1.000000000000000000 ) ;
#25 = ADVANCED_FACE ( 'NONE', ( #210 ), #13, .T. ) ;
#26 = DIRECTION ( 'NONE',  ( -1.000000000000000000, 0.000000000000000000, 0.000000000000000000 ) ) ;
#27 = APPLICATION_CONTEXT ( 'configuration controlled 3d designs of mechanical parts and assemblies' ) ;
#28 = ORIENTED_EDGE ( 'NONE', *, *, #292, .T. ) ;
#29 = DIRECTION ( 'NONE',  ( 1.000000000000000000, 0.000000000000000000, 0.000000000000000000 ) ) ;
#30 = ADVANCED_FACE ( 'NONE', ( #37, #276 ), #40, .T. ) ;
#31 = VERTEX_POINT ( 'NONE', #42 ) ;
#32 = AXIS2_PLACEMENT_3D ( 'NONE', #214, #271, #356 ) ;
#33 = DIRECTION ( 'NONE',  ( 0.000000000000000000, 0.000000000000000000, 1.000000000000000000 ) ) ;
#34 = CARTESIAN_POINT ( 'NONE',  ( 0.000000000000000000, 0.000000000000000000, 403.0000000000000000 ) ) ;
#35 = CLOSED_SHELL ( 'NONE', ( #153, #109, #131, #296, #95, #30, #370, #25, #127, #200, #367 ) ) ;
#36 = AXIS2_PLACEMENT_3D ( 'NONE', #257, #203, #234 ) ;
#37 = FACE_BOUND ( 'NONE', #312, .T. ) ;
#38 = MECHANICAL_CONTEXT ( 'NONE', #9, 'mechanical' ) ;
#39 = EDGE_CURVE ( 'NONE', #320, #331, #72, .T. ) ;
#40 = PLANE ( 'NONE',  #372 ) ;
#41 = CALENDAR_DATE ( 2022, 8, 7 ) ;
#42 = CARTESIAN_POINT ( 'NONE',  ( -2.000000000000000000, 0.000000000000000000, 3.300000000000025135 ) ) ;
#43 = EDGE_CURVE ( 'NONE', #141, #143, #229, .T. ) ;
#44 = VECTOR ( 'NONE', #158, 1000.000000000000000 ) ;
#45 = CARTESIAN_POINT ( 'NONE',  ( 0.000000000000000000, 0.000000000000000000, 3.000000000000000000 ) ) ;
#46 = EDGE_CURVE ( 'NONE', #198, #185, #277, .T. ) ;
#47 = DATE_AND_TIME ( #302, #201 ) ;
#48 = FACE_OUTER_BOUND ( 'NONE', #60, .T. ) ;
#49 = AXIS2_PLACEMENT_3D ( 'NONE', #21, #163, #336 ) ;
#50 = CIRCLE ( 'NONE', #314, 4.000000000000000000 ) ;
#51 = CC_DESIGN_PERSON_AND_ORGANIZATION_ASSIGNMENT ( #237, #244, ( #56 ) ) ;
#52 = SHAPE_DEFINITION_REPRESENTATION ( #254, #192 ) ;
#53 = DIRECTION ( 'NONE',  ( -0.000000000000000000, -0.000000000000000000, -1.000000000000000000 ) ) ;
#54 = FACE_OUTER_BOUND ( 'NONE', #250, .T. ) ;
#55 = VECTOR ( 'NONE', #353, 1000.000000000000000 ) ;
#56 = PRODUCT_DEFINITION_FORMATION_WITH_SPECIFIED_SOURCE ( 'LIBOVOLNÝ', '', #376, .NOT_KNOWN. ) ;
#57 = CARTESIAN_POINT ( 'NONE',  ( 2.299999999999999822, 0.000000000000000000, 3.300000000000025135 ) ) ;
#58 = ORIENTED_EDGE ( 'NONE', *, *, #122, .F. ) ;
#59 = FACE_OUTER_BOUND ( 'NONE', #341, .T. ) ;
#60 = EDGE_LOOP ( 'NONE', ( #58, #231, #241, #281 ) ) ;
#61 = CARTESIAN_POINT ( 'NONE',  ( 0.000000000000000000, 0.000000000000000000, 403.0000000000000000 ) ) ;
#62 = ORIENTED_EDGE ( 'NONE', *, *, #243, .T. ) ;
#63 = DIRECTION ( 'NONE',  ( 0.000000000000000000, 0.000000000000000000, -1.000000000000000000 ) ) ;
#64 = FACE_OUTER_BOUND ( 'NONE', #245, .T. ) ;
#65 = PERSON_AND_ORGANIZATION ( #111, #323 ) ;
#66 = EDGE_CURVE ( 'NONE', #31, #185, #251, .T. ) ;
#67 = AXIS2_PLACEMENT_3D ( 'NONE', #45, #275, #17 ) ;
#68 = CALENDAR_DATE ( 2022, 8, 7 ) ;
#69 = ORIENTED_EDGE ( 'NONE', *, *, #310, .T. ) ;
#70 = EDGE_LOOP ( 'NONE', ( #1, #300 ) ) ;
#71 = PERSON_AND_ORGANIZATION_ROLE ( 'classification_officer' ) ;
#72 = LINE ( 'NONE', #162, #44 ) ;
#73 = CC_DESIGN_DATE_AND_TIME_ASSIGNMENT ( #125, #10, ( #79 ) ) ;
#74 = APPLICATION_PROTOCOL_DEFINITION ( 'international standard', 'config_control_design', 1994, #9 ) ;
#75 = TOROIDAL_SURFACE ( 'NONE', #235, 2.299999999999999822, 0.2999999999999999889 ) ;
#76 = VERTEX_POINT ( 'NONE', #248 ) ;
#77 = AXIS2_PLACEMENT_3D ( 'NONE', #178, #342, #114 ) ;
#78 = CARTESIAN_POINT ( 'NONE',  ( -4.000000000000000000, 0.000000000000000000, 0.000000000000000000 ) ) ;
#79 = PRODUCT_DEFINITION ( 'NEZNÁMÝ', '', #56, #184 ) ;
#80 = CARTESIAN_POINT ( 'NONE',  ( 0.000000000000000000, 0.000000000000000000, 3.300000000000025135 ) ) ;
#81 = AXIS2_PLACEMENT_3D ( 'NONE', #221, #108, #23 ) ;
#82 = CC_DESIGN_SECURITY_CLASSIFICATION ( #230, ( #56 ) ) ;
#83 = COORDINATED_UNIVERSAL_TIME_OFFSET ( 1, 0, .AHEAD. ) ;
#84 = EDGE_LOOP ( 'NONE', ( #115, #113, #373, #233 ) ) ;
#85 = CARTESIAN_POINT ( 'NONE',  ( 0.000000000000000000, 0.000000000000000000, 0.000000000000000000 ) ) ;
#86 = EDGE_CURVE ( 'NONE', #141, #190, #225, .T. ) ;
#87 = LINE ( 'NONE', #145, #335 ) ;
#88 = ORIENTED_EDGE ( 'NONE', *, *, #344, .T. ) ;
#89 = CIRCLE ( 'NONE', #188, 1.000000000000000000 ) ;
#90 = CARTESIAN_POINT ( 'NONE',  ( 0.000000000000000000, 0.000000000000000000, 3.000000000000000000 ) ) ;
#91 = CARTESIAN_POINT ( 'NONE',  ( 1.000000000000000000, 1.224646799147353207E-16, 403.0000000000000000 ) ) ;
#92 = DIRECTION ( 'NONE',  ( 0.000000000000000000, 0.000000000000000000, -1.000000000000000000 ) ) ;
#93 = CIRCLE ( 'NONE', #354, 2.000000000000000000 ) ;
#94 = DIRECTION ( 'NONE',  ( 0.000000000000000000, 0.000000000000000000, 1.000000000000000000 ) ) ;
#95 = ADVANCED_FACE ( 'NONE', ( #48 ), #339, .T. ) ;
#96 =( NAMED_UNIT ( * ) PLANE_ANGLE_UNIT ( ) SI_UNIT ( $, .RADIAN. ) );
#97 = EDGE_LOOP ( 'NONE', ( #279, #347, #126, #173 ) ) ;
#98 = AXIS2_PLACEMENT_3D ( 'NONE', #85, #218, #375 ) ;
#99 = APPROVAL_STATUS ( 'not_yet_approved' ) ;
#100 = DIRECTION ( 'NONE',  ( 0.000000000000000000, 0.000000000000000000, 1.000000000000000000 ) ) ;
#101 = DATE_AND_TIME ( #68, #242 ) ;
#102 = PERSON_AND_ORGANIZATION ( #111, #323 ) ;
#103 = ORIENTED_EDGE ( 'NONE', *, *, #267, .T. ) ;
#104 = DIRECTION ( 'NONE',  ( 1.224646799147353207E-16, 1.000000000000000000, -0.000000000000000000 ) ) ;
#105 = APPROVAL_ROLE ( '' ) ;
#106 = CYLINDRICAL_SURFACE ( 'NONE', #146, 2.000000000000000000 ) ;
#107 = PERSON_AND_ORGANIZATION ( #111, #323 ) ;
#108 = DIRECTION ( 'NONE',  ( 0.000000000000000000, 0.000000000000000000, 1.000000000000000000 ) ) ;
#109 = ADVANCED_FACE ( 'NONE', ( #199 ), #75, .F. ) ;
#110 = DIRECTION ( 'NONE',  ( 1.000000000000000000, 0.000000000000000000, 0.000000000000000000 ) ) ;
#111 = PERSON ( 'NEURÈENÝ', 'NEURÈENÝ', 'NEURÈENÝ', ('NEURÈENÝ'), ('NEURÈENÝ'), ('NEURÈENÝ') ) ;
#112 = PLANE ( 'NONE',  #307 ) ;
#113 = ORIENTED_EDGE ( 'NONE', *, *, #175, .F. ) ;
#114 = DIRECTION ( 'NONE',  ( -1.000000000000000000, 0.000000000000000000, 0.000000000000000000 ) ) ;
#115 = ORIENTED_EDGE ( 'NONE', *, *, #66, .F. ) ;
#116 = CIRCLE ( 'NONE', #152, 2.000000000000000000 ) ;
#117 = CARTESIAN_POINT ( 'NONE',  ( 0.000000000000000000, 0.000000000000000000, 0.000000000000000000 ) ) ;
#118 = DIRECTION ( 'NONE',  ( 1.000000000000000000, 0.000000000000000000, 0.000000000000000000 ) ) ;
#119 = DIRECTION ( 'NONE',  ( 1.000000000000000000, 0.000000000000000000, 0.000000000000000000 ) ) ;
#120 =( GEOMETRIC_REPRESENTATION_CONTEXT ( 3 ) GLOBAL_UNCERTAINTY_ASSIGNED_CONTEXT ( ( #155 ) ) GLOBAL_UNIT_ASSIGNED_CONTEXT ( ( #330, #96, #209 ) ) REPRESENTATION_CONTEXT ( 'NONE', 'WORKASPACE' ) );
#121 = PERSON_AND_ORGANIZATION_ROLE ( 'creator' ) ;
#122 = EDGE_CURVE ( 'NONE', #143, #326, #132, .T. ) ;
#123 = EDGE_LOOP ( 'NONE', ( #168, #253, #357, #364 ) ) ;
#124 = EDGE_CURVE ( 'NONE', #76, #331, #260, .T. ) ;
#125 = DATE_AND_TIME ( #41, #273 ) ;
#126 = ORIENTED_EDGE ( 'NONE', *, *, #175, .T. ) ;
#127 = ADVANCED_FACE ( 'NONE', ( #19, #54 ), #112, .T. ) ;
#128 = APPROVAL_DATE_TIME ( #47, #4 ) ;
#129 = ORIENTED_EDGE ( 'NONE', *, *, #219, .F. ) ;
#130 = DIRECTION ( 'NONE',  ( -0.000000000000000000, -0.000000000000000000, -1.000000000000000000 ) ) ;
#131 = ADVANCED_FACE ( 'NONE', ( #195 ), #106, .T. ) ;
#132 = LINE ( 'NONE', #371, #379 ) ;
#133 = LOCAL_TIME ( 17, 53, 45.00000000000000000, #186 ) ;
#134 = CALENDAR_DATE ( 2022, 8, 7 ) ;
#135 = CARTESIAN_POINT ( 'NONE',  ( -4.000000000000000000, 0.000000000000000000, 3.000000000000000000 ) ) ;
#136 = DIRECTION ( 'NONE',  ( -1.000000000000000000, 0.000000000000000000, 0.000000000000000000 ) ) ;
#137 = EDGE_LOOP ( 'NONE', ( #332, #15 ) ) ;
#138 = APPROVAL ( #240, 'NEURÈENÝ' ) ;
#139 = DIRECTION ( 'NONE',  ( 1.000000000000000000, 0.000000000000000000, 0.000000000000000000 ) ) ;
#140 = AXIS2_PLACEMENT_3D ( 'NONE', #283, #142, #309 ) ;
#141 = VERTEX_POINT ( 'NONE', #135 ) ;
#142 = DIRECTION ( 'NONE',  ( 0.000000000000000000, 0.000000000000000000, -1.000000000000000000 ) ) ;
#143 = VERTEX_POINT ( 'NONE', #306 ) ;
#144 = DIRECTION ( 'NONE',  ( -0.000000000000000000, -0.000000000000000000, -1.000000000000000000 ) ) ;
#145 = CARTESIAN_POINT ( 'NONE',  ( -2.000000000000000000, 0.000000000000000000, 403.0000000000000000 ) ) ;
#146 = AXIS2_PLACEMENT_3D ( 'NONE', #20, #53, #136 ) ;
#147 = ORIENTED_EDGE ( 'NONE', *, *, #324, .T. ) ;
#148 = CARTESIAN_POINT ( 'NONE',  ( 0.000000000000000000, 0.000000000000000000, 0.000000000000000000 ) ) ;
#149 = DIRECTION ( 'NONE',  ( 1.000000000000000000, 0.000000000000000000, 0.000000000000000000 ) ) ;
#150 = EDGE_CURVE ( 'NONE', #143, #141, #360, .T. ) ;
#151 = CYLINDRICAL_SURFACE ( 'NONE', #77, 1.000000000000000000 ) ;
#152 = AXIS2_PLACEMENT_3D ( 'NONE', #351, #94, #378 ) ;
#153 = ADVANCED_FACE ( 'NONE', ( #223 ), #194, .F. ) ;
#154 = APPROVAL_DATE_TIME ( #101, #138 ) ;
#155 = UNCERTAINTY_MEASURE_WITH_UNIT (LENGTH_MEASURE( 1.000000000000000082E-05 ), #330, 'distance_accuracy_value', 'NONE');
#156 = CARTESIAN_POINT ( 'NONE',  ( 0.000000000000000000, 0.000000000000000000, 3.000000000000000000 ) ) ;
#157 = CC_DESIGN_PERSON_AND_ORGANIZATION_ASSIGNMENT ( #183, #121, ( #56 ) ) ;
#158 = DIRECTION ( 'NONE',  ( 0.000000000000000000, 0.000000000000000000, -1.000000000000000000 ) ) ;
#159 = AXIS2_PLACEMENT_3D ( 'NONE', #177, #295, #212 ) ;
#160 = APPROVAL_PERSON_ORGANIZATION ( #107, #258, #105 ) ;
#161 = ORIENTED_EDGE ( 'NONE', *, *, #122, .T. ) ;
#162 = CARTESIAN_POINT ( 'NONE',  ( -1.000000000000000000, 0.000000000000000000, 403.0000000000000000 ) ) ;
#163 = DIRECTION ( 'NONE',  ( -0.000000000000000000, -0.000000000000000000, -1.000000000000000000 ) ) ;
#164 = AXIS2_PLACEMENT_3D ( 'NONE', #264, #315, #26 ) ;
#165 = MANIFOLD_SOLID_BREP ( 'Odebrat vysunutím3', #35 ) ;
#166 = CARTESIAN_POINT ( 'NONE',  ( -4.000000000000000000, 0.000000000000000000, 3.000000000000000000 ) ) ;
#167 = DIRECTION ( 'NONE',  ( 0.000000000000000000, 0.000000000000000000, 1.000000000000000000 ) ) ;
#168 = ORIENTED_EDGE ( 'NONE', *, *, #344, .F. ) ;
#169 = DIRECTION ( 'NONE',  ( 1.000000000000000000, 0.000000000000000000, -0.000000000000000000 ) ) ;
#170 = CIRCLE ( 'NONE', #6, 2.000000000000000000 ) ;
#171 = APPROVAL_PERSON_ORGANIZATION ( #269, #138, #299 ) ;
#172 = DIRECTION ( 'NONE',  ( 0.000000000000000000, -1.000000000000000000, 0.000000000000000000 ) ) ;
#173 = ORIENTED_EDGE ( 'NONE', *, *, #292, .F. ) ;
#174 = PLANE ( 'NONE',  #236 ) ;
#175 = EDGE_CURVE ( 'NONE', #377, #31, #170, .T. ) ;
#176 = CARTESIAN_POINT ( 'NONE',  ( 0.000000000000000000, 0.000000000000000000, 3.300000000000025135 ) ) ;
#177 = CARTESIAN_POINT ( 'NONE',  ( 0.000000000000000000, 0.000000000000000000, 403.0000000000000000 ) ) ;
#178 = CARTESIAN_POINT ( 'NONE',  ( 0.000000000000000000, 0.000000000000000000, 403.0000000000000000 ) ) ;
#179 = CC_DESIGN_DATE_AND_TIME_ASSIGNMENT ( #193, #220, ( #230 ) ) ;
#180 = DIRECTION ( 'NONE',  ( 0.000000000000000000, 0.000000000000000000, 1.000000000000000000 ) ) ;
#181 = AXIS2_PLACEMENT_3D ( 'NONE', #90, #144, #29 ) ;
#182 = ORIENTED_EDGE ( 'NONE', *, *, #39, .T. ) ;
#183 = PERSON_AND_ORGANIZATION ( #111, #323 ) ;
#184 = DESIGN_CONTEXT ( 'detailed design', #27, 'design' ) ;
#185 = VERTEX_POINT ( 'NONE', #255 ) ;
#186 = COORDINATED_UNIVERSAL_TIME_OFFSET ( 1, 0, .AHEAD. ) ;
#187 = ORIENTED_EDGE ( 'NONE', *, *, #334, .T. ) ;
#188 = AXIS2_PLACEMENT_3D ( 'NONE', #61, #7, #228 ) ;
#189 = COORDINATED_UNIVERSAL_TIME_OFFSET ( 1, 0, .AHEAD. ) ;
#190 = VERTEX_POINT ( 'NONE', #78 ) ;
#191 = CARTESIAN_POINT ( 'NONE',  ( 2.299999999999999822, 0.000000000000000000, 3.000000000000012434 ) ) ;
#192 = ADVANCED_BREP_SHAPE_REPRESENTATION ( '6814', ( #165, #32 ), #120 ) ;
#193 = DATE_AND_TIME ( #249, #133 ) ;
#194 = CYLINDRICAL_SURFACE ( 'NONE', #140, 1.000000000000000000 ) ;
#195 = FACE_OUTER_BOUND ( 'NONE', #97, .T. ) ;
#196 = DATE_AND_TIME ( #134, #345 ) ;
#197 = CARTESIAN_POINT ( 'NONE',  ( 0.000000000000000000, 0.000000000000000000, 3.300000000000025135 ) ) ;
#198 = VERTEX_POINT ( 'NONE', #191 ) ;
#199 = FACE_OUTER_BOUND ( 'NONE', #123, .T. ) ;
#200 = ADVANCED_FACE ( 'NONE', ( #305 ), #290, .F. ) ;
#201 = LOCAL_TIME ( 17, 53, 45.00000000000000000, #189 ) ;
#202 = ORIENTED_EDGE ( 'NONE', *, *, #124, .T. ) ;
#203 = DIRECTION ( 'NONE',  ( -0.000000000000000000, -0.000000000000000000, -1.000000000000000000 ) ) ;
#204 = VERTEX_POINT ( 'NONE', #278 ) ;
#205 = DIRECTION ( 'NONE',  ( 0.000000000000000000, 0.000000000000000000, 1.000000000000000000 ) ) ;
#206 = DIRECTION ( 'NONE',  ( 0.000000000000000000, 0.000000000000000000, 1.000000000000000000 ) ) ;
#207 = EDGE_CURVE ( 'NONE', #204, #377, #322, .T. ) ;
#208 = DIRECTION ( 'NONE',  ( 1.000000000000000000, 0.000000000000000000, 0.000000000000000000 ) ) ;
#209 =( NAMED_UNIT ( * ) SI_UNIT ( $, .STERADIAN. ) SOLID_ANGLE_UNIT ( ) );
#210 = FACE_OUTER_BOUND ( 'NONE', #270, .T. ) ;
#211 = AXIS2_PLACEMENT_3D ( 'NONE', #365, #104, #217 ) ;
#212 = DIRECTION ( 'NONE',  ( -1.000000000000000000, 0.000000000000000000, 0.000000000000000000 ) ) ;
#213 = VERTEX_POINT ( 'NONE', #348 ) ;
#214 = CARTESIAN_POINT ( 'NONE',  ( 0.000000000000000000, 0.000000000000000000, 0.000000000000000000 ) ) ;
#215 = EDGE_LOOP ( 'NONE', ( #343, #261 ) ) ;
#216 = AXIS2_PLACEMENT_3D ( 'NONE', #57, #172, #92 ) ;
#217 = DIRECTION ( 'NONE',  ( -1.000000000000000000, 1.224646799147353207E-16, 0.000000000000000000 ) ) ;
#218 = DIRECTION ( 'NONE',  ( -0.000000000000000000, -0.000000000000000000, -1.000000000000000000 ) ) ;
#219 = EDGE_CURVE ( 'NONE', #190, #326, #374, .T. ) ;
#220 = DATE_TIME_ROLE ( 'classification_date' ) ;
#221 = CARTESIAN_POINT ( 'NONE',  ( 0.000000000000000000, 0.000000000000000000, 3.000000000000000000 ) ) ;
#222 = APPROVAL_PERSON_ORGANIZATION ( #297, #4, #328 ) ;
#223 = FACE_OUTER_BOUND ( 'NONE', #256, .T. ) ;
#224 = VERTEX_POINT ( 'NONE', #232 ) ;
#225 = LINE ( 'NONE', #166, #333 ) ;
#226 = DIRECTION ( 'NONE',  ( -0.000000000000000000, -0.000000000000000000, -1.000000000000000000 ) ) ;
#227 = ORIENTED_EDGE ( 'NONE', *, *, #46, .T. ) ;
#228 = DIRECTION ( 'NONE',  ( 1.000000000000000000, 0.000000000000000000, 0.000000000000000000 ) ) ;
#229 = CIRCLE ( 'NONE', #67, 4.000000000000000000 ) ;
#230 = SECURITY_CLASSIFICATION ( '', '', #361 ) ;
#231 = ORIENTED_EDGE ( 'NONE', *, *, #43, .F. ) ;
#232 = CARTESIAN_POINT ( 'NONE',  ( 1.000000000000000000, 1.224646799147353207E-16, 403.0000000000000000 ) ) ;
#233 = ORIENTED_EDGE ( 'NONE', *, *, #304, .F. ) ;
#234 = DIRECTION ( 'NONE',  ( 1.000000000000000000, 0.000000000000000000, 0.000000000000000000 ) ) ;
#235 = AXIS2_PLACEMENT_3D ( 'NONE', #80, #340, #110 ) ;
#236 = AXIS2_PLACEMENT_3D ( 'NONE', #117, #180, #355 ) ;
#237 = PERSON_AND_ORGANIZATION ( #111, #323 ) ;
#238 = EDGE_LOOP ( 'NONE', ( #316, #161, #62, #284 ) ) ;
#239 = EDGE_CURVE ( 'NONE', #377, #198, #282, .T. ) ;
#240 = APPROVAL_STATUS ( 'not_yet_approved' ) ;
#241 = ORIENTED_EDGE ( 'NONE', *, *, #86, .T. ) ;
#242 = LOCAL_TIME ( 17, 53, 45.00000000000000000, #16 ) ;
#243 = EDGE_CURVE ( 'NONE', #326, #190, #50, .T. ) ;
#244 = PERSON_AND_ORGANIZATION_ROLE ( 'design_supplier' ) ;
#245 = EDGE_LOOP ( 'NONE', ( #318, #272, #182, #187 ) ) ;
#246 = DIRECTION ( 'NONE',  ( 1.000000000000000000, 0.000000000000000000, 0.000000000000000000 ) ) ;
#247 = CC_DESIGN_APPROVAL ( #4, ( #56 ) ) ;
#248 = CARTESIAN_POINT ( 'NONE',  ( 1.000000000000000000, 1.224646799147353207E-16, 0.000000000000000000 ) ) ;
#249 = CALENDAR_DATE ( 2022, 8, 7 ) ;
#250 = EDGE_LOOP ( 'NONE', ( #69, #22 ) ) ;
#251 = CIRCLE ( 'NONE', #211, 0.2999999999999999334 ) ;
#252 = AXIS2_PLACEMENT_3D ( 'NONE', #34, #205, #149 ) ;
#253 = ORIENTED_EDGE ( 'NONE', *, *, #66, .T. ) ;
#254 = PRODUCT_DEFINITION_SHAPE ( 'NONE', 'NONE',  #79 ) ;
#255 = CARTESIAN_POINT ( 'NONE',  ( -2.299999999999999822, 2.816687638038912056E-16, 3.000000000000012434 ) ) ;
#256 = EDGE_LOOP ( 'NONE', ( #147, #103, #202, #362 ) ) ;
#257 = CARTESIAN_POINT ( 'NONE',  ( 0.000000000000000000, 0.000000000000000000, 0.000000000000000000 ) ) ;
#258 = APPROVAL ( #338, 'NEURÈENÝ' ) ;
#259 = CARTESIAN_POINT ( 'NONE',  ( -1.000000000000000000, 0.000000000000000000, 403.0000000000000000 ) ) ;
#260 = CIRCLE ( 'NONE', #98, 1.000000000000000000 ) ;
#261 = ORIENTED_EDGE ( 'NONE', *, *, #2, .F. ) ;
#262 = CC_DESIGN_PERSON_AND_ORGANIZATION_ASSIGNMENT ( #325, #363, ( #376 ) ) ;
#263 = CYLINDRICAL_SURFACE ( 'NONE', #164, 4.000000000000000000 ) ;
#264 = CARTESIAN_POINT ( 'NONE',  ( 0.000000000000000000, 0.000000000000000000, 3.000000000000000000 ) ) ;
#265 = CARTESIAN_POINT ( 'NONE',  ( 2.000000000000000000, 2.449293598294706414E-16, 403.0000000000000000 ) ) ;
#266 = CIRCLE ( 'NONE', #252, 2.000000000000000000 ) ;
#267 = EDGE_CURVE ( 'NONE', #224, #76, #286, .T. ) ;
#268 = ORIENTED_EDGE ( 'NONE', *, *, #243, .F. ) ;
#269 = PERSON_AND_ORGANIZATION ( #111, #323 ) ;
#270 = EDGE_LOOP ( 'NONE', ( #11, #287, #28, #88 ) ) ;
#271 = DIRECTION ( 'NONE',  ( 0.000000000000000000, 0.000000000000000000, 1.000000000000000000 ) ) ;
#272 = ORIENTED_EDGE ( 'NONE', *, *, #2, .T. ) ;
#273 = LOCAL_TIME ( 17, 53, 45.00000000000000000, #12 ) ;
#274 = CARTESIAN_POINT ( 'NONE',  ( 2.000000000000000000, 2.449293598294706414E-16, 3.300000000000025135 ) ) ;
#275 = DIRECTION ( 'NONE',  ( 0.000000000000000000, 0.000000000000000000, 1.000000000000000000 ) ) ;
#276 = FACE_OUTER_BOUND ( 'NONE', #137, .T. ) ;
#277 = CIRCLE ( 'NONE', #327, 2.299999999999999822 ) ;
#278 = CARTESIAN_POINT ( 'NONE',  ( 2.000000000000000000, 2.449293598294706414E-16, 403.0000000000000000 ) ) ;
#279 = ORIENTED_EDGE ( 'NONE', *, *, #280, .F. ) ;
#280 = EDGE_CURVE ( 'NONE', #204, #213, #266, .T. ) ;
#281 = ORIENTED_EDGE ( 'NONE', *, *, #219, .T. ) ;
#282 = CIRCLE ( 'NONE', #216, 0.2999999999999999334 ) ;
#283 = CARTESIAN_POINT ( 'NONE',  ( 0.000000000000000000, 0.000000000000000000, 403.0000000000000000 ) ) ;
#284 = ORIENTED_EDGE ( 'NONE', *, *, #86, .F. ) ;
#285 = PRODUCT_RELATED_PRODUCT_CATEGORY ( 'detail', '', ( #376 ) ) ;
#286 = LINE ( 'NONE', #91, #301 ) ;
#287 = ORIENTED_EDGE ( 'NONE', *, *, #310, .F. ) ;
#288 = CC_DESIGN_PERSON_AND_ORGANIZATION_ASSIGNMENT ( #102, #14, ( #79 ) ) ;
#289 = CARTESIAN_POINT ( 'NONE',  ( -1.000000000000000000, 0.000000000000000000, 0.000000000000000000 ) ) ;
#290 = TOROIDAL_SURFACE ( 'NONE', #352, 2.299999999999999822, 0.2999999999999999889 ) ;
#291 = DIRECTION ( 'NONE',  ( 0.000000000000000000, 0.000000000000000000, 1.000000000000000000 ) ) ;
#292 = EDGE_CURVE ( 'NONE', #213, #31, #87, .T. ) ;
#293 = DIRECTION ( 'NONE',  ( 1.000000000000000000, 0.000000000000000000, 0.000000000000000000 ) ) ;
#294 = CIRCLE ( 'NONE', #181, 2.299999999999999822 ) ;
#295 = DIRECTION ( 'NONE',  ( -0.000000000000000000, -0.000000000000000000, -1.000000000000000000 ) ) ;
#296 = ADVANCED_FACE ( 'NONE', ( #3 ), #263, .T. ) ;
#297 = PERSON_AND_ORGANIZATION ( #111, #323 ) ;
#298 = DIRECTION ( 'NONE',  ( 0.000000000000000000, 0.000000000000000000, 1.000000000000000000 ) ) ;
#299 = APPROVAL_ROLE ( '' ) ;
#300 = ORIENTED_EDGE ( 'NONE', *, *, #124, .F. ) ;
#301 = VECTOR ( 'NONE', #63, 1000.000000000000000 ) ;
#302 = CALENDAR_DATE ( 2022, 8, 7 ) ;
#303 = DIRECTION ( 'NONE',  ( 1.000000000000000000, 0.000000000000000000, 0.000000000000000000 ) ) ;
#304 = EDGE_CURVE ( 'NONE', #185, #198, #294, .T. ) ;
#305 = FACE_OUTER_BOUND ( 'NONE', #84, .T. ) ;
#306 = CARTESIAN_POINT ( 'NONE',  ( 4.000000000000000000, 4.898587196589412829E-16, 3.000000000000000000 ) ) ;
#307 = AXIS2_PLACEMENT_3D ( 'NONE', #337, #366, #169 ) ;
#308 = AXIS2_PLACEMENT_3D ( 'NONE', #381, #291, #118 ) ;
#309 = DIRECTION ( 'NONE',  ( -1.000000000000000000, 0.000000000000000000, 0.000000000000000000 ) ) ;
#310 = EDGE_CURVE ( 'NONE', #213, #204, #93, .T. ) ;
#311 = DIRECTION ( 'NONE',  ( -0.000000000000000000, -0.000000000000000000, -1.000000000000000000 ) ) ;
#312 = EDGE_LOOP ( 'NONE', ( #227, #349 ) ) ;
#313 = CIRCLE ( 'NONE', #321, 1.000000000000000000 ) ;
#314 = AXIS2_PLACEMENT_3D ( 'NONE', #148, #206, #208 ) ;
#315 = DIRECTION ( 'NONE',  ( -0.000000000000000000, -0.000000000000000000, -1.000000000000000000 ) ) ;
#316 = ORIENTED_EDGE ( 'NONE', *, *, #150, .F. ) ;
#317 = FACE_BOUND ( 'NONE', #70, .T. ) ;
#318 = ORIENTED_EDGE ( 'NONE', *, *, #267, .F. ) ;
#319 = DIRECTION ( 'NONE',  ( 0.000000000000000000, 0.000000000000000000, 1.000000000000000000 ) ) ;
#320 = VERTEX_POINT ( 'NONE', #259 ) ;
#321 = AXIS2_PLACEMENT_3D ( 'NONE', #359, #100, #303 ) ;
#322 = LINE ( 'NONE', #265, #55 ) ;
#323 = ORGANIZATION ( 'NEURÈENÝ', 'NEURÈENÝ', '' ) ;
#324 = EDGE_CURVE ( 'NONE', #320, #224, #89, .T. ) ;
#325 = PERSON_AND_ORGANIZATION ( #111, #323 ) ;
#326 = VERTEX_POINT ( 'NONE', #346 ) ;
#327 = AXIS2_PLACEMENT_3D ( 'NONE', #18, #130, #246 ) ;
#328 = APPROVAL_ROLE ( '' ) ;
#329 = DIRECTION ( 'NONE',  ( 1.000000000000000000, 0.000000000000000000, -0.000000000000000000 ) ) ;
#330 =( LENGTH_UNIT ( ) NAMED_UNIT ( * ) SI_UNIT ( .MILLI., .METRE. ) );
#331 = VERTEX_POINT ( 'NONE', #289 ) ;
#332 = ORIENTED_EDGE ( 'NONE', *, *, #43, .T. ) ;
#333 = VECTOR ( 'NONE', #311, 1000.000000000000000 ) ;
#334 = EDGE_CURVE ( 'NONE', #331, #76, #24, .T. ) ;
#335 = VECTOR ( 'NONE', #226, 1000.000000000000000 ) ;
#336 = DIRECTION ( 'NONE',  ( -1.000000000000000000, 0.000000000000000000, 0.000000000000000000 ) ) ;
#337 = CARTESIAN_POINT ( 'NONE',  ( 0.000000000000000000, 0.000000000000000000, 403.0000000000000000 ) ) ;
#338 = APPROVAL_STATUS ( 'not_yet_approved' ) ;
#339 = CYLINDRICAL_SURFACE ( 'NONE', #49, 4.000000000000000000 ) ;
#340 = DIRECTION ( 'NONE',  ( 0.000000000000000000, 0.000000000000000000, 1.000000000000000000 ) ) ;
#341 = EDGE_LOOP ( 'NONE', ( #129, #268 ) ) ;
#342 = DIRECTION ( 'NONE',  ( 0.000000000000000000, 0.000000000000000000, -1.000000000000000000 ) ) ;
#343 = ORIENTED_EDGE ( 'NONE', *, *, #324, .F. ) ;
#344 = EDGE_CURVE ( 'NONE', #31, #377, #116, .T. ) ;
#345 = LOCAL_TIME ( 17, 53, 45.00000000000000000, #83 ) ;
#346 = CARTESIAN_POINT ( 'NONE',  ( 4.000000000000000000, 4.898587196589412829E-16, 0.000000000000000000 ) ) ;
#347 = ORIENTED_EDGE ( 'NONE', *, *, #207, .T. ) ;
#348 = CARTESIAN_POINT ( 'NONE',  ( -2.000000000000000000, 0.000000000000000000, 403.0000000000000000 ) ) ;
#349 = ORIENTED_EDGE ( 'NONE', *, *, #304, .T. ) ;
#350 = CC_DESIGN_PERSON_AND_ORGANIZATION_ASSIGNMENT ( #65, #71, ( #230 ) ) ;
#351 = CARTESIAN_POINT ( 'NONE',  ( 0.000000000000000000, 0.000000000000000000, 3.300000000000025135 ) ) ;
#352 = AXIS2_PLACEMENT_3D ( 'NONE', #176, #33, #293 ) ;
#353 = DIRECTION ( 'NONE',  ( -0.000000000000000000, -0.000000000000000000, -1.000000000000000000 ) ) ;
#354 = AXIS2_PLACEMENT_3D ( 'NONE', #5, #319, #119 ) ;
#355 = DIRECTION ( 'NONE',  ( 1.000000000000000000, 0.000000000000000000, -0.000000000000000000 ) ) ;
#356 = DIRECTION ( 'NONE',  ( 1.000000000000000000, 0.000000000000000000, 0.000000000000000000 ) ) ;
#357 = ORIENTED_EDGE ( 'NONE', *, *, #46, .F. ) ;
#358 = APPLICATION_PROTOCOL_DEFINITION ( 'international standard', 'config_control_design', 1994, #27 ) ;
#359 = CARTESIAN_POINT ( 'NONE',  ( 0.000000000000000000, 0.000000000000000000, 403.0000000000000000 ) ) ;
#360 = CIRCLE ( 'NONE', #81, 4.000000000000000000 ) ;
#361 = SECURITY_CLASSIFICATION_LEVEL ( 'unclassified' ) ;
#362 = ORIENTED_EDGE ( 'NONE', *, *, #39, .F. ) ;
#363 = PERSON_AND_ORGANIZATION_ROLE ( 'design_owner' ) ;
#364 = ORIENTED_EDGE ( 'NONE', *, *, #239, .F. ) ;
#365 = CARTESIAN_POINT ( 'NONE',  ( -2.299999999999999822, 2.816687638038912056E-16, 3.300000000000025135 ) ) ;
#366 = DIRECTION ( 'NONE',  ( 0.000000000000000000, 0.000000000000000000, 1.000000000000000000 ) ) ;
#367 = ADVANCED_FACE ( 'NONE', ( #64 ), #151, .F. ) ;
#368 = APPROVAL_DATE_TIME ( #196, #258 ) ;
#369 = DIRECTION ( 'NONE',  ( -0.000000000000000000, -0.000000000000000000, -1.000000000000000000 ) ) ;
#370 = ADVANCED_FACE ( 'NONE', ( #317, #59 ), #174, .F. ) ;
#371 = CARTESIAN_POINT ( 'NONE',  ( 4.000000000000000000, 4.898587196589412829E-16, 3.000000000000000000 ) ) ;
#372 = AXIS2_PLACEMENT_3D ( 'NONE', #156, #298, #329 ) ;
#373 = ORIENTED_EDGE ( 'NONE', *, *, #239, .T. ) ;
#374 = CIRCLE ( 'NONE', #308, 4.000000000000000000 ) ;
#375 = DIRECTION ( 'NONE',  ( 1.000000000000000000, 0.000000000000000000, 0.000000000000000000 ) ) ;
#376 = PRODUCT ( '6814', '6814', '', ( #38 ) ) ;
#377 = VERTEX_POINT ( 'NONE', #274 ) ;
#378 = DIRECTION ( 'NONE',  ( 1.000000000000000000, 0.000000000000000000, 0.000000000000000000 ) ) ;
#379 = VECTOR ( 'NONE', #369, 1000.000000000000000 ) ;
#380 = CC_DESIGN_APPROVAL ( #258, ( #230 ) ) ;
#381 = CARTESIAN_POINT ( 'NONE',  ( 0.000000000000000000, 0.000000000000000000, 0.000000000000000000 ) ) ;
ENDSEC;
END-ISO-10303-21;
