ISO-10303-21;
HEADER;
FILE_DESCRIPTION (( 'STEP AP203' ),
    '1' );
FILE_NAME ('7861.STEP',
    '2022-07-08T14:37:51',
    ( '' ),
    ( '' ),
    'SwSTEP 2.0',
    'SolidWorks 2019',
    '' );
FILE_SCHEMA (( 'CONFIG_CONTROL_DESIGN' ));
ENDSEC;

DATA;
#1 = DIRECTION ( 'NONE',  ( 0.000000000000000000, 0.000000000000000000, 1.000000000000000000 ) ) ;
#2 = CALENDAR_DATE ( 2022, 8, 7 ) ;
#3 = CC_DESIGN_PERSON_AND_ORGANIZATION_ASSIGNMENT ( #98, #184, ( #84 ) ) ;
#4 = DIRECTION ( 'NONE',  ( -0.000000000000000000, -0.000000000000000000, -1.000000000000000000 ) ) ;
#5 = DIRECTION ( 'NONE',  ( 0.000000000000000000, 0.000000000000000000, 1.000000000000000000 ) ) ;
#6 = VECTOR ( 'NONE', #34, 1000.000000000000000 ) ;
#7 = DIRECTION ( 'NONE',  ( 1.000000000000000000, 0.000000000000000000, 0.000000000000000000 ) ) ;
#8 = DIRECTION ( 'NONE',  ( 1.000000000000000000, 0.000000000000000000, 0.000000000000000000 ) ) ;
#9 = ADVANCED_FACE ( 'NONE', ( #53 ), #173, .T. ) ;
#10 = LINE ( 'NONE', #252, #256 ) ;
#11 = APPROVAL_ROLE ( '' ) ;
#12 = DIRECTION ( 'NONE',  ( -0.000000000000000000, -0.000000000000000000, -1.000000000000000000 ) ) ;
#13 = APPROVAL_STATUS ( 'not_yet_approved' ) ;
#14 = CIRCLE ( 'NONE', #180, 6.000000000000000888 ) ;
#15 = FACE_OUTER_BOUND ( 'NONE', #20, .T. ) ;
#16 = ADVANCED_FACE ( 'NONE', ( #362, #208 ), #299, .T. ) ;
#17 = CALENDAR_DATE ( 2022, 8, 7 ) ;
#18 = DATE_AND_TIME ( #75, #145 ) ;
#19 = PRODUCT ( '7861', '7861', '', ( #242 ) ) ;
#20 = EDGE_LOOP ( 'NONE', ( #331, #229, #374, #225 ) ) ;
#21 = DIRECTION ( 'NONE',  ( 0.000000000000000000, 0.000000000000000000, 1.000000000000000000 ) ) ;
#22 = ORIENTED_EDGE ( 'NONE', *, *, #339, .F. ) ;
#23 = DIRECTION ( 'NONE',  ( 1.000000000000000000, 0.000000000000000000, 0.000000000000000000 ) ) ;
#24 = ORIENTED_EDGE ( 'NONE', *, *, #237, .F. ) ;
#25 = VERTEX_POINT ( 'NONE', #37 ) ;
#26 = EDGE_CURVE ( 'NONE', #343, #146, #266, .T. ) ;
#27 = ORIENTED_EDGE ( 'NONE', *, *, #170, .T. ) ;
#28 = CARTESIAN_POINT ( 'NONE',  ( 10.00000000000000000, 1.224646799147353256E-15, 7.000000000000000000 ) ) ;
#29 = CARTESIAN_POINT ( 'NONE',  ( 0.000000000000000000, 0.000000000000000000, 407.0000000000000000 ) ) ;
#30 = PRODUCT_RELATED_PRODUCT_CATEGORY ( 'detail', '', ( #19 ) ) ;
#31 = APPROVAL_PERSON_ORGANIZATION ( #186, #155, #154 ) ;
#32 = CARTESIAN_POINT ( 'NONE',  ( 6.000000000000000888, 7.347880794884120722E-16, 407.0000000000000000 ) ) ;
#33 = PERSON_AND_ORGANIZATION_ROLE ( 'classification_officer' ) ;
#34 = DIRECTION ( 'NONE',  ( 0.000000000000000000, 0.000000000000000000, -1.000000000000000000 ) ) ;
#35 = COORDINATED_UNIVERSAL_TIME_OFFSET ( 1, 0, .AHEAD. ) ;
#36 = EDGE_CURVE ( 'NONE', #113, #57, #187, .T. ) ;
#37 = CARTESIAN_POINT ( 'NONE',  ( 4.000000000000000000, 4.898587196589412829E-16, 0.000000000000000000 ) ) ;
#38 = AXIS2_PLACEMENT_3D ( 'NONE', #73, #131, #168 ) ;
#39 = LINE ( 'NONE', #80, #376 ) ;
#40 = VERTEX_POINT ( 'NONE', #32 ) ;
#41 = AXIS2_PLACEMENT_3D ( 'NONE', #235, #321, #327 ) ;
#42 = DIRECTION ( 'NONE',  ( 0.000000000000000000, 0.000000000000000000, 1.000000000000000000 ) ) ;
#43 = CC_DESIGN_APPROVAL ( #155, ( #372 ) ) ;
#44 = AXIS2_PLACEMENT_3D ( 'NONE', #61, #239, #181 ) ;
#45 = VERTEX_POINT ( 'NONE', #58 ) ;
#46 = DATE_AND_TIME ( #17, #77 ) ;
#47 = CARTESIAN_POINT ( 'NONE',  ( 0.000000000000000000, 0.000000000000000000, 407.0000000000000000 ) ) ;
#48 = CIRCLE ( 'NONE', #38, 6.700000000000001066 ) ;
#49 = LOCAL_TIME ( 16, 37, 51.00000000000000000, #68 ) ;
#50 = ORIENTED_EDGE ( 'NONE', *, *, #326, .F. ) ;
#51 = DIRECTION ( 'NONE',  ( 1.000000000000000000, 0.000000000000000000, -0.000000000000000000 ) ) ;
#52 = ORIENTED_EDGE ( 'NONE', *, *, #223, .T. ) ;
#53 = FACE_OUTER_BOUND ( 'NONE', #221, .T. ) ;
#54 = TOROIDAL_SURFACE ( 'NONE', #216, 6.700000000000001066, 0.6999999999999999556 ) ;
#55 = APPROVAL ( #13, 'NEURÈENÝ' ) ;
#56 = CARTESIAN_POINT ( 'NONE',  ( 0.000000000000000000, 0.000000000000000000, 7.699999999999985079 ) ) ;
#57 = VERTEX_POINT ( 'NONE', #354 ) ;
#58 = CARTESIAN_POINT ( 'NONE',  ( 4.000000000000000000, 4.898587196589412829E-16, 407.0000000000000000 ) ) ;
#59 = DIRECTION ( 'NONE',  ( 0.000000000000000000, 0.000000000000000000, -1.000000000000000000 ) ) ;
#60 = ADVANCED_FACE ( 'NONE', ( #263 ), #54, .F. ) ;
#61 = CARTESIAN_POINT ( 'NONE',  ( 0.000000000000000000, 0.000000000000000000, 407.0000000000000000 ) ) ;
#62 = DIRECTION ( 'NONE',  ( 1.000000000000000000, 0.000000000000000000, 0.000000000000000000 ) ) ;
#63 = DIRECTION ( 'NONE',  ( 0.000000000000000000, 0.000000000000000000, 1.000000000000000000 ) ) ;
#64 = AXIS2_PLACEMENT_3D ( 'NONE', #134, #109, #337 ) ;
#65 = SECURITY_CLASSIFICATION_LEVEL ( 'unclassified' ) ;
#66 = CARTESIAN_POINT ( 'NONE',  ( 10.00000000000000000, 1.224646799147353256E-15, 0.000000000000000000 ) ) ;
#67 = LINE ( 'NONE', #185, #135 ) ;
#68 = COORDINATED_UNIVERSAL_TIME_OFFSET ( 1, 0, .AHEAD. ) ;
#69 = PLANE ( 'NONE',  #347 ) ;
#70 = PERSON_AND_ORGANIZATION ( #86, #136 ) ;
#71 = DIRECTION ( 'NONE',  ( 1.000000000000000000, 0.000000000000000000, 0.000000000000000000 ) ) ;
#72 = ORIENTED_EDGE ( 'NONE', *, *, #339, .T. ) ;
#73 = CARTESIAN_POINT ( 'NONE',  ( 0.000000000000000000, 0.000000000000000000, 7.000000000000000000 ) ) ;
#74 = ADVANCED_FACE ( 'NONE', ( #318 ), #129, .T. ) ;
#75 = CALENDAR_DATE ( 2022, 8, 7 ) ;
#76 = SHAPE_DEFINITION_REPRESENTATION ( #341, #224 ) ;
#77 = LOCAL_TIME ( 16, 37, 51.00000000000000000, #279 ) ;
#78 = CC_DESIGN_PERSON_AND_ORGANIZATION_ASSIGNMENT ( #291, #152, ( #84 ) ) ;
#79 = EDGE_LOOP ( 'NONE', ( #116, #246, #87, #251 ) ) ;
#80 = CARTESIAN_POINT ( 'NONE',  ( -6.000000000000000888, 0.000000000000000000, 407.0000000000000000 ) ) ;
#81 = ORIENTED_EDGE ( 'NONE', *, *, #212, .T. ) ;
#82 = FACE_OUTER_BOUND ( 'NONE', #167, .T. ) ;
#83 = AXIS2_PLACEMENT_3D ( 'NONE', #211, #210, #325 ) ;
#84 = PRODUCT_DEFINITION_FORMATION_WITH_SPECIFIED_SOURCE ( 'LIBOVOLNÝ', '', #19, .NOT_KNOWN. ) ;
#85 = ORIENTED_EDGE ( 'NONE', *, *, #301, .T. ) ;
#86 = PERSON ( 'NEURÈENÝ', 'NEURÈENÝ', 'NEURÈENÝ', ('NEURÈENÝ'), ('NEURÈENÝ'), ('NEURÈENÝ') ) ;
#87 = ORIENTED_EDGE ( 'NONE', *, *, #288, .T. ) ;
#88 = CC_DESIGN_DATE_AND_TIME_ASSIGNMENT ( #46, #273, ( #182 ) ) ;
#89 = FACE_OUTER_BOUND ( 'NONE', #199, .T. ) ;
#90 = ORIENTED_EDGE ( 'NONE', *, *, #288, .F. ) ;
#91 = DIRECTION ( 'NONE',  ( -0.000000000000000000, -0.000000000000000000, -1.000000000000000000 ) ) ;
#92 = CIRCLE ( 'NONE', #300, 10.00000000000000000 ) ;
#93 = EDGE_CURVE ( 'NONE', #45, #113, #352, .T. ) ;
#94 = DIRECTION ( 'NONE',  ( -1.000000000000000000, 0.000000000000000000, 0.000000000000000000 ) ) ;
#95 = DESIGN_CONTEXT ( 'detailed design', #270, 'design' ) ;
#96 = CARTESIAN_POINT ( 'NONE',  ( -6.000000000000000888, 0.000000000000000000, 7.699999999999985079 ) ) ;
#97 = CARTESIAN_POINT ( 'NONE',  ( 0.000000000000000000, 0.000000000000000000, 407.0000000000000000 ) ) ;
#98 = PERSON_AND_ORGANIZATION ( #86, #136 ) ;
#99 = CARTESIAN_POINT ( 'NONE',  ( -10.00000000000000000, 0.000000000000000000, 7.000000000000000000 ) ) ;
#100 = CARTESIAN_POINT ( 'NONE',  ( 6.000000000000000888, 7.347880794884120722E-16, 407.0000000000000000 ) ) ;
#101 = ADVANCED_FACE ( 'NONE', ( #158 ), #260, .F. ) ;
#102 = CARTESIAN_POINT ( 'NONE',  ( 0.000000000000000000, 0.000000000000000000, 0.000000000000000000 ) ) ;
#103 = DIRECTION ( 'NONE',  ( 0.000000000000000000, 0.000000000000000000, 1.000000000000000000 ) ) ;
#104 = APPROVAL_DATE_TIME ( #365, #155 ) ;
#105 = ORIENTED_EDGE ( 'NONE', *, *, #257, .T. ) ;
#106 = AXIS2_PLACEMENT_3D ( 'NONE', #219, #342, #189 ) ;
#107 = PERSON_AND_ORGANIZATION ( #86, #136 ) ;
#108 = EDGE_CURVE ( 'NONE', #306, #378, #215, .T. ) ;
#109 = DIRECTION ( 'NONE',  ( 1.224646799147353207E-16, 1.000000000000000000, -0.000000000000000000 ) ) ;
#110 = PERSON_AND_ORGANIZATION ( #86, #136 ) ;
#111 = ADVANCED_FACE ( 'NONE', ( #357 ), #241, .F. ) ;
#112 = AXIS2_PLACEMENT_3D ( 'NONE', #162, #21, #8 ) ;
#113 = VERTEX_POINT ( 'NONE', #264 ) ;
#114 = ORIENTED_EDGE ( 'NONE', *, *, #261, .F. ) ;
#115 = DIRECTION ( 'NONE',  ( 1.000000000000000000, 0.000000000000000000, 0.000000000000000000 ) ) ;
#116 = ORIENTED_EDGE ( 'NONE', *, *, #133, .F. ) ;
#117 = DIRECTION ( 'NONE',  ( 1.000000000000000000, 0.000000000000000000, 0.000000000000000000 ) ) ;
#118 = CIRCLE ( 'NONE', #370, 4.000000000000000000 ) ;
#119 = CC_DESIGN_SECURITY_CLASSIFICATION ( #182, ( #84 ) ) ;
#120 = ORIENTED_EDGE ( 'NONE', *, *, #36, .F. ) ;
#121 = ORIENTED_EDGE ( 'NONE', *, *, #26, .F. ) ;
#122 = PLANE ( 'NONE',  #305 ) ;
#123 = DIRECTION ( 'NONE',  ( -1.000000000000000000, 0.000000000000000000, 0.000000000000000000 ) ) ;
#124 = FACE_OUTER_BOUND ( 'NONE', #259, .T. ) ;
#125 = CARTESIAN_POINT ( 'NONE',  ( 0.000000000000000000, 0.000000000000000000, 7.699999999999985079 ) ) ;
#126 = LINE ( 'NONE', #100, #175 ) ;
#127 = DIRECTION ( 'NONE',  ( 1.000000000000000000, 0.000000000000000000, 0.000000000000000000 ) ) ;
#128 = EDGE_CURVE ( 'NONE', #335, #40, #231, .T. ) ;
#129 = CYLINDRICAL_SURFACE ( 'NONE', #157, 6.000000000000000888 ) ;
#130 = AXIS2_PLACEMENT_3D ( 'NONE', #201, #281, #59 ) ;
#131 = DIRECTION ( 'NONE',  ( -0.000000000000000000, -0.000000000000000000, -1.000000000000000000 ) ) ;
#132 = PERSON_AND_ORGANIZATION_ROLE ( 'design_owner' ) ;
#133 = EDGE_CURVE ( 'NONE', #40, #228, #126, .T. ) ;
#134 = CARTESIAN_POINT ( 'NONE',  ( -6.700000000000001066, 8.205133554287267548E-16, 7.699999999999985079 ) ) ;
#135 = VECTOR ( 'NONE', #296, 1000.000000000000000 ) ;
#136 = ORGANIZATION ( 'NEURÈENÝ', 'NEURÈENÝ', '' ) ;
#137 = DIRECTION ( 'NONE',  ( 1.000000000000000000, 0.000000000000000000, 0.000000000000000000 ) ) ;
#138 = COORDINATED_UNIVERSAL_TIME_OFFSET ( 1, 0, .AHEAD. ) ;
#139 = CIRCLE ( 'NONE', #151, 4.000000000000000000 ) ;
#140 = VERTEX_POINT ( 'NONE', #99 ) ;
#141 = DIRECTION ( 'NONE',  ( -1.000000000000000000, 0.000000000000000000, 0.000000000000000000 ) ) ;
#142 = ORIENTED_EDGE ( 'NONE', *, *, #326, .T. ) ;
#143 = EDGE_CURVE ( 'NONE', #57, #25, #369, .T. ) ;
#144 = VERTEX_POINT ( 'NONE', #268 ) ;
#145 = LOCAL_TIME ( 16, 37, 51.00000000000000000, #138 ) ;
#146 = VERTEX_POINT ( 'NONE', #66 ) ;
#147 = APPROVAL ( #297, 'NEURÈENÝ' ) ;
#148 = EDGE_LOOP ( 'NONE', ( #52, #346 ) ) ;
#149 = CARTESIAN_POINT ( 'NONE',  ( 0.000000000000000000, 0.000000000000000000, 0.000000000000000000 ) ) ;
#150 = CARTESIAN_POINT ( 'NONE',  ( -4.000000000000000000, 0.000000000000000000, 407.0000000000000000 ) ) ;
#151 = AXIS2_PLACEMENT_3D ( 'NONE', #358, #91, #254 ) ;
#152 = PERSON_AND_ORGANIZATION_ROLE ( 'creator' ) ;
#153 = DIRECTION ( 'NONE',  ( 1.000000000000000000, 0.000000000000000000, 0.000000000000000000 ) ) ;
#154 = APPROVAL_ROLE ( '' ) ;
#155 = APPROVAL ( #218, 'NEURÈENÝ' ) ;
#156 = DIRECTION ( 'NONE',  ( 0.000000000000000000, 0.000000000000000000, 1.000000000000000000 ) ) ;
#157 = AXIS2_PLACEMENT_3D ( 'NONE', #232, #177, #94 ) ;
#158 = FACE_OUTER_BOUND ( 'NONE', #176, .T. ) ;
#159 = CC_DESIGN_APPROVAL ( #147, ( #84 ) ) ;
#160 = DIRECTION ( 'NONE',  ( -0.000000000000000000, -0.000000000000000000, -1.000000000000000000 ) ) ;
#161 = EDGE_CURVE ( 'NONE', #45, #25, #67, .T. ) ;
#162 = CARTESIAN_POINT ( 'NONE',  ( 0.000000000000000000, 0.000000000000000000, 7.699999999999985079 ) ) ;
#163 = AXIS2_PLACEMENT_3D ( 'NONE', #97, #289, #153 ) ;
#164 = CARTESIAN_POINT ( 'NONE',  ( 0.000000000000000000, 0.000000000000000000, 7.699999999999985079 ) ) ;
#165 = AXIS2_PLACEMENT_3D ( 'NONE', #363, #103, #366 ) ;
#166 = EDGE_CURVE ( 'NONE', #371, #306, #322, .T. ) ;
#167 = EDGE_LOOP ( 'NONE', ( #22, #24 ) ) ;
#168 = DIRECTION ( 'NONE',  ( 1.000000000000000000, 0.000000000000000000, 0.000000000000000000 ) ) ;
#169 = ORIENTED_EDGE ( 'NONE', *, *, #36, .T. ) ;
#170 = EDGE_CURVE ( 'NONE', #228, #371, #274, .T. ) ;
#171 = EDGE_LOOP ( 'NONE', ( #196, #105 ) ) ;
#172 = VECTOR ( 'NONE', #359, 1000.000000000000000 ) ;
#173 = CYLINDRICAL_SURFACE ( 'NONE', #298, 10.00000000000000000 ) ;
#174 = CARTESIAN_POINT ( 'NONE',  ( 10.00000000000000000, 1.224646799147353256E-15, 7.000000000000000000 ) ) ;
#175 = VECTOR ( 'NONE', #178, 1000.000000000000000 ) ;
#176 = EDGE_LOOP ( 'NONE', ( #302, #227, #169, #217 ) ) ;
#177 = DIRECTION ( 'NONE',  ( -0.000000000000000000, -0.000000000000000000, -1.000000000000000000 ) ) ;
#178 = DIRECTION ( 'NONE',  ( -0.000000000000000000, -0.000000000000000000, -1.000000000000000000 ) ) ;
#179 = APPROVAL_DATE_TIME ( #323, #147 ) ;
#180 = AXIS2_PLACEMENT_3D ( 'NONE', #164, #275, #71 ) ;
#181 = DIRECTION ( 'NONE',  ( -1.000000000000000000, 0.000000000000000000, 0.000000000000000000 ) ) ;
#182 = SECURITY_CLASSIFICATION ( '', '', #65 ) ;
#183 = ADVANCED_FACE ( 'NONE', ( #308 ), #345, .T. ) ;
#184 = PERSON_AND_ORGANIZATION_ROLE ( 'design_supplier' ) ;
#185 = CARTESIAN_POINT ( 'NONE',  ( 4.000000000000000000, 4.898587196589412829E-16, 407.0000000000000000 ) ) ;
#186 = PERSON_AND_ORGANIZATION ( #86, #136 ) ;
#187 = LINE ( 'NONE', #150, #6 ) ;
#188 = AXIS2_PLACEMENT_3D ( 'NONE', #29, #156, #294 ) ;
#189 = DIRECTION ( 'NONE',  ( -1.000000000000000000, 0.000000000000000000, 0.000000000000000000 ) ) ;
#190 = AXIS2_PLACEMENT_3D ( 'NONE', #47, #12, #141 ) ;
#191 = ORIENTED_EDGE ( 'NONE', *, *, #207, .F. ) ;
#192 = MANIFOLD_SOLID_BREP ( 'Odebrat vysunutím3', #344 ) ;
#193 = ORIENTED_EDGE ( 'NONE', *, *, #207, .T. ) ;
#194 = DIRECTION ( 'NONE',  ( 0.000000000000000000, 0.000000000000000000, 1.000000000000000000 ) ) ;
#195 = EDGE_CURVE ( 'NONE', #140, #144, #10, .T. ) ;
#196 = ORIENTED_EDGE ( 'NONE', *, *, #128, .T. ) ;
#197 = AXIS2_PLACEMENT_3D ( 'NONE', #269, #236, #62 ) ;
#198 = CARTESIAN_POINT ( 'NONE',  ( 0.000000000000000000, 0.000000000000000000, 0.000000000000000000 ) ) ;
#199 = EDGE_LOOP ( 'NONE', ( #258, #340, #142, #315 ) ) ;
#200 = ORIENTED_EDGE ( 'NONE', *, *, #257, .F. ) ;
#201 = CARTESIAN_POINT ( 'NONE',  ( 6.700000000000001066, 0.000000000000000000, 7.699999999999985079 ) ) ;
#202 = ORIENTED_EDGE ( 'NONE', *, *, #133, .T. ) ;
#203 = CC_DESIGN_PERSON_AND_ORGANIZATION_ASSIGNMENT ( #70, #213, ( #372 ) ) ;
#204 = DIRECTION ( 'NONE',  ( -1.000000000000000000, 0.000000000000000000, 0.000000000000000000 ) ) ;
#205 =( NAMED_UNIT ( * ) PLANE_ANGLE_UNIT ( ) SI_UNIT ( $, .RADIAN. ) );
#206 = CARTESIAN_POINT ( 'NONE',  ( 0.000000000000000000, 0.000000000000000000, 407.0000000000000000 ) ) ;
#207 = EDGE_CURVE ( 'NONE', #113, #45, #118, .T. ) ;
#208 = FACE_OUTER_BOUND ( 'NONE', #171, .T. ) ;
#209 = DATE_AND_TIME ( #328, #49 ) ;
#210 = DIRECTION ( 'NONE',  ( -0.000000000000000000, -0.000000000000000000, -1.000000000000000000 ) ) ;
#211 = CARTESIAN_POINT ( 'NONE',  ( 0.000000000000000000, 0.000000000000000000, 0.000000000000000000 ) ) ;
#212 = EDGE_CURVE ( 'NONE', #343, #140, #292, .T. ) ;
#213 = PERSON_AND_ORGANIZATION_ROLE ( 'creator' ) ;
#214 = CYLINDRICAL_SURFACE ( 'NONE', #106, 10.00000000000000000 ) ;
#215 = CIRCLE ( 'NONE', #41, 6.700000000000001066 ) ;
#216 = AXIS2_PLACEMENT_3D ( 'NONE', #125, #361, #7 ) ;
#217 = ORIENTED_EDGE ( 'NONE', *, *, #143, .T. ) ;
#218 = APPROVAL_STATUS ( 'not_yet_approved' ) ;
#219 = CARTESIAN_POINT ( 'NONE',  ( 0.000000000000000000, 0.000000000000000000, 7.000000000000000000 ) ) ;
#220 = APPROVAL_PERSON_ORGANIZATION ( #110, #55, #250 ) ;
#221 = EDGE_LOOP ( 'NONE', ( #121, #380, #255, #72 ) ) ;
#222 = APPROVAL_DATE_TIME ( #18, #55 ) ;
#223 = EDGE_CURVE ( 'NONE', #378, #306, #48, .T. ) ;
#224 = ADVANCED_BREP_SHAPE_REPRESENTATION ( '7861', ( #192, #293 ), #348 ) ;
#225 = ORIENTED_EDGE ( 'NONE', *, *, #195, .F. ) ;
#226 = FACE_BOUND ( 'NONE', #253, .T. ) ;
#227 = ORIENTED_EDGE ( 'NONE', *, *, #93, .T. ) ;
#228 = VERTEX_POINT ( 'NONE', #243 ) ;
#229 = ORIENTED_EDGE ( 'NONE', *, *, #26, .T. ) ;
#230 = CARTESIAN_POINT ( 'NONE',  ( 0.000000000000000000, 0.000000000000000000, 7.000000000000000000 ) ) ;
#231 = CIRCLE ( 'NONE', #307, 6.000000000000000888 ) ;
#232 = CARTESIAN_POINT ( 'NONE',  ( 0.000000000000000000, 0.000000000000000000, 407.0000000000000000 ) ) ;
#233 = CIRCLE ( 'NONE', #197, 10.00000000000000000 ) ;
#234 = CIRCLE ( 'NONE', #356, 10.00000000000000000 ) ;
#235 = CARTESIAN_POINT ( 'NONE',  ( 0.000000000000000000, 0.000000000000000000, 7.000000000000000000 ) ) ;
#236 = DIRECTION ( 'NONE',  ( 0.000000000000000000, 0.000000000000000000, 1.000000000000000000 ) ) ;
#237 = EDGE_CURVE ( 'NONE', #146, #144, #92, .T. ) ;
#238 = DIRECTION ( 'NONE',  ( 0.000000000000000000, 0.000000000000000000, -1.000000000000000000 ) ) ;
#239 = DIRECTION ( 'NONE',  ( 0.000000000000000000, 0.000000000000000000, -1.000000000000000000 ) ) ;
#240 = COORDINATED_UNIVERSAL_TIME_OFFSET ( 1, 0, .AHEAD. ) ;
#241 = CYLINDRICAL_SURFACE ( 'NONE', #44, 4.000000000000000000 ) ;
#242 = MECHANICAL_CONTEXT ( 'NONE', #265, 'mechanical' ) ;
#243 = CARTESIAN_POINT ( 'NONE',  ( 6.000000000000000888, 7.347880794884120722E-16, 7.699999999999985079 ) ) ;
#244 = APPLICATION_PROTOCOL_DEFINITION ( 'international standard', 'config_control_design', 1994, #270 ) ;
#245 = DIRECTION ( 'NONE',  ( 1.000000000000000000, 0.000000000000000000, 0.000000000000000000 ) ) ;
#246 = ORIENTED_EDGE ( 'NONE', *, *, #128, .F. ) ;
#247 = CARTESIAN_POINT ( 'NONE',  ( 0.000000000000000000, 0.000000000000000000, 7.000000000000000000 ) ) ;
#248 = LOCAL_TIME ( 16, 37, 51.00000000000000000, #240 ) ;
#249 = ADVANCED_FACE ( 'NONE', ( #226, #82 ), #69, .F. ) ;
#250 = APPROVAL_ROLE ( '' ) ;
#251 = ORIENTED_EDGE ( 'NONE', *, *, #261, .T. ) ;
#252 = CARTESIAN_POINT ( 'NONE',  ( -10.00000000000000000, 0.000000000000000000, 7.000000000000000000 ) ) ;
#253 = EDGE_LOOP ( 'NONE', ( #367, #312 ) ) ;
#254 = DIRECTION ( 'NONE',  ( 1.000000000000000000, 0.000000000000000000, 0.000000000000000000 ) ) ;
#255 = ORIENTED_EDGE ( 'NONE', *, *, #195, .T. ) ;
#256 = VECTOR ( 'NONE', #303, 1000.000000000000000 ) ;
#257 = EDGE_CURVE ( 'NONE', #40, #335, #355, .T. ) ;
#258 = ORIENTED_EDGE ( 'NONE', *, *, #166, .F. ) ;
#259 = EDGE_LOOP ( 'NONE', ( #85, #81 ) ) ;
#260 = CYLINDRICAL_SURFACE ( 'NONE', #329, 4.000000000000000000 ) ;
#261 = EDGE_CURVE ( 'NONE', #371, #228, #14, .T. ) ;
#262 = CIRCLE ( 'NONE', #130, 0.7000000000000000666 ) ;
#263 = FACE_OUTER_BOUND ( 'NONE', #282, .T. ) ;
#264 = CARTESIAN_POINT ( 'NONE',  ( -4.000000000000000000, 0.000000000000000000, 407.0000000000000000 ) ) ;
#265 = APPLICATION_CONTEXT ( 'configuration controlled 3d designs of mechanical parts and assemblies' ) ;
#266 = LINE ( 'NONE', #28, #172 ) ;
#267 = CC_DESIGN_PERSON_AND_ORGANIZATION_ASSIGNMENT ( #336, #132, ( #19 ) ) ;
#268 = CARTESIAN_POINT ( 'NONE',  ( -10.00000000000000000, 0.000000000000000000, 0.000000000000000000 ) ) ;
#269 = CARTESIAN_POINT ( 'NONE',  ( 0.000000000000000000, 0.000000000000000000, 7.000000000000000000 ) ) ;
#270 = APPLICATION_CONTEXT ( 'configuration controlled 3d designs of mechanical parts and assemblies' ) ;
#271 = DATE_TIME_ROLE ( 'creation_date' ) ;
#272 = ADVANCED_FACE ( 'NONE', ( #15 ), #214, .T. ) ;
#273 = DATE_TIME_ROLE ( 'classification_date' ) ;
#274 = CIRCLE ( 'NONE', #112, 6.000000000000000888 ) ;
#275 = DIRECTION ( 'NONE',  ( 0.000000000000000000, 0.000000000000000000, 1.000000000000000000 ) ) ;
#276 = CC_DESIGN_APPROVAL ( #55, ( #182 ) ) ;
#277 = CC_DESIGN_DATE_AND_TIME_ASSIGNMENT ( #209, #271, ( #372 ) ) ;
#278 = EDGE_LOOP ( 'NONE', ( #200, #202, #27, #90 ) ) ;
#279 = COORDINATED_UNIVERSAL_TIME_OFFSET ( 1, 0, .AHEAD. ) ;
#280 = ORIENTED_EDGE ( 'NONE', *, *, #364, .T. ) ;
#281 = DIRECTION ( 'NONE',  ( 0.000000000000000000, -1.000000000000000000, 0.000000000000000000 ) ) ;
#282 = EDGE_LOOP ( 'NONE', ( #114, #309, #377, #50 ) ) ;
#283 = DIRECTION ( 'NONE',  ( 0.000000000000000000, 0.000000000000000000, 1.000000000000000000 ) ) ;
#284 = CARTESIAN_POINT ( 'NONE',  ( 0.000000000000000000, 0.000000000000000000, 7.000000000000000000 ) ) ;
#285 = UNCERTAINTY_MEASURE_WITH_UNIT (LENGTH_MEASURE( 1.000000000000000082E-05 ), #375, 'distance_accuracy_value', 'NONE');
#286 = ORIENTED_EDGE ( 'NONE', *, *, #93, .F. ) ;
#287 = CARTESIAN_POINT ( 'NONE',  ( 6.700000000000001066, 0.000000000000000000, 6.999999999999992006 ) ) ;
#288 = EDGE_CURVE ( 'NONE', #335, #371, #39, .T. ) ;
#289 = DIRECTION ( 'NONE',  ( 0.000000000000000000, 0.000000000000000000, 1.000000000000000000 ) ) ;
#290 = DIRECTION ( 'NONE',  ( 0.000000000000000000, 0.000000000000000000, 1.000000000000000000 ) ) ;
#291 = PERSON_AND_ORGANIZATION ( #86, #136 ) ;
#292 = CIRCLE ( 'NONE', #304, 10.00000000000000000 ) ;
#293 = AXIS2_PLACEMENT_3D ( 'NONE', #102, #5, #127 ) ;
#294 = DIRECTION ( 'NONE',  ( 1.000000000000000000, 0.000000000000000000, -0.000000000000000000 ) ) ;
#295 = PERSON_AND_ORGANIZATION ( #86, #136 ) ;
#296 = DIRECTION ( 'NONE',  ( 0.000000000000000000, 0.000000000000000000, -1.000000000000000000 ) ) ;
#297 = APPROVAL_STATUS ( 'not_yet_approved' ) ;
#298 = AXIS2_PLACEMENT_3D ( 'NONE', #284, #4, #204 ) ;
#299 = PLANE ( 'NONE',  #188 ) ;
#300 = AXIS2_PLACEMENT_3D ( 'NONE', #330, #42, #115 ) ;
#301 = EDGE_CURVE ( 'NONE', #140, #343, #233, .T. ) ;
#302 = ORIENTED_EDGE ( 'NONE', *, *, #161, .F. ) ;
#303 = DIRECTION ( 'NONE',  ( -0.000000000000000000, -0.000000000000000000, -1.000000000000000000 ) ) ;
#304 = AXIS2_PLACEMENT_3D ( 'NONE', #247, #194, #137 ) ;
#305 = AXIS2_PLACEMENT_3D ( 'NONE', #230, #1, #353 ) ;
#306 = VERTEX_POINT ( 'NONE', #319 ) ;
#307 = AXIS2_PLACEMENT_3D ( 'NONE', #206, #63, #320 ) ;
#308 = FACE_OUTER_BOUND ( 'NONE', #79, .T. ) ;
#309 = ORIENTED_EDGE ( 'NONE', *, *, #166, .T. ) ;
#310 = APPROVAL_PERSON_ORGANIZATION ( #107, #147, #11 ) ;
#311 = DIRECTION ( 'NONE',  ( 0.000000000000000000, 0.000000000000000000, 1.000000000000000000 ) ) ;
#312 = ORIENTED_EDGE ( 'NONE', *, *, #364, .F. ) ;
#313 = EDGE_LOOP ( 'NONE', ( #193, #350, #280, #120 ) ) ;
#314 = CARTESIAN_POINT ( 'NONE',  ( -6.000000000000000888, 0.000000000000000000, 407.0000000000000000 ) ) ;
#315 = ORIENTED_EDGE ( 'NONE', *, *, #108, .F. ) ;
#316 = AXIS2_PLACEMENT_3D ( 'NONE', #56, #290, #23 ) ;
#317 = CC_DESIGN_PERSON_AND_ORGANIZATION_ASSIGNMENT ( #295, #33, ( #182 ) ) ;
#318 = FACE_OUTER_BOUND ( 'NONE', #278, .T. ) ;
#319 = CARTESIAN_POINT ( 'NONE',  ( -6.700000000000001066, 8.205133554287267548E-16, 6.999999999999992006 ) ) ;
#320 = DIRECTION ( 'NONE',  ( 1.000000000000000000, 0.000000000000000000, 0.000000000000000000 ) ) ;
#321 = DIRECTION ( 'NONE',  ( -0.000000000000000000, -0.000000000000000000, -1.000000000000000000 ) ) ;
#322 = CIRCLE ( 'NONE', #64, 0.7000000000000000666 ) ;
#323 = DATE_AND_TIME ( #2, #338 ) ;
#324 = TOROIDAL_SURFACE ( 'NONE', #316, 6.700000000000001066, 0.6999999999999999556 ) ;
#325 = DIRECTION ( 'NONE',  ( 1.000000000000000000, 0.000000000000000000, 0.000000000000000000 ) ) ;
#326 = EDGE_CURVE ( 'NONE', #228, #378, #262, .T. ) ;
#327 = DIRECTION ( 'NONE',  ( 1.000000000000000000, 0.000000000000000000, 0.000000000000000000 ) ) ;
#328 = CALENDAR_DATE ( 2022, 8, 7 ) ;
#329 = AXIS2_PLACEMENT_3D ( 'NONE', #381, #238, #123 ) ;
#330 = CARTESIAN_POINT ( 'NONE',  ( 0.000000000000000000, 0.000000000000000000, 0.000000000000000000 ) ) ;
#331 = ORIENTED_EDGE ( 'NONE', *, *, #212, .F. ) ;
#332 =( NAMED_UNIT ( * ) SI_UNIT ( $, .STERADIAN. ) SOLID_ANGLE_UNIT ( ) );
#333 = ADVANCED_FACE ( 'NONE', ( #89 ), #324, .F. ) ;
#334 = CARTESIAN_POINT ( 'NONE',  ( 0.000000000000000000, 0.000000000000000000, 407.0000000000000000 ) ) ;
#335 = VERTEX_POINT ( 'NONE', #314 ) ;
#336 = PERSON_AND_ORGANIZATION ( #86, #136 ) ;
#337 = DIRECTION ( 'NONE',  ( -1.000000000000000000, 1.224646799147353454E-16, 0.000000000000000000 ) ) ;
#338 = LOCAL_TIME ( 16, 37, 51.00000000000000000, #35 ) ;
#339 = EDGE_CURVE ( 'NONE', #144, #146, #234, .T. ) ;
#340 = ORIENTED_EDGE ( 'NONE', *, *, #170, .F. ) ;
#341 = PRODUCT_DEFINITION_SHAPE ( 'NONE', 'NONE',  #372 ) ;
#342 = DIRECTION ( 'NONE',  ( -0.000000000000000000, -0.000000000000000000, -1.000000000000000000 ) ) ;
#343 = VERTEX_POINT ( 'NONE', #174 ) ;
#344 = CLOSED_SHELL ( 'NONE', ( #111, #60, #74, #272, #9, #351, #249, #183, #16, #333, #101 ) ) ;
#345 = CYLINDRICAL_SURFACE ( 'NONE', #190, 6.000000000000000888 ) ;
#346 = ORIENTED_EDGE ( 'NONE', *, *, #108, .T. ) ;
#347 = AXIS2_PLACEMENT_3D ( 'NONE', #198, #311, #51 ) ;
#348 =( GEOMETRIC_REPRESENTATION_CONTEXT ( 3 ) GLOBAL_UNCERTAINTY_ASSIGNED_CONTEXT ( ( #285 ) ) GLOBAL_UNIT_ASSIGNED_CONTEXT ( ( #375, #205, #332 ) ) REPRESENTATION_CONTEXT ( 'NONE', 'WORKASPACE' ) );
#349 = EDGE_LOOP ( 'NONE', ( #191, #286 ) ) ;
#350 = ORIENTED_EDGE ( 'NONE', *, *, #161, .T. ) ;
#351 = ADVANCED_FACE ( 'NONE', ( #379, #124 ), #122, .T. ) ;
#352 = CIRCLE ( 'NONE', #163, 4.000000000000000000 ) ;
#353 = DIRECTION ( 'NONE',  ( 1.000000000000000000, 0.000000000000000000, -0.000000000000000000 ) ) ;
#354 = CARTESIAN_POINT ( 'NONE',  ( -4.000000000000000000, 0.000000000000000000, 0.000000000000000000 ) ) ;
#355 = CIRCLE ( 'NONE', #165, 6.000000000000000888 ) ;
#356 = AXIS2_PLACEMENT_3D ( 'NONE', #149, #283, #117 ) ;
#357 = FACE_OUTER_BOUND ( 'NONE', #313, .T. ) ;
#358 = CARTESIAN_POINT ( 'NONE',  ( 0.000000000000000000, 0.000000000000000000, 0.000000000000000000 ) ) ;
#359 = DIRECTION ( 'NONE',  ( -0.000000000000000000, -0.000000000000000000, -1.000000000000000000 ) ) ;
#360 = APPLICATION_PROTOCOL_DEFINITION ( 'international standard', 'config_control_design', 1994, #265 ) ;
#361 = DIRECTION ( 'NONE',  ( 0.000000000000000000, 0.000000000000000000, 1.000000000000000000 ) ) ;
#362 = FACE_BOUND ( 'NONE', #349, .T. ) ;
#363 = CARTESIAN_POINT ( 'NONE',  ( 0.000000000000000000, 0.000000000000000000, 407.0000000000000000 ) ) ;
#364 = EDGE_CURVE ( 'NONE', #25, #57, #139, .T. ) ;
#365 = DATE_AND_TIME ( #368, #248 ) ;
#366 = DIRECTION ( 'NONE',  ( 1.000000000000000000, 0.000000000000000000, 0.000000000000000000 ) ) ;
#367 = ORIENTED_EDGE ( 'NONE', *, *, #143, .F. ) ;
#368 = CALENDAR_DATE ( 2022, 8, 7 ) ;
#369 = CIRCLE ( 'NONE', #83, 4.000000000000000000 ) ;
#370 = AXIS2_PLACEMENT_3D ( 'NONE', #334, #373, #245 ) ;
#371 = VERTEX_POINT ( 'NONE', #96 ) ;
#372 = PRODUCT_DEFINITION ( 'NEZNÁMÝ', '', #84, #95 ) ;
#373 = DIRECTION ( 'NONE',  ( 0.000000000000000000, 0.000000000000000000, 1.000000000000000000 ) ) ;
#374 = ORIENTED_EDGE ( 'NONE', *, *, #237, .T. ) ;
#375 =( LENGTH_UNIT ( ) NAMED_UNIT ( * ) SI_UNIT ( .MILLI., .METRE. ) );
#376 = VECTOR ( 'NONE', #160, 1000.000000000000000 ) ;
#377 = ORIENTED_EDGE ( 'NONE', *, *, #223, .F. ) ;
#378 = VERTEX_POINT ( 'NONE', #287 ) ;
#379 = FACE_BOUND ( 'NONE', #148, .T. ) ;
#380 = ORIENTED_EDGE ( 'NONE', *, *, #301, .F. ) ;
#381 = CARTESIAN_POINT ( 'NONE',  ( 0.000000000000000000, 0.000000000000000000, 407.0000000000000000 ) ) ;
ENDSEC;
END-ISO-10303-21;
