ISO-10303-21;
HEADER;
FILE_DESCRIPTION (( 'STEP AP203' ),
    '1' );
FILE_NAME ('31dd.STEP',
    '2022-07-08T15:53:18',
    ( '' ),
    ( '' ),
    'SwSTEP 2.0',
    'SolidWorks 2019',
    '' );
FILE_SCHEMA (( 'CONFIG_CONTROL_DESIGN' ));
ENDSEC;

DATA;
#1 = DIRECTION ( 'NONE',  ( 1.000000000000000000, 0.000000000000000000, 0.000000000000000000 ) ) ;
#2 = DIRECTION ( 'NONE',  ( -0.000000000000000000, -0.000000000000000000, -1.000000000000000000 ) ) ;
#3 = CIRCLE ( 'NONE', #26, 2.799999999999999822 ) ;
#4 = CARTESIAN_POINT ( 'NONE',  ( -2.500000000000000000, 0.000000000000000000, 128.0000000000000000 ) ) ;
#5 = CARTESIAN_POINT ( 'NONE',  ( 0.000000000000000000, 0.000000000000000000, 3.000000000000000000 ) ) ;
#6 = FACE_OUTER_BOUND ( 'NONE', #134, .T. ) ;
#7 = EDGE_LOOP ( 'NONE', ( #252, #233 ) ) ;
#8 = DIRECTION ( 'NONE',  ( 0.000000000000000000, 0.000000000000000000, 1.000000000000000000 ) ) ;
#9 = ADVANCED_FACE ( 'NONE', ( #258, #347 ), #254, .F. ) ;
#10 = PRODUCT_DEFINITION_FORMATION_WITH_SPECIFIED_SOURCE ( 'LIBOVOLNÝ', '', #39, .NOT_KNOWN. ) ;
#11 = CARTESIAN_POINT ( 'NONE',  ( 0.000000000000000000, 0.000000000000000000, 3.000000000000000000 ) ) ;
#12 = LINE ( 'NONE', #364, #53 ) ;
#13 = VERTEX_POINT ( 'NONE', #320 ) ;
#14 = ADVANCED_FACE ( 'NONE', ( #85 ), #375, .T. ) ;
#15 = CARTESIAN_POINT ( 'NONE',  ( 2.500000000000000000, 3.061616997868383141E-16, 128.0000000000000000 ) ) ;
#16 = EDGE_LOOP ( 'NONE', ( #288, #343, #160, #249 ) ) ;
#17 = EDGE_LOOP ( 'NONE', ( #262, #140 ) ) ;
#18 = CALENDAR_DATE ( 2022, 8, 7 ) ;
#19 = EDGE_LOOP ( 'NONE', ( #103, #275 ) ) ;
#20 =( LENGTH_UNIT ( ) NAMED_UNIT ( * ) SI_UNIT ( .MILLI., .METRE. ) );
#21 = APPROVAL_DATE_TIME ( #287, #267 ) ;
#22 = VERTEX_POINT ( 'NONE', #121 ) ;
#23 = EDGE_CURVE ( 'NONE', #89, #78, #32, .T. ) ;
#24 = APPROVAL_DATE_TIME ( #29, #95 ) ;
#25 = DIRECTION ( 'NONE',  ( 1.000000000000000000, 0.000000000000000000, 0.000000000000000000 ) ) ;
#26 = AXIS2_PLACEMENT_3D ( 'NONE', #11, #38, #104 ) ;
#27 = SECURITY_CLASSIFICATION ( '', '', #52 ) ;
#28 = CARTESIAN_POINT ( 'NONE',  ( 0.000000000000000000, 0.000000000000000000, 0.000000000000000000 ) ) ;
#29 = DATE_AND_TIME ( #116, #200 ) ;
#30 = DIRECTION ( 'NONE',  ( -0.000000000000000000, -0.000000000000000000, -1.000000000000000000 ) ) ;
#31 = SHAPE_DEFINITION_REPRESENTATION ( #154, #291 ) ;
#32 = LINE ( 'NONE', #4, #328 ) ;
#33 = ADVANCED_FACE ( 'NONE', ( #360 ), #153, .T. ) ;
#34 = VECTOR ( 'NONE', #30, 1000.000000000000000 ) ;
#35 =( GEOMETRIC_REPRESENTATION_CONTEXT ( 3 ) GLOBAL_UNCERTAINTY_ASSIGNED_CONTEXT ( ( #302 ) ) GLOBAL_UNIT_ASSIGNED_CONTEXT ( ( #20, #226, #319 ) ) REPRESENTATION_CONTEXT ( 'NONE', 'WORKASPACE' ) );
#36 = DIRECTION ( 'NONE',  ( 0.000000000000000000, 0.000000000000000000, 1.000000000000000000 ) ) ;
#37 = CC_DESIGN_APPROVAL ( #95, ( #27 ) ) ;
#38 = DIRECTION ( 'NONE',  ( -0.000000000000000000, -0.000000000000000000, -1.000000000000000000 ) ) ;
#39 = PRODUCT ( '31dd', '31dd', '', ( #114 ) ) ;
#40 = CC_DESIGN_PERSON_AND_ORGANIZATION_ASSIGNMENT ( #80, #202, ( #10 ) ) ;
#41 = CARTESIAN_POINT ( 'NONE',  ( 0.000000000000000000, 0.000000000000000000, 128.0000000000000000 ) ) ;
#42 = CARTESIAN_POINT ( 'NONE',  ( -5.000000000000000000, 0.000000000000000000, 3.000000000000000000 ) ) ;
#43 = ORIENTED_EDGE ( 'NONE', *, *, #150, .T. ) ;
#44 = DIRECTION ( 'NONE',  ( 1.000000000000000000, 0.000000000000000000, 0.000000000000000000 ) ) ;
#45 = APPROVAL ( #296, 'NEURÈENÝ' ) ;
#46 = CYLINDRICAL_SURFACE ( 'NONE', #176, 5.000000000000000000 ) ;
#47 = ORIENTED_EDGE ( 'NONE', *, *, #194, .T. ) ;
#48 = CIRCLE ( 'NONE', #67, 1.000000000000000000 ) ;
#49 = APPROVAL_STATUS ( 'not_yet_approved' ) ;
#50 = VERTEX_POINT ( 'NONE', #301 ) ;
#51 = ADVANCED_FACE ( 'NONE', ( #381, #299 ), #98, .T. ) ;
#52 = SECURITY_CLASSIFICATION_LEVEL ( 'unclassified' ) ;
#53 = VECTOR ( 'NONE', #370, 1000.000000000000000 ) ;
#54 = APPLICATION_PROTOCOL_DEFINITION ( 'international standard', 'config_control_design', 1994, #55 ) ;
#55 = APPLICATION_CONTEXT ( 'configuration controlled 3d designs of mechanical parts and assemblies' ) ;
#56 = EDGE_LOOP ( 'NONE', ( #79, #278 ) ) ;
#57 = EDGE_CURVE ( 'NONE', #351, #197, #148, .T. ) ;
#58 = DIRECTION ( 'NONE',  ( -0.000000000000000000, -0.000000000000000000, -1.000000000000000000 ) ) ;
#59 = LINE ( 'NONE', #122, #94 ) ;
#60 = VECTOR ( 'NONE', #2, 1000.000000000000000 ) ;
#61 = ORGANIZATION ( 'NEURÈENÝ', 'NEURÈENÝ', '' ) ;
#62 = LINE ( 'NONE', #126, #34 ) ;
#63 = DESIGN_CONTEXT ( 'detailed design', #138, 'design' ) ;
#64 = ADVANCED_FACE ( 'NONE', ( #120 ), #118, .F. ) ;
#65 = CARTESIAN_POINT ( 'NONE',  ( -2.500000000000000000, 0.000000000000000000, 3.299999999999997158 ) ) ;
#66 = CARTESIAN_POINT ( 'NONE',  ( 0.000000000000000000, 0.000000000000000000, 0.000000000000000000 ) ) ;
#67 = AXIS2_PLACEMENT_3D ( 'NONE', #218, #337, #274 ) ;
#68 = DIRECTION ( 'NONE',  ( 1.000000000000000000, 0.000000000000000000, 0.000000000000000000 ) ) ;
#69 = CC_DESIGN_SECURITY_CLASSIFICATION ( #27, ( #10 ) ) ;
#70 = CC_DESIGN_DATE_AND_TIME_ASSIGNMENT ( #141, #86, ( #27 ) ) ;
#71 = CARTESIAN_POINT ( 'NONE',  ( 0.000000000000000000, 0.000000000000000000, 3.000000000000000000 ) ) ;
#72 = VERTEX_POINT ( 'NONE', #332 ) ;
#73 = DIRECTION ( 'NONE',  ( -1.000000000000000000, 1.224646799147353207E-16, 0.000000000000000000 ) ) ;
#74 = CIRCLE ( 'NONE', #276, 2.500000000000000000 ) ;
#75 = ORIENTED_EDGE ( 'NONE', *, *, #144, .F. ) ;
#76 = DIRECTION ( 'NONE',  ( -0.000000000000000000, -0.000000000000000000, -1.000000000000000000 ) ) ;
#77 = ADVANCED_FACE ( 'NONE', ( #97, #151 ), #147, .T. ) ;
#78 = VERTEX_POINT ( 'NONE', #65 ) ;
#79 = ORIENTED_EDGE ( 'NONE', *, *, #105, .T. ) ;
#80 = PERSON_AND_ORGANIZATION ( #132, #61 ) ;
#81 = CIRCLE ( 'NONE', #298, 5.000000000000000000 ) ;
#82 = DIRECTION ( 'NONE',  ( 0.000000000000000000, 0.000000000000000000, 1.000000000000000000 ) ) ;
#83 = AXIS2_PLACEMENT_3D ( 'NONE', #165, #102, #219 ) ;
#84 = EDGE_CURVE ( 'NONE', #225, #374, #198, .T. ) ;
#85 = FACE_OUTER_BOUND ( 'NONE', #16, .T. ) ;
#86 = DATE_TIME_ROLE ( 'classification_date' ) ;
#87 = ORIENTED_EDGE ( 'NONE', *, *, #105, .F. ) ;
#88 = PERSON_AND_ORGANIZATION_ROLE ( 'design_owner' ) ;
#89 = VERTEX_POINT ( 'NONE', #297 ) ;
#90 = CIRCLE ( 'NONE', #186, 5.000000000000000000 ) ;
#91 = ORIENTED_EDGE ( 'NONE', *, *, #131, .F. ) ;
#92 = DIRECTION ( 'NONE',  ( -1.000000000000000000, 0.000000000000000000, 0.000000000000000000 ) ) ;
#93 = DIRECTION ( 'NONE',  ( 1.000000000000000000, 0.000000000000000000, -0.000000000000000000 ) ) ;
#94 = VECTOR ( 'NONE', #357, 1000.000000000000000 ) ;
#95 = APPROVAL ( #322, 'NEURÈENÝ' ) ;
#96 = DIRECTION ( 'NONE',  ( -0.000000000000000000, -0.000000000000000000, -1.000000000000000000 ) ) ;
#97 = FACE_BOUND ( 'NONE', #339, .T. ) ;
#98 = PLANE ( 'NONE',  #245 ) ;
#99 = CC_DESIGN_PERSON_AND_ORGANIZATION_ASSIGNMENT ( #196, #109, ( #231 ) ) ;
#100 = CIRCLE ( 'NONE', #229, 2.500000000000000000 ) ;
#101 = CARTESIAN_POINT ( 'NONE',  ( 0.000000000000000000, 0.000000000000000000, 128.0000000000000000 ) ) ;
#102 = DIRECTION ( 'NONE',  ( -0.000000000000000000, -0.000000000000000000, -1.000000000000000000 ) ) ;
#103 = ORIENTED_EDGE ( 'NONE', *, *, #84, .F. ) ;
#104 = DIRECTION ( 'NONE',  ( 1.000000000000000000, 0.000000000000000000, 0.000000000000000000 ) ) ;
#105 = EDGE_CURVE ( 'NONE', #89, #204, #206, .T. ) ;
#106 = DIRECTION ( 'NONE',  ( -1.000000000000000000, 0.000000000000000000, 0.000000000000000000 ) ) ;
#107 = DIRECTION ( 'NONE',  ( 0.000000000000000000, 0.000000000000000000, 1.000000000000000000 ) ) ;
#108 = ORIENTED_EDGE ( 'NONE', *, *, #327, .F. ) ;
#109 = PERSON_AND_ORGANIZATION_ROLE ( 'creator' ) ;
#110 = EDGE_CURVE ( 'NONE', #351, #225, #62, .T. ) ;
#111 = CARTESIAN_POINT ( 'NONE',  ( 0.000000000000000000, 0.000000000000000000, 0.000000000000000000 ) ) ;
#112 = DATE_AND_TIME ( #371, #318 ) ;
#113 = ORIENTED_EDGE ( 'NONE', *, *, #295, .F. ) ;
#114 = MECHANICAL_CONTEXT ( 'NONE', #55, 'mechanical' ) ;
#115 = CARTESIAN_POINT ( 'NONE',  ( 0.000000000000000000, 0.000000000000000000, 3.000000000000000000 ) ) ;
#116 = CALENDAR_DATE ( 2022, 8, 7 ) ;
#117 = EDGE_LOOP ( 'NONE', ( #130, #372 ) ) ;
#118 = TOROIDAL_SURFACE ( 'NONE', #185, 2.799999999999999822, 0.2999999999999999889 ) ;
#119 = TOROIDAL_SURFACE ( 'NONE', #293, 2.799999999999999822, 0.2999999999999999889 ) ;
#120 = FACE_OUTER_BOUND ( 'NONE', #325, .T. ) ;
#121 = CARTESIAN_POINT ( 'NONE',  ( 1.000000000000000000, 1.224646799147353207E-16, 0.000000000000000000 ) ) ;
#122 = CARTESIAN_POINT ( 'NONE',  ( 1.000000000000000000, 1.224646799147353207E-16, 128.0000000000000000 ) ) ;
#123 = AXIS2_PLACEMENT_3D ( 'NONE', #265, #242, #263 ) ;
#124 = CARTESIAN_POINT ( 'NONE',  ( 0.000000000000000000, 0.000000000000000000, 3.000000000000000000 ) ) ;
#125 = EDGE_CURVE ( 'NONE', #374, #225, #81, .T. ) ;
#126 = CARTESIAN_POINT ( 'NONE',  ( -5.000000000000000000, 0.000000000000000000, 3.000000000000000000 ) ) ;
#127 = CARTESIAN_POINT ( 'NONE',  ( 0.000000000000000000, 0.000000000000000000, 128.0000000000000000 ) ) ;
#128 = DIRECTION ( 'NONE',  ( 1.000000000000000000, 0.000000000000000000, 0.000000000000000000 ) ) ;
#129 = CARTESIAN_POINT ( 'NONE',  ( -5.000000000000000000, 0.000000000000000000, 0.000000000000000000 ) ) ;
#130 = ORIENTED_EDGE ( 'NONE', *, *, #333, .F. ) ;
#131 = EDGE_CURVE ( 'NONE', #192, #72, #255, .T. ) ;
#132 = PERSON ( 'NEURÈENÝ', 'NEURÈENÝ', 'NEURÈENÝ', ('NEURÈENÝ'), ('NEURÈENÝ'), ('NEURÈENÝ') ) ;
#133 = CARTESIAN_POINT ( 'NONE',  ( 5.000000000000000000, 6.123233995736766282E-16, 0.000000000000000000 ) ) ;
#134 = EDGE_LOOP ( 'NONE', ( #315, #113, #143, #273 ) ) ;
#135 = CARTESIAN_POINT ( 'NONE',  ( 1.000000000000000000, 1.224646799147353207E-16, 128.0000000000000000 ) ) ;
#136 = AXIS2_PLACEMENT_3D ( 'NONE', #303, #36, #157 ) ;
#137 = CALENDAR_DATE ( 2022, 8, 7 ) ;
#138 = APPLICATION_CONTEXT ( 'configuration controlled 3d designs of mechanical parts and assemblies' ) ;
#139 = ORIENTED_EDGE ( 'NONE', *, *, #163, .T. ) ;
#140 = ORIENTED_EDGE ( 'NONE', *, *, #349, .T. ) ;
#141 = DATE_AND_TIME ( #18, #329 ) ;
#142 = AXIS2_PLACEMENT_3D ( 'NONE', #184, #96, #183 ) ;
#143 = ORIENTED_EDGE ( 'NONE', *, *, #304, .T. ) ;
#144 = EDGE_CURVE ( 'NONE', #204, #50, #326, .T. ) ;
#145 = DIRECTION ( 'NONE',  ( 0.000000000000000000, 0.000000000000000000, 1.000000000000000000 ) ) ;
#146 = ORIENTED_EDGE ( 'NONE', *, *, #304, .F. ) ;
#147 = PLANE ( 'NONE',  #335 ) ;
#148 = CIRCLE ( 'NONE', #379, 5.000000000000000000 ) ;
#149 = CC_DESIGN_APPROVAL ( #45, ( #10 ) ) ;
#150 = EDGE_CURVE ( 'NONE', #192, #22, #59, .T. ) ;
#151 = FACE_OUTER_BOUND ( 'NONE', #56, .T. ) ;
#152 = DIRECTION ( 'NONE',  ( 0.000000000000000000, 0.000000000000000000, 1.000000000000000000 ) ) ;
#153 = CYLINDRICAL_SURFACE ( 'NONE', #123, 2.500000000000000000 ) ;
#154 = PRODUCT_DEFINITION_SHAPE ( 'NONE', 'NONE',  #231 ) ;
#155 = EDGE_CURVE ( 'NONE', #207, #13, #309, .T. ) ;
#156 = AXIS2_PLACEMENT_3D ( 'NONE', #311, #272, #128 ) ;
#157 = DIRECTION ( 'NONE',  ( 1.000000000000000000, 0.000000000000000000, 0.000000000000000000 ) ) ;
#158 = CYLINDRICAL_SURFACE ( 'NONE', #269, 1.000000000000000000 ) ;
#159 = CARTESIAN_POINT ( 'NONE',  ( 0.000000000000000000, 0.000000000000000000, 3.299999999999997158 ) ) ;
#160 = ORIENTED_EDGE ( 'NONE', *, *, #110, .T. ) ;
#161 = AXIS2_PLACEMENT_3D ( 'NONE', #314, #145, #224 ) ;
#162 = DIRECTION ( 'NONE',  ( 0.000000000000000000, 0.000000000000000000, 1.000000000000000000 ) ) ;
#163 = EDGE_CURVE ( 'NONE', #72, #192, #181, .T. ) ;
#164 = ORIENTED_EDGE ( 'NONE', *, *, #295, .T. ) ;
#165 = CARTESIAN_POINT ( 'NONE',  ( 0.000000000000000000, 0.000000000000000000, 128.0000000000000000 ) ) ;
#166 = DIRECTION ( 'NONE',  ( 1.000000000000000000, 0.000000000000000000, 0.000000000000000000 ) ) ;
#167 = ORIENTED_EDGE ( 'NONE', *, *, #125, .T. ) ;
#168 = CC_DESIGN_PERSON_AND_ORGANIZATION_ASSIGNMENT ( #171, #88, ( #39 ) ) ;
#169 = LOCAL_TIME ( 17, 53, 18.00000000000000000, #350 ) ;
#170 = VERTEX_POINT ( 'NONE', #270 ) ;
#171 = PERSON_AND_ORGANIZATION ( #132, #61 ) ;
#172 = PERSON_AND_ORGANIZATION_ROLE ( 'classification_officer' ) ;
#173 = ORIENTED_EDGE ( 'NONE', *, *, #175, .F. ) ;
#174 = COORDINATED_UNIVERSAL_TIME_OFFSET ( 1, 0, .AHEAD. ) ;
#175 = EDGE_CURVE ( 'NONE', #197, #351, #90, .T. ) ;
#176 = AXIS2_PLACEMENT_3D ( 'NONE', #71, #76, #307 ) ;
#177 = PERSON_AND_ORGANIZATION ( #132, #61 ) ;
#178 = DIRECTION ( 'NONE',  ( 0.000000000000000000, 0.000000000000000000, 1.000000000000000000 ) ) ;
#179 = CC_DESIGN_DATE_AND_TIME_ASSIGNMENT ( #205, #261, ( #231 ) ) ;
#180 = DIRECTION ( 'NONE',  ( 0.000000000000000000, 0.000000000000000000, 1.000000000000000000 ) ) ;
#181 = CIRCLE ( 'NONE', #136, 1.000000000000000000 ) ;
#182 = DIRECTION ( 'NONE',  ( 0.000000000000000000, 0.000000000000000000, 1.000000000000000000 ) ) ;
#183 = DIRECTION ( 'NONE',  ( 1.000000000000000000, 0.000000000000000000, 0.000000000000000000 ) ) ;
#184 = CARTESIAN_POINT ( 'NONE',  ( 0.000000000000000000, 0.000000000000000000, 3.000000000000000000 ) ) ;
#185 = AXIS2_PLACEMENT_3D ( 'NONE', #268, #215, #239 ) ;
#186 = AXIS2_PLACEMENT_3D ( 'NONE', #5, #8, #166 ) ;
#187 = DIRECTION ( 'NONE',  ( -1.000000000000000000, 0.000000000000000000, 0.000000000000000000 ) ) ;
#188 = FACE_OUTER_BOUND ( 'NONE', #323, .T. ) ;
#189 = CARTESIAN_POINT ( 'NONE',  ( 2.799999999999999822, 0.000000000000000000, 2.999999999999998668 ) ) ;
#190 = AXIS2_PLACEMENT_3D ( 'NONE', #41, #193, #106 ) ;
#191 = CARTESIAN_POINT ( 'NONE',  ( -2.799999999999999822, 3.429011037612588783E-16, 3.299999999999997158 ) ) ;
#192 = VERTEX_POINT ( 'NONE', #135 ) ;
#193 = DIRECTION ( 'NONE',  ( 0.000000000000000000, 0.000000000000000000, -1.000000000000000000 ) ) ;
#194 = EDGE_CURVE ( 'NONE', #78, #50, #74, .T. ) ;
#195 = ORIENTED_EDGE ( 'NONE', *, *, #150, .F. ) ;
#196 = PERSON_AND_ORGANIZATION ( #132, #61 ) ;
#197 = VERTEX_POINT ( 'NONE', #312 ) ;
#198 = CIRCLE ( 'NONE', #368, 5.000000000000000000 ) ;
#199 = CIRCLE ( 'NONE', #217, 0.2999999999999999334 ) ;
#200 = LOCAL_TIME ( 17, 53, 18.00000000000000000, #174 ) ;
#201 = DIRECTION ( 'NONE',  ( 1.000000000000000000, 0.000000000000000000, -0.000000000000000000 ) ) ;
#202 = PERSON_AND_ORGANIZATION_ROLE ( 'design_supplier' ) ;
#203 = PERSON_AND_ORGANIZATION ( #132, #61 ) ;
#204 = VERTEX_POINT ( 'NONE', #15 ) ;
#205 = DATE_AND_TIME ( #137, #380 ) ;
#206 = CIRCLE ( 'NONE', #228, 2.500000000000000000 ) ;
#207 = VERTEX_POINT ( 'NONE', #189 ) ;
#208 = ORIENTED_EDGE ( 'NONE', *, *, #369, .F. ) ;
#209 = ADVANCED_FACE ( 'NONE', ( #188 ), #341, .F. ) ;
#210 = CARTESIAN_POINT ( 'NONE',  ( 0.000000000000000000, 0.000000000000000000, 128.0000000000000000 ) ) ;
#211 = DIRECTION ( 'NONE',  ( 0.000000000000000000, 0.000000000000000000, 1.000000000000000000 ) ) ;
#212 = AXIS2_PLACEMENT_3D ( 'NONE', #191, #243, #73 ) ;
#213 = DIRECTION ( 'NONE',  ( 1.000000000000000000, 0.000000000000000000, 0.000000000000000000 ) ) ;
#214 = ADVANCED_FACE ( 'NONE', ( #251 ), #158, .F. ) ;
#215 = DIRECTION ( 'NONE',  ( 0.000000000000000000, 0.000000000000000000, 1.000000000000000000 ) ) ;
#216 = CARTESIAN_POINT ( 'NONE',  ( 0.000000000000000000, 0.000000000000000000, 128.0000000000000000 ) ) ;
#217 = AXIS2_PLACEMENT_3D ( 'NONE', #223, #366, #334 ) ;
#218 = CARTESIAN_POINT ( 'NONE',  ( 0.000000000000000000, 0.000000000000000000, 0.000000000000000000 ) ) ;
#219 = DIRECTION ( 'NONE',  ( -1.000000000000000000, 0.000000000000000000, 0.000000000000000000 ) ) ;
#220 = DIRECTION ( 'NONE',  ( 0.000000000000000000, 0.000000000000000000, -1.000000000000000000 ) ) ;
#221 = MANIFOLD_SOLID_BREP ( 'Odebrat vysunutím3', #292 ) ;
#222 = ADVANCED_FACE ( 'NONE', ( #6 ), #119, .F. ) ;
#223 = CARTESIAN_POINT ( 'NONE',  ( 2.799999999999999822, 0.000000000000000000, 3.299999999999997158 ) ) ;
#224 = DIRECTION ( 'NONE',  ( 1.000000000000000000, 0.000000000000000000, 0.000000000000000000 ) ) ;
#225 = VERTEX_POINT ( 'NONE', #129 ) ;
#226 =( NAMED_UNIT ( * ) PLANE_ANGLE_UNIT ( ) SI_UNIT ( $, .RADIAN. ) );
#227 = ORIENTED_EDGE ( 'NONE', *, *, #333, .T. ) ;
#228 = AXIS2_PLACEMENT_3D ( 'NONE', #237, #182, #330 ) ;
#229 = AXIS2_PLACEMENT_3D ( 'NONE', #361, #107, #306 ) ;
#230 = COORDINATED_UNIVERSAL_TIME_OFFSET ( 1, 0, .AHEAD. ) ;
#231 = PRODUCT_DEFINITION ( 'NEZNÁMÝ', '', #10, #63 ) ;
#232 = PERSON_AND_ORGANIZATION ( #132, #61 ) ;
#233 = ORIENTED_EDGE ( 'NONE', *, *, #175, .T. ) ;
#234 = EDGE_CURVE ( 'NONE', #78, #13, #236, .T. ) ;
#235 = ORIENTED_EDGE ( 'NONE', *, *, #234, .T. ) ;
#236 = CIRCLE ( 'NONE', #212, 0.2999999999999999334 ) ;
#237 = CARTESIAN_POINT ( 'NONE',  ( 0.000000000000000000, 0.000000000000000000, 128.0000000000000000 ) ) ;
#238 = DIRECTION ( 'NONE',  ( -0.000000000000000000, -0.000000000000000000, -1.000000000000000000 ) ) ;
#239 = DIRECTION ( 'NONE',  ( 1.000000000000000000, 0.000000000000000000, 0.000000000000000000 ) ) ;
#240 = VECTOR ( 'NONE', #220, 1000.000000000000000 ) ;
#241 = CARTESIAN_POINT ( 'NONE',  ( 0.000000000000000000, 0.000000000000000000, 3.000000000000000000 ) ) ;
#242 = DIRECTION ( 'NONE',  ( -0.000000000000000000, -0.000000000000000000, -1.000000000000000000 ) ) ;
#243 = DIRECTION ( 'NONE',  ( 1.224646799147353207E-16, 1.000000000000000000, -0.000000000000000000 ) ) ;
#244 = ORIENTED_EDGE ( 'NONE', *, *, #194, .F. ) ;
#245 = AXIS2_PLACEMENT_3D ( 'NONE', #241, #180, #355 ) ;
#246 = FACE_OUTER_BOUND ( 'NONE', #313, .T. ) ;
#247 = EDGE_LOOP ( 'NONE', ( #195, #290, #362, #227 ) ) ;
#248 = CARTESIAN_POINT ( 'NONE',  ( -1.000000000000000000, 0.000000000000000000, 128.0000000000000000 ) ) ;
#249 = ORIENTED_EDGE ( 'NONE', *, *, #84, .T. ) ;
#250 = DIRECTION ( 'NONE',  ( 0.000000000000000000, 0.000000000000000000, -1.000000000000000000 ) ) ;
#251 = FACE_OUTER_BOUND ( 'NONE', #247, .T. ) ;
#252 = ORIENTED_EDGE ( 'NONE', *, *, #57, .T. ) ;
#253 = APPROVAL_ROLE ( '' ) ;
#254 = PLANE ( 'NONE',  #283 ) ;
#255 = CIRCLE ( 'NONE', #344, 1.000000000000000000 ) ;
#256 = CIRCLE ( 'NONE', #310, 2.500000000000000000 ) ;
#257 = PERSON_AND_ORGANIZATION ( #132, #61 ) ;
#258 = FACE_BOUND ( 'NONE', #117, .T. ) ;
#259 = APPLICATION_PROTOCOL_DEFINITION ( 'international standard', 'config_control_design', 1994, #138 ) ;
#260 = EDGE_CURVE ( 'NONE', #197, #374, #12, .T. ) ;
#261 = DATE_TIME_ROLE ( 'creation_date' ) ;
#262 = ORIENTED_EDGE ( 'NONE', *, *, #155, .T. ) ;
#263 = DIRECTION ( 'NONE',  ( -1.000000000000000000, 0.000000000000000000, 0.000000000000000000 ) ) ;
#264 = APPROVAL_PERSON_ORGANIZATION ( #177, #45, #253 ) ;
#265 = CARTESIAN_POINT ( 'NONE',  ( 0.000000000000000000, 0.000000000000000000, 128.0000000000000000 ) ) ;
#266 = CARTESIAN_POINT ( 'NONE',  ( 2.500000000000000000, 3.061616997868383141E-16, 128.0000000000000000 ) ) ;
#267 = APPROVAL ( #49, 'NEURÈENÝ' ) ;
#268 = CARTESIAN_POINT ( 'NONE',  ( 0.000000000000000000, 0.000000000000000000, 3.299999999999997158 ) ) ;
#269 = AXIS2_PLACEMENT_3D ( 'NONE', #127, #250, #187 ) ;
#270 = CARTESIAN_POINT ( 'NONE',  ( -1.000000000000000000, 0.000000000000000000, 0.000000000000000000 ) ) ;
#271 = CC_DESIGN_PERSON_AND_ORGANIZATION_ASSIGNMENT ( #342, #348, ( #10 ) ) ;
#272 = DIRECTION ( 'NONE',  ( -0.000000000000000000, -0.000000000000000000, -1.000000000000000000 ) ) ;
#273 = ORIENTED_EDGE ( 'NONE', *, *, #349, .F. ) ;
#274 = DIRECTION ( 'NONE',  ( 1.000000000000000000, 0.000000000000000000, 0.000000000000000000 ) ) ;
#275 = ORIENTED_EDGE ( 'NONE', *, *, #125, .F. ) ;
#276 = AXIS2_PLACEMENT_3D ( 'NONE', #159, #162, #44 ) ;
#277 = CYLINDRICAL_SURFACE ( 'NONE', #83, 2.500000000000000000 ) ;
#278 = ORIENTED_EDGE ( 'NONE', *, *, #327, .T. ) ;
#279 = DIRECTION ( 'NONE',  ( 0.000000000000000000, 0.000000000000000000, 1.000000000000000000 ) ) ;
#280 = ORIENTED_EDGE ( 'NONE', *, *, #23, .T. ) ;
#281 = DIRECTION ( 'NONE',  ( 0.000000000000000000, 0.000000000000000000, 1.000000000000000000 ) ) ;
#282 = ORIENTED_EDGE ( 'NONE', *, *, #163, .F. ) ;
#283 = AXIS2_PLACEMENT_3D ( 'NONE', #111, #82, #201 ) ;
#284 = CALENDAR_DATE ( 2022, 8, 7 ) ;
#285 = ORIENTED_EDGE ( 'NONE', *, *, #144, .T. ) ;
#286 = ADVANCED_FACE ( 'NONE', ( #340 ), #46, .T. ) ;
#287 = DATE_AND_TIME ( #284, #169 ) ;
#288 = ORIENTED_EDGE ( 'NONE', *, *, #260, .F. ) ;
#289 = COORDINATED_UNIVERSAL_TIME_OFFSET ( 1, 0, .AHEAD. ) ;
#290 = ORIENTED_EDGE ( 'NONE', *, *, #131, .T. ) ;
#291 = ADVANCED_BREP_SHAPE_REPRESENTATION ( '31dd', ( #221, #161 ), #35 ) ;
#292 = CLOSED_SHELL ( 'NONE', ( #209, #64, #33, #286, #14, #51, #9, #358, #77, #222, #214 ) ) ;
#293 = AXIS2_PLACEMENT_3D ( 'NONE', #365, #281, #68 ) ;
#294 = ORIENTED_EDGE ( 'NONE', *, *, #110, .F. ) ;
#295 = EDGE_CURVE ( 'NONE', #50, #78, #100, .T. ) ;
#296 = APPROVAL_STATUS ( 'not_yet_approved' ) ;
#297 = CARTESIAN_POINT ( 'NONE',  ( -2.500000000000000000, 0.000000000000000000, 128.0000000000000000 ) ) ;
#298 = AXIS2_PLACEMENT_3D ( 'NONE', #66, #152, #353 ) ;
#299 = FACE_OUTER_BOUND ( 'NONE', #7, .T. ) ;
#300 = CC_DESIGN_PERSON_AND_ORGANIZATION_ASSIGNMENT ( #257, #172, ( #27 ) ) ;
#301 = CARTESIAN_POINT ( 'NONE',  ( 2.500000000000000000, 3.061616997868383141E-16, 3.299999999999997158 ) ) ;
#302 = UNCERTAINTY_MEASURE_WITH_UNIT (LENGTH_MEASURE( 1.000000000000000082E-05 ), #20, 'distance_accuracy_value', 'NONE');
#303 = CARTESIAN_POINT ( 'NONE',  ( 0.000000000000000000, 0.000000000000000000, 128.0000000000000000 ) ) ;
#304 = EDGE_CURVE ( 'NONE', #50, #207, #199, .T. ) ;
#305 = DIRECTION ( 'NONE',  ( 1.000000000000000000, 0.000000000000000000, 0.000000000000000000 ) ) ;
#306 = DIRECTION ( 'NONE',  ( 1.000000000000000000, 0.000000000000000000, 0.000000000000000000 ) ) ;
#307 = DIRECTION ( 'NONE',  ( -1.000000000000000000, 0.000000000000000000, 0.000000000000000000 ) ) ;
#308 = EDGE_LOOP ( 'NONE', ( #108, #285, #164, #352 ) ) ;
#309 = CIRCLE ( 'NONE', #142, 2.799999999999999822 ) ;
#310 = AXIS2_PLACEMENT_3D ( 'NONE', #101, #279, #305 ) ;
#311 = CARTESIAN_POINT ( 'NONE',  ( 0.000000000000000000, 0.000000000000000000, 0.000000000000000000 ) ) ;
#312 = CARTESIAN_POINT ( 'NONE',  ( 5.000000000000000000, 6.123233995736766282E-16, 3.000000000000000000 ) ) ;
#313 = EDGE_LOOP ( 'NONE', ( #75, #87, #280, #47 ) ) ;
#314 = CARTESIAN_POINT ( 'NONE',  ( 0.000000000000000000, 0.000000000000000000, 0.000000000000000000 ) ) ;
#315 = ORIENTED_EDGE ( 'NONE', *, *, #234, .F. ) ;
#316 = PRODUCT_RELATED_PRODUCT_CATEGORY ( 'detail', '', ( #39 ) ) ;
#317 = AXIS2_PLACEMENT_3D ( 'NONE', #115, #58, #92 ) ;
#318 = LOCAL_TIME ( 17, 53, 18.00000000000000000, #376 ) ;
#319 =( NAMED_UNIT ( * ) SI_UNIT ( $, .STERADIAN. ) SOLID_ANGLE_UNIT ( ) );
#320 = CARTESIAN_POINT ( 'NONE',  ( -2.799999999999999822, 3.429011037612589276E-16, 2.999999999999998668 ) ) ;
#321 = EDGE_LOOP ( 'NONE', ( #173, #378, #167, #294 ) ) ;
#322 = APPROVAL_STATUS ( 'not_yet_approved' ) ;
#323 = EDGE_LOOP ( 'NONE', ( #139, #43, #377, #208 ) ) ;
#324 = APPROVAL_ROLE ( '' ) ;
#325 = EDGE_LOOP ( 'NONE', ( #244, #235, #367, #146 ) ) ;
#326 = LINE ( 'NONE', #266, #60 ) ;
#327 = EDGE_CURVE ( 'NONE', #204, #89, #256, .T. ) ;
#328 = VECTOR ( 'NONE', #238, 1000.000000000000000 ) ;
#329 = LOCAL_TIME ( 17, 53, 18.00000000000000000, #289 ) ;
#330 = DIRECTION ( 'NONE',  ( 1.000000000000000000, 0.000000000000000000, 0.000000000000000000 ) ) ;
#331 = DIRECTION ( 'NONE',  ( 0.000000000000000000, 0.000000000000000000, 1.000000000000000000 ) ) ;
#332 = CARTESIAN_POINT ( 'NONE',  ( -1.000000000000000000, 0.000000000000000000, 128.0000000000000000 ) ) ;
#333 = EDGE_CURVE ( 'NONE', #170, #22, #48, .T. ) ;
#334 = DIRECTION ( 'NONE',  ( 0.000000000000000000, 0.000000000000000000, -1.000000000000000000 ) ) ;
#335 = AXIS2_PLACEMENT_3D ( 'NONE', #216, #178, #93 ) ;
#336 = APPROVAL_PERSON_ORGANIZATION ( #232, #267, #373 ) ;
#337 = DIRECTION ( 'NONE',  ( -0.000000000000000000, -0.000000000000000000, -1.000000000000000000 ) ) ;
#338 = LINE ( 'NONE', #248, #240 ) ;
#339 = EDGE_LOOP ( 'NONE', ( #282, #91 ) ) ;
#340 = FACE_OUTER_BOUND ( 'NONE', #321, .T. ) ;
#341 = CYLINDRICAL_SURFACE ( 'NONE', #190, 1.000000000000000000 ) ;
#342 = PERSON_AND_ORGANIZATION ( #132, #61 ) ;
#343 = ORIENTED_EDGE ( 'NONE', *, *, #57, .F. ) ;
#344 = AXIS2_PLACEMENT_3D ( 'NONE', #210, #331, #213 ) ;
#345 = CC_DESIGN_APPROVAL ( #267, ( #231 ) ) ;
#346 = APPROVAL_DATE_TIME ( #112, #45 ) ;
#347 = FACE_OUTER_BOUND ( 'NONE', #19, .T. ) ;
#348 = PERSON_AND_ORGANIZATION_ROLE ( 'creator' ) ;
#349 = EDGE_CURVE ( 'NONE', #13, #207, #3, .T. ) ;
#350 = COORDINATED_UNIVERSAL_TIME_OFFSET ( 1, 0, .AHEAD. ) ;
#351 = VERTEX_POINT ( 'NONE', #42 ) ;
#352 = ORIENTED_EDGE ( 'NONE', *, *, #23, .F. ) ;
#353 = DIRECTION ( 'NONE',  ( 1.000000000000000000, 0.000000000000000000, 0.000000000000000000 ) ) ;
#354 = EDGE_CURVE ( 'NONE', #22, #170, #356, .T. ) ;
#355 = DIRECTION ( 'NONE',  ( 1.000000000000000000, 0.000000000000000000, -0.000000000000000000 ) ) ;
#356 = CIRCLE ( 'NONE', #156, 1.000000000000000000 ) ;
#357 = DIRECTION ( 'NONE',  ( 0.000000000000000000, 0.000000000000000000, -1.000000000000000000 ) ) ;
#358 = ADVANCED_FACE ( 'NONE', ( #246 ), #277, .T. ) ;
#359 = DIRECTION ( 'NONE',  ( 0.000000000000000000, 0.000000000000000000, 1.000000000000000000 ) ) ;
#360 = FACE_OUTER_BOUND ( 'NONE', #308, .T. ) ;
#361 = CARTESIAN_POINT ( 'NONE',  ( 0.000000000000000000, 0.000000000000000000, 3.299999999999997158 ) ) ;
#362 = ORIENTED_EDGE ( 'NONE', *, *, #369, .T. ) ;
#363 = APPROVAL_PERSON_ORGANIZATION ( #203, #95, #324 ) ;
#364 = CARTESIAN_POINT ( 'NONE',  ( 5.000000000000000000, 6.123233995736766282E-16, 3.000000000000000000 ) ) ;
#365 = CARTESIAN_POINT ( 'NONE',  ( 0.000000000000000000, 0.000000000000000000, 3.299999999999997158 ) ) ;
#366 = DIRECTION ( 'NONE',  ( 0.000000000000000000, -1.000000000000000000, 0.000000000000000000 ) ) ;
#367 = ORIENTED_EDGE ( 'NONE', *, *, #155, .F. ) ;
#368 = AXIS2_PLACEMENT_3D ( 'NONE', #28, #211, #25 ) ;
#369 = EDGE_CURVE ( 'NONE', #72, #170, #338, .T. ) ;
#370 = DIRECTION ( 'NONE',  ( -0.000000000000000000, -0.000000000000000000, -1.000000000000000000 ) ) ;
#371 = CALENDAR_DATE ( 2022, 8, 7 ) ;
#372 = ORIENTED_EDGE ( 'NONE', *, *, #354, .F. ) ;
#373 = APPROVAL_ROLE ( '' ) ;
#374 = VERTEX_POINT ( 'NONE', #133 ) ;
#375 = CYLINDRICAL_SURFACE ( 'NONE', #317, 5.000000000000000000 ) ;
#376 = COORDINATED_UNIVERSAL_TIME_OFFSET ( 1, 0, .AHEAD. ) ;
#377 = ORIENTED_EDGE ( 'NONE', *, *, #354, .T. ) ;
#378 = ORIENTED_EDGE ( 'NONE', *, *, #260, .T. ) ;
#379 = AXIS2_PLACEMENT_3D ( 'NONE', #124, #359, #1 ) ;
#380 = LOCAL_TIME ( 17, 53, 18.00000000000000000, #230 ) ;
#381 = FACE_BOUND ( 'NONE', #17, .T. ) ;
ENDSEC;
END-ISO-10303-21;
