ISO-10303-21;
HEADER;
FILE_DESCRIPTION (( 'STEP AP203' ),
    '1' );
FILE_NAME ('3e1c.STEP',
    '2022-07-08T14:45:18',
    ( '' ),
    ( '' ),
    'SwSTEP 2.0',
    'SolidWorks 2019',
    '' );
FILE_SCHEMA (( 'CONFIG_CONTROL_DESIGN' ));
ENDSEC;

DATA;
#1 = LINE ( 'NONE', #235, #106 ) ;
#2 = AXIS2_PLACEMENT_3D ( 'NONE', #182, #247, #153 ) ;
#3 = PRODUCT_DEFINITION_SHAPE ( 'NONE', 'NONE',  #9 ) ;
#4 = DIRECTION ( 'NONE',  ( 1.000000000000000000, 0.000000000000000000, 0.000000000000000000 ) ) ;
#5 = CARTESIAN_POINT ( 'NONE',  ( -5.000000000000000000, 0.000000000000000000, 505.0000000000000000 ) ) ;
#6 = CARTESIAN_POINT ( 'NONE',  ( 0.000000000000000000, 0.000000000000000000, 505.0000000000000000 ) ) ;
#7 = LOCAL_TIME ( 16, 45, 18.00000000000000000, #276 ) ;
#8 = CARTESIAN_POINT ( 'NONE',  ( 0.000000000000000000, 0.000000000000000000, 0.000000000000000000 ) ) ;
#9 = PRODUCT_DEFINITION ( 'NEZNÁMÝ', '', #324, #131 ) ;
#10 = ORIENTED_EDGE ( 'NONE', *, *, #171, .F. ) ;
#11 = DIRECTION ( 'NONE',  ( 1.000000000000000000, 0.000000000000000000, 0.000000000000000000 ) ) ;
#12 = ORIENTED_EDGE ( 'NONE', *, *, #258, .F. ) ;
#13 = DATE_AND_TIME ( #214, #250 ) ;
#14 = DIRECTION ( 'NONE',  ( 1.000000000000000000, 0.000000000000000000, 0.000000000000000000 ) ) ;
#15 = EDGE_CURVE ( 'NONE', #187, #229, #78, .T. ) ;
#16 = APPROVAL_ROLE ( '' ) ;
#17 =( GEOMETRIC_REPRESENTATION_CONTEXT ( 3 ) GLOBAL_UNCERTAINTY_ASSIGNED_CONTEXT ( ( #278 ) ) GLOBAL_UNIT_ASSIGNED_CONTEXT ( ( #193, #76, #167 ) ) REPRESENTATION_CONTEXT ( 'NONE', 'WORKASPACE' ) );
#18 = EDGE_LOOP ( 'NONE', ( #376, #23 ) ) ;
#19 = PERSON_AND_ORGANIZATION_ROLE ( 'creator' ) ;
#20 = VECTOR ( 'NONE', #84, 1000.000000000000000 ) ;
#21 = ORIENTED_EDGE ( 'NONE', *, *, #362, .T. ) ;
#22 = ADVANCED_FACE ( 'NONE', ( #82, #259 ), #75, .T. ) ;
#23 = ORIENTED_EDGE ( 'NONE', *, *, #116, .F. ) ;
#24 = AXIS2_PLACEMENT_3D ( 'NONE', #60, #351, #204 ) ;
#25 = PERSON_AND_ORGANIZATION ( #141, #103 ) ;
#26 = CIRCLE ( 'NONE', #349, 8.000000000000000000 ) ;
#27 = ORIENTED_EDGE ( 'NONE', *, *, #222, .F. ) ;
#28 = DIRECTION ( 'NONE',  ( 0.000000000000000000, 0.000000000000000000, 1.000000000000000000 ) ) ;
#29 = ADVANCED_FACE ( 'NONE', ( #59, #87 ), #142, .T. ) ;
#30 = DIRECTION ( 'NONE',  ( 1.000000000000000000, 0.000000000000000000, 0.000000000000000000 ) ) ;
#31 = CC_DESIGN_SECURITY_CLASSIFICATION ( #172, ( #324 ) ) ;
#32 = ADVANCED_BREP_SHAPE_REPRESENTATION ( '3e1c', ( #63, #260 ), #17 ) ;
#33 = CARTESIAN_POINT ( 'NONE',  ( 0.000000000000000000, 0.000000000000000000, 5.000000000000000000 ) ) ;
#34 = DIRECTION ( 'NONE',  ( 1.000000000000000000, 0.000000000000000000, -0.000000000000000000 ) ) ;
#35 = CARTESIAN_POINT ( 'NONE',  ( 0.000000000000000000, 0.000000000000000000, 505.0000000000000000 ) ) ;
#36 = CIRCLE ( 'NONE', #177, 3.250000000000000444 ) ;
#37 = CYLINDRICAL_SURFACE ( 'NONE', #122, 3.250000000000000444 ) ;
#38 = DIRECTION ( 'NONE',  ( -1.000000000000000000, 0.000000000000000000, 0.000000000000000000 ) ) ;
#39 = ORIENTED_EDGE ( 'NONE', *, *, #116, .T. ) ;
#40 = EDGE_CURVE ( 'NONE', #246, #169, #140, .T. ) ;
#41 = DIRECTION ( 'NONE',  ( 0.000000000000000000, 0.000000000000000000, 1.000000000000000000 ) ) ;
#42 = APPROVAL_PERSON_ORGANIZATION ( #93, #69, #16 ) ;
#43 = DIRECTION ( 'NONE',  ( -0.000000000000000000, -0.000000000000000000, -1.000000000000000000 ) ) ;
#44 = ORIENTED_EDGE ( 'NONE', *, *, #227, .T. ) ;
#45 = APPROVAL ( #274, 'NEURÈENÝ' ) ;
#46 = PERSON_AND_ORGANIZATION ( #141, #103 ) ;
#47 = CARTESIAN_POINT ( 'NONE',  ( 0.000000000000000000, 0.000000000000000000, 5.500000000000005329 ) ) ;
#48 = DIRECTION ( 'NONE',  ( -0.000000000000000000, -0.000000000000000000, -1.000000000000000000 ) ) ;
#49 = ADVANCED_FACE ( 'NONE', ( #356 ), #381, .T. ) ;
#50 = ORIENTED_EDGE ( 'NONE', *, *, #15, .T. ) ;
#51 = CARTESIAN_POINT ( 'NONE',  ( 8.000000000000000000, 9.797174393178825657E-16, 5.000000000000000000 ) ) ;
#52 = DIRECTION ( 'NONE',  ( 1.224646799147353207E-16, 1.000000000000000000, -0.000000000000000000 ) ) ;
#53 = VERTEX_POINT ( 'NONE', #322 ) ;
#54 = ORIENTED_EDGE ( 'NONE', *, *, #40, .F. ) ;
#55 = DIRECTION ( 'NONE',  ( 0.000000000000000000, 0.000000000000000000, 1.000000000000000000 ) ) ;
#56 = FACE_OUTER_BOUND ( 'NONE', #370, .T. ) ;
#57 = ADVANCED_FACE ( 'NONE', ( #319 ), #37, .F. ) ;
#58 = DIRECTION ( 'NONE',  ( 0.000000000000000000, -1.000000000000000000, 0.000000000000000000 ) ) ;
#59 = FACE_BOUND ( 'NONE', #163, .T. ) ;
#60 = CARTESIAN_POINT ( 'NONE',  ( 0.000000000000000000, 0.000000000000000000, 0.000000000000000000 ) ) ;
#61 = AXIS2_PLACEMENT_3D ( 'NONE', #265, #174, #261 ) ;
#62 = DIRECTION ( 'NONE',  ( 0.000000000000000000, 0.000000000000000000, 1.000000000000000000 ) ) ;
#63 = MANIFOLD_SOLID_BREP ( 'Odebrat vysunutím3', #146 ) ;
#64 = SECURITY_CLASSIFICATION_LEVEL ( 'unclassified' ) ;
#65 = CYLINDRICAL_SURFACE ( 'NONE', #2, 3.250000000000000444 ) ;
#66 = ORIENTED_EDGE ( 'NONE', *, *, #77, .F. ) ;
#67 = EDGE_LOOP ( 'NONE', ( #162, #272, #50, #334 ) ) ;
#68 = SHAPE_DEFINITION_REPRESENTATION ( #3, #32 ) ;
#69 = APPROVAL ( #188, 'NEURÈENÝ' ) ;
#70 = CARTESIAN_POINT ( 'NONE',  ( 3.250000000000000444, 3.980102097228898231E-16, 0.000000000000000000 ) ) ;
#71 = DATE_AND_TIME ( #160, #205 ) ;
#72 = FACE_OUTER_BOUND ( 'NONE', #330, .T. ) ;
#73 = ORIENTED_EDGE ( 'NONE', *, *, #362, .F. ) ;
#74 = PERSON_AND_ORGANIZATION ( #141, #103 ) ;
#75 = PLANE ( 'NONE',  #252 ) ;
#76 =( NAMED_UNIT ( * ) PLANE_ANGLE_UNIT ( ) SI_UNIT ( $, .RADIAN. ) );
#77 = EDGE_CURVE ( 'NONE', #338, #138, #1, .T. ) ;
#78 = CIRCLE ( 'NONE', #270, 8.000000000000000000 ) ;
#79 = VERTEX_POINT ( 'NONE', #170 ) ;
#80 = AXIS2_PLACEMENT_3D ( 'NONE', #143, #58, #139 ) ;
#81 = EDGE_CURVE ( 'NONE', #198, #220, #320, .T. ) ;
#82 = FACE_BOUND ( 'NONE', #18, .T. ) ;
#83 = AXIS2_PLACEMENT_3D ( 'NONE', #316, #55, #267 ) ;
#84 = DIRECTION ( 'NONE',  ( -0.000000000000000000, -0.000000000000000000, -1.000000000000000000 ) ) ;
#85 = DIRECTION ( 'NONE',  ( 0.000000000000000000, 0.000000000000000000, 1.000000000000000000 ) ) ;
#86 = AXIS2_PLACEMENT_3D ( 'NONE', #33, #113, #4 ) ;
#87 = FACE_OUTER_BOUND ( 'NONE', #224, .T. ) ;
#88 = CARTESIAN_POINT ( 'NONE',  ( 8.000000000000000000, 9.797174393178825657E-16, 5.000000000000000000 ) ) ;
#89 = CARTESIAN_POINT ( 'NONE',  ( 5.000000000000000000, 6.123233995736766282E-16, 505.0000000000000000 ) ) ;
#90 = PRODUCT_RELATED_PRODUCT_CATEGORY ( 'detail', '', ( #358 ) ) ;
#91 = CARTESIAN_POINT ( 'NONE',  ( -5.000000000000000000, 0.000000000000000000, 505.0000000000000000 ) ) ;
#92 = CARTESIAN_POINT ( 'NONE',  ( -8.000000000000000000, 0.000000000000000000, 5.000000000000000000 ) ) ;
#93 = PERSON_AND_ORGANIZATION ( #141, #103 ) ;
#94 = CARTESIAN_POINT ( 'NONE',  ( 0.000000000000000000, 0.000000000000000000, 505.0000000000000000 ) ) ;
#95 = VECTOR ( 'NONE', #366, 1000.000000000000000 ) ;
#96 = COORDINATED_UNIVERSAL_TIME_OFFSET ( 1, 0, .AHEAD. ) ;
#97 = DIRECTION ( 'NONE',  ( 0.000000000000000000, 0.000000000000000000, 1.000000000000000000 ) ) ;
#98 = AXIS2_PLACEMENT_3D ( 'NONE', #35, #85, #30 ) ;
#99 = ORIENTED_EDGE ( 'NONE', *, *, #328, .F. ) ;
#100 = CARTESIAN_POINT ( 'NONE',  ( 0.000000000000000000, 0.000000000000000000, 0.000000000000000000 ) ) ;
#101 = ORIENTED_EDGE ( 'NONE', *, *, #81, .F. ) ;
#102 = ADVANCED_FACE ( 'NONE', ( #237 ), #375, .F. ) ;
#103 = ORGANIZATION ( 'NEURÈENÝ', 'NEURÈENÝ', '' ) ;
#104 = DATE_AND_TIME ( #107, #242 ) ;
#105 = VERTEX_POINT ( 'NONE', #88 ) ;
#106 = VECTOR ( 'NONE', #353, 1000.000000000000000 ) ;
#107 = CALENDAR_DATE ( 2022, 8, 7 ) ;
#108 = VERTEX_POINT ( 'NONE', #288 ) ;
#109 = EDGE_CURVE ( 'NONE', #338, #246, #280, .T. ) ;
#110 = ORIENTED_EDGE ( 'NONE', *, *, #145, .F. ) ;
#111 = CARTESIAN_POINT ( 'NONE',  ( 0.000000000000000000, 0.000000000000000000, 0.000000000000000000 ) ) ;
#112 = CC_DESIGN_PERSON_AND_ORGANIZATION_ASSIGNMENT ( #297, #157, ( #172 ) ) ;
#113 = DIRECTION ( 'NONE',  ( -0.000000000000000000, -0.000000000000000000, -1.000000000000000000 ) ) ;
#114 = DIRECTION ( 'NONE',  ( 0.000000000000000000, 0.000000000000000000, 1.000000000000000000 ) ) ;
#115 = DIRECTION ( 'NONE',  ( -0.000000000000000000, -0.000000000000000000, -1.000000000000000000 ) ) ;
#116 = EDGE_CURVE ( 'NONE', #79, #53, #301, .T. ) ;
#117 = DIRECTION ( 'NONE',  ( 0.000000000000000000, 0.000000000000000000, 1.000000000000000000 ) ) ;
#118 = DIRECTION ( 'NONE',  ( 1.000000000000000000, 0.000000000000000000, 0.000000000000000000 ) ) ;
#119 = CC_DESIGN_APPROVAL ( #45, ( #324 ) ) ;
#120 = CALENDAR_DATE ( 2022, 8, 7 ) ;
#121 = FACE_OUTER_BOUND ( 'NONE', #374, .T. ) ;
#122 = AXIS2_PLACEMENT_3D ( 'NONE', #264, #262, #350 ) ;
#123 = ORIENTED_EDGE ( 'NONE', *, *, #345, .T. ) ;
#124 = CYLINDRICAL_SURFACE ( 'NONE', #213, 5.000000000000000000 ) ;
#125 = PERSON_AND_ORGANIZATION ( #141, #103 ) ;
#126 = CALENDAR_DATE ( 2022, 8, 7 ) ;
#127 = LINE ( 'NONE', #51, #315 ) ;
#128 = COORDINATED_UNIVERSAL_TIME_OFFSET ( 1, 0, .AHEAD. ) ;
#129 = DIRECTION ( 'NONE',  ( -1.000000000000000000, 1.224646799147351482E-16, 0.000000000000000000 ) ) ;
#130 = ORIENTED_EDGE ( 'NONE', *, *, #281, .T. ) ;
#131 = DESIGN_CONTEXT ( 'detailed design', #238, 'design' ) ;
#132 = EDGE_LOOP ( 'NONE', ( #134, #215, #130, #312 ) ) ;
#133 = CIRCLE ( 'NONE', #61, 5.500000000000000000 ) ;
#134 = ORIENTED_EDGE ( 'NONE', *, *, #369, .F. ) ;
#135 = CC_DESIGN_DATE_AND_TIME_ASSIGNMENT ( #13, #155, ( #9 ) ) ;
#136 = DIRECTION ( 'NONE',  ( 1.000000000000000000, 0.000000000000000000, 0.000000000000000000 ) ) ;
#137 = CIRCLE ( 'NONE', #80, 0.5000000000000004441 ) ;
#138 = VERTEX_POINT ( 'NONE', #206 ) ;
#139 = DIRECTION ( 'NONE',  ( 0.000000000000000000, 0.000000000000000000, -1.000000000000000000 ) ) ;
#140 = LINE ( 'NONE', #5, #20 ) ;
#141 = PERSON ( 'NEURÈENÝ', 'NEURÈENÝ', 'NEURÈENÝ', ('NEURÈENÝ'), ('NEURÈENÝ'), ('NEURÈENÝ') ) ;
#142 = PLANE ( 'NONE',  #266 ) ;
#143 = CARTESIAN_POINT ( 'NONE',  ( 5.500000000000000000, 0.000000000000000000, 5.500000000000005329 ) ) ;
#144 = CIRCLE ( 'NONE', #306, 8.000000000000000000 ) ;
#145 = EDGE_CURVE ( 'NONE', #138, #198, #137, .T. ) ;
#146 = CLOSED_SHELL ( 'NONE', ( #57, #203, #234, #49, #379, #29, #191, #298, #22, #102, #208 ) ) ;
#147 = CARTESIAN_POINT ( 'NONE',  ( 0.000000000000000000, 0.000000000000000000, 5.000000000000000000 ) ) ;
#148 = CARTESIAN_POINT ( 'NONE',  ( -3.250000000000000444, 0.000000000000000000, 505.0000000000000000 ) ) ;
#149 = PERSON_AND_ORGANIZATION_ROLE ( 'creator' ) ;
#150 = LINE ( 'NONE', #148, #95 ) ;
#151 = CIRCLE ( 'NONE', #340, 5.000000000000000000 ) ;
#152 = ORIENTED_EDGE ( 'NONE', *, *, #222, .T. ) ;
#153 = DIRECTION ( 'NONE',  ( -1.000000000000000000, 0.000000000000000000, 0.000000000000000000 ) ) ;
#154 = ORIENTED_EDGE ( 'NONE', *, *, #227, .F. ) ;
#155 = DATE_TIME_ROLE ( 'creation_date' ) ;
#156 = CARTESIAN_POINT ( 'NONE',  ( 0.000000000000000000, 0.000000000000000000, 5.000000000000000000 ) ) ;
#157 = PERSON_AND_ORGANIZATION_ROLE ( 'classification_officer' ) ;
#158 = DIRECTION ( 'NONE',  ( 1.000000000000000000, 0.000000000000000000, 0.000000000000000000 ) ) ;
#159 = EDGE_LOOP ( 'NONE', ( #123, #367, #44, #164 ) ) ;
#160 = CALENDAR_DATE ( 2022, 8, 7 ) ;
#161 = PERSON_AND_ORGANIZATION ( #141, #103 ) ;
#162 = ORIENTED_EDGE ( 'NONE', *, *, #290, .F. ) ;
#163 = EDGE_LOOP ( 'NONE', ( #253, #202 ) ) ;
#164 = ORIENTED_EDGE ( 'NONE', *, *, #263, .F. ) ;
#165 = VECTOR ( 'NONE', #277, 1000.000000000000000 ) ;
#166 = AXIS2_PLACEMENT_3D ( 'NONE', #156, #268, #11 ) ;
#167 =( NAMED_UNIT ( * ) SI_UNIT ( $, .STERADIAN. ) SOLID_ANGLE_UNIT ( ) );
#168 = EDGE_LOOP ( 'NONE', ( #73, #12, #300, #10 ) ) ;
#169 = VERTEX_POINT ( 'NONE', #173 ) ;
#170 = CARTESIAN_POINT ( 'NONE',  ( 3.250000000000000444, 3.980102097228898231E-16, 505.0000000000000000 ) ) ;
#171 = EDGE_CURVE ( 'NONE', #220, #198, #133, .T. ) ;
#172 = SECURITY_CLASSIFICATION ( '', '', #64 ) ;
#173 = CARTESIAN_POINT ( 'NONE',  ( -5.000000000000000000, 0.000000000000000000, 5.500000000000005329 ) ) ;
#174 = DIRECTION ( 'NONE',  ( -0.000000000000000000, -0.000000000000000000, -1.000000000000000000 ) ) ;
#175 = DIRECTION ( 'NONE',  ( 1.000000000000000000, 0.000000000000000000, 0.000000000000000000 ) ) ;
#176 = EDGE_CURVE ( 'NONE', #254, #232, #354, .T. ) ;
#177 = AXIS2_PLACEMENT_3D ( 'NONE', #8, #295, #326 ) ;
#178 = DIRECTION ( 'NONE',  ( 0.000000000000000000, 0.000000000000000000, 1.000000000000000000 ) ) ;
#179 = DIRECTION ( 'NONE',  ( 1.000000000000000000, 0.000000000000000000, 0.000000000000000000 ) ) ;
#180 = CARTESIAN_POINT ( 'NONE',  ( 3.250000000000000444, 3.980102097228898231E-16, 505.0000000000000000 ) ) ;
#181 = DATE_AND_TIME ( #126, #256 ) ;
#182 = CARTESIAN_POINT ( 'NONE',  ( 0.000000000000000000, 0.000000000000000000, 505.0000000000000000 ) ) ;
#183 = AXIS2_PLACEMENT_3D ( 'NONE', #111, #115, #240 ) ;
#184 = CC_DESIGN_APPROVAL ( #69, ( #172 ) ) ;
#185 = ORIENTED_EDGE ( 'NONE', *, *, #244, .F. ) ;
#186 = CYLINDRICAL_SURFACE ( 'NONE', #355, 5.000000000000000000 ) ;
#187 = VERTEX_POINT ( 'NONE', #357 ) ;
#188 = APPROVAL_STATUS ( 'not_yet_approved' ) ;
#189 = DIRECTION ( 'NONE',  ( 0.000000000000000000, 0.000000000000000000, 1.000000000000000000 ) ) ;
#190 = EDGE_LOOP ( 'NONE', ( #66, #27, #231, #327 ) ) ;
#191 = ADVANCED_FACE ( 'NONE', ( #210, #236 ), #291, .F. ) ;
#192 = DATE_AND_TIME ( #120, #7 ) ;
#193 =( LENGTH_UNIT ( ) NAMED_UNIT ( * ) SI_UNIT ( .MILLI., .METRE. ) );
#194 = CARTESIAN_POINT ( 'NONE',  ( 0.000000000000000000, 0.000000000000000000, 505.0000000000000000 ) ) ;
#195 = DIRECTION ( 'NONE',  ( 0.000000000000000000, 0.000000000000000000, 1.000000000000000000 ) ) ;
#196 = ORIENTED_EDGE ( 'NONE', *, *, #290, .T. ) ;
#197 = CC_DESIGN_PERSON_AND_ORGANIZATION_ASSIGNMENT ( #46, #149, ( #9 ) ) ;
#198 = VERTEX_POINT ( 'NONE', #317 ) ;
#199 = ORIENTED_EDGE ( 'NONE', *, *, #77, .T. ) ;
#200 = AXIS2_PLACEMENT_3D ( 'NONE', #364, #189, #303 ) ;
#201 = CC_DESIGN_APPROVAL ( #308, ( #9 ) ) ;
#202 = ORIENTED_EDGE ( 'NONE', *, *, #171, .T. ) ;
#203 = ADVANCED_FACE ( 'NONE', ( #56 ), #239, .F. ) ;
#204 = DIRECTION ( 'NONE',  ( 1.000000000000000000, 0.000000000000000000, -0.000000000000000000 ) ) ;
#205 = LOCAL_TIME ( 16, 45, 18.00000000000000000, #304 ) ;
#206 = CARTESIAN_POINT ( 'NONE',  ( 5.000000000000000000, 6.123233995736766282E-16, 5.500000000000005329 ) ) ;
#207 = AXIS2_PLACEMENT_3D ( 'NONE', #380, #114, #175 ) ;
#208 = ADVANCED_FACE ( 'NONE', ( #72 ), #65, .F. ) ;
#209 = CARTESIAN_POINT ( 'NONE',  ( 0.000000000000000000, 0.000000000000000000, 5.000000000000000000 ) ) ;
#210 = FACE_BOUND ( 'NONE', #377, .T. ) ;
#211 = AXIS2_PLACEMENT_3D ( 'NONE', #305, #257, #225 ) ;
#212 = CARTESIAN_POINT ( 'NONE',  ( -8.000000000000000000, 0.000000000000000000, 0.000000000000000000 ) ) ;
#213 = AXIS2_PLACEMENT_3D ( 'NONE', #6, #361, #335 ) ;
#214 = CALENDAR_DATE ( 2022, 8, 7 ) ;
#215 = ORIENTED_EDGE ( 'NONE', *, *, #273, .F. ) ;
#216 = EDGE_CURVE ( 'NONE', #79, #232, #299, .T. ) ;
#217 = CARTESIAN_POINT ( 'NONE',  ( -3.250000000000000444, 0.000000000000000000, 0.000000000000000000 ) ) ;
#218 = APPROVAL_DATE_TIME ( #71, #45 ) ;
#219 = AXIS2_PLACEMENT_3D ( 'NONE', #339, #52, #129 ) ;
#220 = VERTEX_POINT ( 'NONE', #363 ) ;
#221 = APPROVAL_ROLE ( '' ) ;
#222 = EDGE_CURVE ( 'NONE', #246, #338, #365, .T. ) ;
#223 = DIRECTION ( 'NONE',  ( 1.000000000000000000, 0.000000000000000000, 0.000000000000000000 ) ) ;
#224 = EDGE_LOOP ( 'NONE', ( #341, #196 ) ) ;
#225 = DIRECTION ( 'NONE',  ( -1.000000000000000000, 0.000000000000000000, 0.000000000000000000 ) ) ;
#226 = ORIENTED_EDGE ( 'NONE', *, *, #15, .F. ) ;
#227 = EDGE_CURVE ( 'NONE', #232, #254, #36, .T. ) ;
#228 = APPLICATION_PROTOCOL_DEFINITION ( 'international standard', 'config_control_design', 1994, #238 ) ;
#229 = VERTEX_POINT ( 'NONE', #212 ) ;
#230 = APPROVAL_ROLE ( '' ) ;
#231 = ORIENTED_EDGE ( 'NONE', *, *, #40, .T. ) ;
#232 = VERTEX_POINT ( 'NONE', #70 ) ;
#233 = APPROVAL_PERSON_ORGANIZATION ( #368, #45, #221 ) ;
#234 = ADVANCED_FACE ( 'NONE', ( #121 ), #186, .T. ) ;
#235 = CARTESIAN_POINT ( 'NONE',  ( 5.000000000000000000, 6.123233995736766282E-16, 505.0000000000000000 ) ) ;
#236 = FACE_OUTER_BOUND ( 'NONE', #346, .T. ) ;
#237 = FACE_OUTER_BOUND ( 'NONE', #168, .T. ) ;
#238 = APPLICATION_CONTEXT ( 'configuration controlled 3d designs of mechanical parts and assemblies' ) ;
#239 = TOROIDAL_SURFACE ( 'NONE', #284, 5.500000000000000000, 0.5000000000000000000 ) ;
#240 = DIRECTION ( 'NONE',  ( 1.000000000000000000, 0.000000000000000000, 0.000000000000000000 ) ) ;
#241 = CARTESIAN_POINT ( 'NONE',  ( 0.000000000000000000, 0.000000000000000000, 5.500000000000005329 ) ) ;
#242 = LOCAL_TIME ( 16, 45, 18.00000000000000000, #285 ) ;
#243 = DIRECTION ( 'NONE',  ( 1.000000000000000000, 0.000000000000000000, 0.000000000000000000 ) ) ;
#244 = EDGE_CURVE ( 'NONE', #169, #138, #151, .T. ) ;
#245 = DIRECTION ( 'NONE',  ( 0.000000000000000000, 0.000000000000000000, 1.000000000000000000 ) ) ;
#246 = VERTEX_POINT ( 'NONE', #91 ) ;
#247 = DIRECTION ( 'NONE',  ( 0.000000000000000000, 0.000000000000000000, -1.000000000000000000 ) ) ;
#248 = DATE_TIME_ROLE ( 'classification_date' ) ;
#249 = DIRECTION ( 'NONE',  ( -0.000000000000000000, -0.000000000000000000, -1.000000000000000000 ) ) ;
#250 = LOCAL_TIME ( 16, 45, 18.00000000000000000, #96 ) ;
#251 = APPROVAL_STATUS ( 'not_yet_approved' ) ;
#252 = AXIS2_PLACEMENT_3D ( 'NONE', #194, #307, #34 ) ;
#253 = ORIENTED_EDGE ( 'NONE', *, *, #81, .T. ) ;
#254 = VERTEX_POINT ( 'NONE', #217 ) ;
#255 = CYLINDRICAL_SURFACE ( 'NONE', #211, 8.000000000000000000 ) ;
#256 = LOCAL_TIME ( 16, 45, 18.00000000000000000, #128 ) ;
#257 = DIRECTION ( 'NONE',  ( -0.000000000000000000, -0.000000000000000000, -1.000000000000000000 ) ) ;
#258 = EDGE_CURVE ( 'NONE', #138, #169, #373, .T. ) ;
#259 = FACE_OUTER_BOUND ( 'NONE', #336, .T. ) ;
#260 = AXIS2_PLACEMENT_3D ( 'NONE', #100, #195, #309 ) ;
#261 = DIRECTION ( 'NONE',  ( 1.000000000000000000, 0.000000000000000000, 0.000000000000000000 ) ) ;
#262 = DIRECTION ( 'NONE',  ( 0.000000000000000000, 0.000000000000000000, -1.000000000000000000 ) ) ;
#263 = EDGE_CURVE ( 'NONE', #53, #254, #150, .T. ) ;
#264 = CARTESIAN_POINT ( 'NONE',  ( 0.000000000000000000, 0.000000000000000000, 505.0000000000000000 ) ) ;
#265 = CARTESIAN_POINT ( 'NONE',  ( 0.000000000000000000, 0.000000000000000000, 5.000000000000000000 ) ) ;
#266 = AXIS2_PLACEMENT_3D ( 'NONE', #209, #178, #294 ) ;
#267 = DIRECTION ( 'NONE',  ( 1.000000000000000000, 0.000000000000000000, 0.000000000000000000 ) ) ;
#268 = DIRECTION ( 'NONE',  ( 0.000000000000000000, 0.000000000000000000, 1.000000000000000000 ) ) ;
#269 = AXIS2_PLACEMENT_3D ( 'NONE', #47, #41, #158 ) ;
#270 = AXIS2_PLACEMENT_3D ( 'NONE', #314, #28, #136 ) ;
#271 = CARTESIAN_POINT ( 'NONE',  ( 0.000000000000000000, 0.000000000000000000, 5.500000000000005329 ) ) ;
#272 = ORIENTED_EDGE ( 'NONE', *, *, #369, .T. ) ;
#273 = EDGE_CURVE ( 'NONE', #108, #105, #26, .T. ) ;
#274 = APPROVAL_STATUS ( 'not_yet_approved' ) ;
#275 = CARTESIAN_POINT ( 'NONE',  ( 0.000000000000000000, 0.000000000000000000, 0.000000000000000000 ) ) ;
#276 = COORDINATED_UNIVERSAL_TIME_OFFSET ( 1, 0, .AHEAD. ) ;
#277 = DIRECTION ( 'NONE',  ( 0.000000000000000000, 0.000000000000000000, -1.000000000000000000 ) ) ;
#278 = UNCERTAINTY_MEASURE_WITH_UNIT (LENGTH_MEASURE( 1.000000000000000082E-05 ), #193, 'distance_accuracy_value', 'NONE');
#279 = VECTOR ( 'NONE', #43, 1000.000000000000000 ) ;
#280 = CIRCLE ( 'NONE', #207, 5.000000000000000000 ) ;
#281 = EDGE_CURVE ( 'NONE', #108, #229, #302, .T. ) ;
#282 = MECHANICAL_CONTEXT ( 'NONE', #347, 'mechanical' ) ;
#283 = ORIENTED_EDGE ( 'NONE', *, *, #258, .T. ) ;
#284 = AXIS2_PLACEMENT_3D ( 'NONE', #271, #117, #14 ) ;
#285 = COORDINATED_UNIVERSAL_TIME_OFFSET ( 1, 0, .AHEAD. ) ;
#286 = CC_DESIGN_PERSON_AND_ORGANIZATION_ASSIGNMENT ( #161, #342, ( #358 ) ) ;
#287 = ORIENTED_EDGE ( 'NONE', *, *, #176, .T. ) ;
#288 = CARTESIAN_POINT ( 'NONE',  ( -8.000000000000000000, 0.000000000000000000, 5.000000000000000000 ) ) ;
#289 = CIRCLE ( 'NONE', #166, 8.000000000000000000 ) ;
#290 = EDGE_CURVE ( 'NONE', #105, #108, #289, .T. ) ;
#291 = PLANE ( 'NONE',  #24 ) ;
#292 = DIRECTION ( 'NONE',  ( -0.000000000000000000, -0.000000000000000000, -1.000000000000000000 ) ) ;
#293 = CIRCLE ( 'NONE', #219, 0.5000000000000004441 ) ;
#294 = DIRECTION ( 'NONE',  ( 1.000000000000000000, 0.000000000000000000, -0.000000000000000000 ) ) ;
#295 = DIRECTION ( 'NONE',  ( -0.000000000000000000, -0.000000000000000000, -1.000000000000000000 ) ) ;
#296 = ORIENTED_EDGE ( 'NONE', *, *, #263, .T. ) ;
#297 = PERSON_AND_ORGANIZATION ( #141, #103 ) ;
#298 = ADVANCED_FACE ( 'NONE', ( #359 ), #124, .T. ) ;
#299 = LINE ( 'NONE', #180, #165 ) ;
#300 = ORIENTED_EDGE ( 'NONE', *, *, #145, .T. ) ;
#301 = CIRCLE ( 'NONE', #98, 3.250000000000000444 ) ;
#302 = LINE ( 'NONE', #92, #279 ) ;
#303 = DIRECTION ( 'NONE',  ( 1.000000000000000000, 0.000000000000000000, 0.000000000000000000 ) ) ;
#304 = COORDINATED_UNIVERSAL_TIME_OFFSET ( 1, 0, .AHEAD. ) ;
#305 = CARTESIAN_POINT ( 'NONE',  ( 0.000000000000000000, 0.000000000000000000, 5.000000000000000000 ) ) ;
#306 = AXIS2_PLACEMENT_3D ( 'NONE', #275, #97, #223 ) ;
#307 = DIRECTION ( 'NONE',  ( 0.000000000000000000, 0.000000000000000000, 1.000000000000000000 ) ) ;
#308 = APPROVAL ( #251, 'NEURÈENÝ' ) ;
#309 = DIRECTION ( 'NONE',  ( 1.000000000000000000, 0.000000000000000000, 0.000000000000000000 ) ) ;
#310 = ORIENTED_EDGE ( 'NONE', *, *, #216, .F. ) ;
#311 = APPLICATION_PROTOCOL_DEFINITION ( 'international standard', 'config_control_design', 1994, #347 ) ;
#312 = ORIENTED_EDGE ( 'NONE', *, *, #328, .T. ) ;
#313 = CC_DESIGN_PERSON_AND_ORGANIZATION_ASSIGNMENT ( #74, #19, ( #324 ) ) ;
#314 = CARTESIAN_POINT ( 'NONE',  ( 0.000000000000000000, 0.000000000000000000, 0.000000000000000000 ) ) ;
#315 = VECTOR ( 'NONE', #48, 1000.000000000000000 ) ;
#316 = CARTESIAN_POINT ( 'NONE',  ( 0.000000000000000000, 0.000000000000000000, 5.500000000000005329 ) ) ;
#317 = CARTESIAN_POINT ( 'NONE',  ( 5.500000000000000000, 0.000000000000000000, 5.000000000000002665 ) ) ;
#318 = APPROVAL_PERSON_ORGANIZATION ( #25, #308, #230 ) ;
#319 = FACE_OUTER_BOUND ( 'NONE', #159, .T. ) ;
#320 = CIRCLE ( 'NONE', #86, 5.500000000000000000 ) ;
#321 = DIRECTION ( 'NONE',  ( -1.000000000000000000, 0.000000000000000000, 0.000000000000000000 ) ) ;
#322 = CARTESIAN_POINT ( 'NONE',  ( -3.250000000000000444, 0.000000000000000000, 505.0000000000000000 ) ) ;
#323 = CC_DESIGN_DATE_AND_TIME_ASSIGNMENT ( #192, #248, ( #172 ) ) ;
#324 = PRODUCT_DEFINITION_FORMATION_WITH_SPECIFIED_SOURCE ( 'LIBOVOLNÝ', '', #358, .NOT_KNOWN. ) ;
#325 = CARTESIAN_POINT ( 'NONE',  ( 0.000000000000000000, 0.000000000000000000, 505.0000000000000000 ) ) ;
#326 = DIRECTION ( 'NONE',  ( 1.000000000000000000, 0.000000000000000000, 0.000000000000000000 ) ) ;
#327 = ORIENTED_EDGE ( 'NONE', *, *, #244, .T. ) ;
#328 = EDGE_CURVE ( 'NONE', #229, #187, #144, .T. ) ;
#329 = CARTESIAN_POINT ( 'NONE',  ( 0.000000000000000000, 0.000000000000000000, 5.000000000000000000 ) ) ;
#330 = EDGE_LOOP ( 'NONE', ( #310, #39, #296, #287 ) ) ;
#331 = PERSON_AND_ORGANIZATION_ROLE ( 'design_supplier' ) ;
#332 = CIRCLE ( 'NONE', #378, 3.250000000000000444 ) ;
#333 = DIRECTION ( 'NONE',  ( 0.000000000000000000, 0.000000000000000000, 1.000000000000000000 ) ) ;
#334 = ORIENTED_EDGE ( 'NONE', *, *, #281, .F. ) ;
#335 = DIRECTION ( 'NONE',  ( -1.000000000000000000, 0.000000000000000000, 0.000000000000000000 ) ) ;
#336 = EDGE_LOOP ( 'NONE', ( #152, #371 ) ) ;
#337 = APPROVAL_DATE_TIME ( #104, #308 ) ;
#338 = VERTEX_POINT ( 'NONE', #89 ) ;
#339 = CARTESIAN_POINT ( 'NONE',  ( -5.500000000000000000, 6.735557395310442023E-16, 5.500000000000005329 ) ) ;
#340 = AXIS2_PLACEMENT_3D ( 'NONE', #241, #245, #118 ) ;
#341 = ORIENTED_EDGE ( 'NONE', *, *, #273, .T. ) ;
#342 = PERSON_AND_ORGANIZATION_ROLE ( 'design_owner' ) ;
#343 = AXIS2_PLACEMENT_3D ( 'NONE', #147, #292, #321 ) ;
#344 = ORIENTED_EDGE ( 'NONE', *, *, #176, .F. ) ;
#345 = EDGE_CURVE ( 'NONE', #53, #79, #332, .T. ) ;
#346 = EDGE_LOOP ( 'NONE', ( #99, #226 ) ) ;
#347 = APPLICATION_CONTEXT ( 'configuration controlled 3d designs of mechanical parts and assemblies' ) ;
#348 = ORIENTED_EDGE ( 'NONE', *, *, #109, .F. ) ;
#349 = AXIS2_PLACEMENT_3D ( 'NONE', #329, #333, #243 ) ;
#350 = DIRECTION ( 'NONE',  ( -1.000000000000000000, 0.000000000000000000, 0.000000000000000000 ) ) ;
#351 = DIRECTION ( 'NONE',  ( 0.000000000000000000, 0.000000000000000000, 1.000000000000000000 ) ) ;
#352 = CC_DESIGN_PERSON_AND_ORGANIZATION_ASSIGNMENT ( #125, #331, ( #324 ) ) ;
#353 = DIRECTION ( 'NONE',  ( -0.000000000000000000, -0.000000000000000000, -1.000000000000000000 ) ) ;
#354 = CIRCLE ( 'NONE', #183, 3.250000000000000444 ) ;
#355 = AXIS2_PLACEMENT_3D ( 'NONE', #94, #249, #38 ) ;
#356 = FACE_OUTER_BOUND ( 'NONE', #67, .T. ) ;
#357 = CARTESIAN_POINT ( 'NONE',  ( 8.000000000000000000, 9.797174393178825657E-16, 0.000000000000000000 ) ) ;
#358 = PRODUCT ( '3e1c', '3e1c', '', ( #282 ) ) ;
#359 = FACE_OUTER_BOUND ( 'NONE', #190, .T. ) ;
#360 = APPROVAL_DATE_TIME ( #181, #69 ) ;
#361 = DIRECTION ( 'NONE',  ( -0.000000000000000000, -0.000000000000000000, -1.000000000000000000 ) ) ;
#362 = EDGE_CURVE ( 'NONE', #169, #220, #293, .T. ) ;
#363 = CARTESIAN_POINT ( 'NONE',  ( -5.500000000000000000, 6.735557395310442023E-16, 5.000000000000002665 ) ) ;
#364 = CARTESIAN_POINT ( 'NONE',  ( 0.000000000000000000, 0.000000000000000000, 505.0000000000000000 ) ) ;
#365 = CIRCLE ( 'NONE', #200, 5.000000000000000000 ) ;
#366 = DIRECTION ( 'NONE',  ( 0.000000000000000000, 0.000000000000000000, -1.000000000000000000 ) ) ;
#367 = ORIENTED_EDGE ( 'NONE', *, *, #216, .T. ) ;
#368 = PERSON_AND_ORGANIZATION ( #141, #103 ) ;
#369 = EDGE_CURVE ( 'NONE', #105, #187, #127, .T. ) ;
#370 = EDGE_LOOP ( 'NONE', ( #185, #21, #101, #110 ) ) ;
#371 = ORIENTED_EDGE ( 'NONE', *, *, #109, .T. ) ;
#372 = FACE_OUTER_BOUND ( 'NONE', #132, .T. ) ;
#373 = CIRCLE ( 'NONE', #269, 5.000000000000000000 ) ;
#374 = EDGE_LOOP ( 'NONE', ( #348, #199, #283, #54 ) ) ;
#375 = TOROIDAL_SURFACE ( 'NONE', #83, 5.500000000000000000, 0.5000000000000000000 ) ;
#376 = ORIENTED_EDGE ( 'NONE', *, *, #345, .F. ) ;
#377 = EDGE_LOOP ( 'NONE', ( #344, #154 ) ) ;
#378 = AXIS2_PLACEMENT_3D ( 'NONE', #325, #62, #179 ) ;
#379 = ADVANCED_FACE ( 'NONE', ( #372 ), #255, .T. ) ;
#380 = CARTESIAN_POINT ( 'NONE',  ( 0.000000000000000000, 0.000000000000000000, 505.0000000000000000 ) ) ;
#381 = CYLINDRICAL_SURFACE ( 'NONE', #343, 8.000000000000000000 ) ;
ENDSEC;
END-ISO-10303-21;
