ISO-10303-21;
HEADER;
FILE_DESCRIPTION (( 'STEP AP203' ),
    '1' );
FILE_NAME ('ec44.STEP',
    '2022-07-08T15:04:50',
    ( '' ),
    ( '' ),
    'SwSTEP 2.0',
    'SolidWorks 2019',
    '' );
FILE_SCHEMA (( 'CONFIG_CONTROL_DESIGN' ));
ENDSEC;

DATA;
#1 = CYLINDRICAL_SURFACE ( 'NONE', #159, 2.750000000000000000 ) ;
#2 = ORIENTED_EDGE ( 'NONE', *, *, #149, .T. ) ;
#3 = ADVANCED_FACE ( 'NONE', ( #176 ), #38, .F. ) ;
#4 = MECHANICAL_CONTEXT ( 'NONE', #83, 'mechanical' ) ;
#5 = PERSON_AND_ORGANIZATION_ROLE ( 'creator' ) ;
#6 = CIRCLE ( 'NONE', #237, 5.000000000000000000 ) ;
#7 = PERSON_AND_ORGANIZATION ( #339, #70 ) ;
#8 = DIRECTION ( 'NONE',  ( 0.000000000000000000, 0.000000000000000000, 1.000000000000000000 ) ) ;
#9 = CC_DESIGN_PERSON_AND_ORGANIZATION_ASSIGNMENT ( #249, #216, ( #304 ) ) ;
#10 = APPROVAL_DATE_TIME ( #36, #189 ) ;
#11 = CALENDAR_DATE ( 2022, 8, 7 ) ;
#12 = DIRECTION ( 'NONE',  ( -0.000000000000000000, -0.000000000000000000, -1.000000000000000000 ) ) ;
#13 = CARTESIAN_POINT ( 'NONE',  ( -5.000000000000000000, 0.000000000000000000, 5.500000000000005329 ) ) ;
#14 = DIRECTION ( 'NONE',  ( 1.224646799147353207E-16, 1.000000000000000000, -0.000000000000000000 ) ) ;
#15 = VERTEX_POINT ( 'NONE', #350 ) ;
#16 = LINE ( 'NONE', #107, #87 ) ;
#17 = CIRCLE ( 'NONE', #141, 8.000000000000000000 ) ;
#18 = CC_DESIGN_SECURITY_CLASSIFICATION ( #116, ( #304 ) ) ;
#19 = CYLINDRICAL_SURFACE ( 'NONE', #279, 5.000000000000000000 ) ;
#20 = EDGE_LOOP ( 'NONE', ( #332, #180, #143, #238 ) ) ;
#21 = CC_DESIGN_PERSON_AND_ORGANIZATION_ASSIGNMENT ( #185, #153, ( #304 ) ) ;
#22 = ORIENTED_EDGE ( 'NONE', *, *, #284, .F. ) ;
#23 = DESIGN_CONTEXT ( 'detailed design', #147, 'design' ) ;
#24 = DIRECTION ( 'NONE',  ( 1.000000000000000000, 0.000000000000000000, 0.000000000000000000 ) ) ;
#25 = ORIENTED_EDGE ( 'NONE', *, *, #273, .F. ) ;
#26 = AXIS2_PLACEMENT_3D ( 'NONE', #161, #305, #361 ) ;
#27 = DIRECTION ( 'NONE',  ( -1.000000000000000000, 0.000000000000000000, 0.000000000000000000 ) ) ;
#28 = CARTESIAN_POINT ( 'NONE',  ( 5.500000000000000000, 0.000000000000000000, 5.500000000000005329 ) ) ;
#29 = DIRECTION ( 'NONE',  ( 0.000000000000000000, -1.000000000000000000, 0.000000000000000000 ) ) ;
#30 = DIRECTION ( 'NONE',  ( 0.000000000000000000, 0.000000000000000000, 1.000000000000000000 ) ) ;
#31 = CIRCLE ( 'NONE', #310, 8.000000000000000000 ) ;
#32 = FACE_OUTER_BOUND ( 'NONE', #72, .T. ) ;
#33 = CARTESIAN_POINT ( 'NONE',  ( 0.000000000000000000, 0.000000000000000000, 280.0000000000000000 ) ) ;
#34 = EDGE_CURVE ( 'NONE', #346, #119, #165, .T. ) ;
#35 = ORIENTED_EDGE ( 'NONE', *, *, #337, .T. ) ;
#36 = DATE_AND_TIME ( #351, #193 ) ;
#37 = CARTESIAN_POINT ( 'NONE',  ( 0.000000000000000000, 0.000000000000000000, 5.000000000000000000 ) ) ;
#38 = TOROIDAL_SURFACE ( 'NONE', #69, 5.500000000000000000, 0.5000000000000000000 ) ;
#39 = APPLICATION_PROTOCOL_DEFINITION ( 'international standard', 'config_control_design', 1994, #147 ) ;
#40 = VECTOR ( 'NONE', #49, 1000.000000000000000 ) ;
#41 = CC_DESIGN_APPROVAL ( #53, ( #116 ) ) ;
#42 = PERSON_AND_ORGANIZATION_ROLE ( 'design_owner' ) ;
#43 = EDGE_CURVE ( 'NONE', #254, #127, #97, .T. ) ;
#44 = COORDINATED_UNIVERSAL_TIME_OFFSET ( 1, 0, .AHEAD. ) ;
#45 = DIRECTION ( 'NONE',  ( 1.000000000000000000, 0.000000000000000000, 0.000000000000000000 ) ) ;
#46 = APPROVAL_STATUS ( 'not_yet_approved' ) ;
#47 = AXIS2_PLACEMENT_3D ( 'NONE', #355, #12, #134 ) ;
#48 = CARTESIAN_POINT ( 'NONE',  ( 8.000000000000000000, 9.797174393178825657E-16, 5.000000000000000000 ) ) ;
#49 = DIRECTION ( 'NONE',  ( -0.000000000000000000, -0.000000000000000000, -1.000000000000000000 ) ) ;
#50 = PLANE ( 'NONE',  #258 ) ;
#51 = ORIENTED_EDGE ( 'NONE', *, *, #68, .T. ) ;
#52 = CARTESIAN_POINT ( 'NONE',  ( 0.000000000000000000, 0.000000000000000000, 0.000000000000000000 ) ) ;
#53 = APPROVAL ( #247, 'NEURÈENÝ' ) ;
#54 = AXIS2_PLACEMENT_3D ( 'NONE', #52, #257, #228 ) ;
#55 = ORIENTED_EDGE ( 'NONE', *, *, #333, .T. ) ;
#56 = CYLINDRICAL_SURFACE ( 'NONE', #26, 2.750000000000000000 ) ;
#57 = ORIENTED_EDGE ( 'NONE', *, *, #353, .F. ) ;
#58 = DIRECTION ( 'NONE',  ( 0.000000000000000000, 0.000000000000000000, 1.000000000000000000 ) ) ;
#59 = VERTEX_POINT ( 'NONE', #374 ) ;
#60 = CIRCLE ( 'NONE', #378, 0.5000000000000004441 ) ;
#61 = LOCAL_TIME ( 17, 4, 50.00000000000000000, #220 ) ;
#62 = CC_DESIGN_PERSON_AND_ORGANIZATION_ASSIGNMENT ( #243, #42, ( #325 ) ) ;
#63 = CARTESIAN_POINT ( 'NONE',  ( 0.000000000000000000, 0.000000000000000000, 5.500000000000005329 ) ) ;
#64 = ORIENTED_EDGE ( 'NONE', *, *, #74, .F. ) ;
#65 = DIRECTION ( 'NONE',  ( 0.000000000000000000, 0.000000000000000000, 1.000000000000000000 ) ) ;
#66 = CARTESIAN_POINT ( 'NONE',  ( 0.000000000000000000, 0.000000000000000000, 5.000000000000000000 ) ) ;
#67 = EDGE_LOOP ( 'NONE', ( #256, #270, #117, #311 ) ) ;
#68 = EDGE_CURVE ( 'NONE', #59, #167, #60, .T. ) ;
#69 = AXIS2_PLACEMENT_3D ( 'NONE', #295, #93, #126 ) ;
#70 = ORGANIZATION ( 'NEURÈENÝ', 'NEURÈENÝ', '' ) ;
#71 = CARTESIAN_POINT ( 'NONE',  ( 0.000000000000000000, 0.000000000000000000, 280.0000000000000000 ) ) ;
#72 = EDGE_LOOP ( 'NONE', ( #309, #55 ) ) ;
#73 = PERSON_AND_ORGANIZATION ( #339, #70 ) ;
#74 = EDGE_CURVE ( 'NONE', #164, #234, #253, .T. ) ;
#75 = CALENDAR_DATE ( 2022, 8, 7 ) ;
#76 = AXIS2_PLACEMENT_3D ( 'NONE', #368, #115, #110 ) ;
#77 = PERSON_AND_ORGANIZATION ( #339, #70 ) ;
#78 = DIRECTION ( 'NONE',  ( -0.000000000000000000, -0.000000000000000000, -1.000000000000000000 ) ) ;
#79 = CARTESIAN_POINT ( 'NONE',  ( -8.000000000000000000, 0.000000000000000000, 5.000000000000000000 ) ) ;
#80 = AXIS2_PLACEMENT_3D ( 'NONE', #342, #92, #212 ) ;
#81 = CYLINDRICAL_SURFACE ( 'NONE', #285, 8.000000000000000000 ) ;
#82 = ORIENTED_EDGE ( 'NONE', *, *, #170, .T. ) ;
#83 = APPLICATION_CONTEXT ( 'configuration controlled 3d designs of mechanical parts and assemblies' ) ;
#84 = ORIENTED_EDGE ( 'NONE', *, *, #267, .F. ) ;
#85 = DATE_AND_TIME ( #158, #379 ) ;
#86 = FACE_OUTER_BOUND ( 'NONE', #369, .T. ) ;
#87 = VECTOR ( 'NONE', #136, 1000.000000000000000 ) ;
#88 = ORIENTED_EDGE ( 'NONE', *, *, #333, .F. ) ;
#89 = ORIENTED_EDGE ( 'NONE', *, *, #284, .T. ) ;
#90 = ORIENTED_EDGE ( 'NONE', *, *, #206, .F. ) ;
#91 = EDGE_CURVE ( 'NONE', #197, #229, #146, .T. ) ;
#92 = DIRECTION ( 'NONE',  ( 0.000000000000000000, 0.000000000000000000, 1.000000000000000000 ) ) ;
#93 = DIRECTION ( 'NONE',  ( 0.000000000000000000, 0.000000000000000000, 1.000000000000000000 ) ) ;
#94 = APPROVAL ( #132, 'NEURÈENÝ' ) ;
#95 = DIRECTION ( 'NONE',  ( -1.000000000000000000, 0.000000000000000000, 0.000000000000000000 ) ) ;
#96 = ORIENTED_EDGE ( 'NONE', *, *, #170, .F. ) ;
#97 = LINE ( 'NONE', #318, #303 ) ;
#98 = FACE_OUTER_BOUND ( 'NONE', #20, .T. ) ;
#99 = COORDINATED_UNIVERSAL_TIME_OFFSET ( 1, 0, .AHEAD. ) ;
#100 = PRODUCT_DEFINITION_SHAPE ( 'NONE', 'NONE',  #363 ) ;
#101 = VECTOR ( 'NONE', #184, 1000.000000000000000 ) ;
#102 = AXIS2_PLACEMENT_3D ( 'NONE', #202, #194, #372 ) ;
#103 = CARTESIAN_POINT ( 'NONE',  ( 8.000000000000000000, 9.797174393178825657E-16, 0.000000000000000000 ) ) ;
#104 = CARTESIAN_POINT ( 'NONE',  ( 0.000000000000000000, 0.000000000000000000, 5.000000000000000000 ) ) ;
#105 = CIRCLE ( 'NONE', #219, 2.750000000000000000 ) ;
#106 = LOCAL_TIME ( 17, 4, 50.00000000000000000, #99 ) ;
#107 = CARTESIAN_POINT ( 'NONE',  ( -8.000000000000000000, 0.000000000000000000, 5.000000000000000000 ) ) ;
#108 = EDGE_LOOP ( 'NONE', ( #227, #381, #288, #89 ) ) ;
#109 = SHAPE_DEFINITION_REPRESENTATION ( #100, #222 ) ;
#110 = DIRECTION ( 'NONE',  ( -1.000000000000000000, 0.000000000000000000, 0.000000000000000000 ) ) ;
#111 = ORIENTED_EDGE ( 'NONE', *, *, #34, .T. ) ;
#112 = EDGE_CURVE ( 'NONE', #15, #119, #269, .T. ) ;
#113 = DIRECTION ( 'NONE',  ( -1.000000000000000000, 0.000000000000000000, 0.000000000000000000 ) ) ;
#114 = EDGE_LOOP ( 'NONE', ( #341, #25, #51, #233 ) ) ;
#115 = DIRECTION ( 'NONE',  ( -0.000000000000000000, -0.000000000000000000, -1.000000000000000000 ) ) ;
#116 = SECURITY_CLASSIFICATION ( '', '', #272 ) ;
#117 = ORIENTED_EDGE ( 'NONE', *, *, #206, .T. ) ;
#118 = ADVANCED_FACE ( 'NONE', ( #248, #275 ), #218, .T. ) ;
#119 = VERTEX_POINT ( 'NONE', #103 ) ;
#120 = DIRECTION ( 'NONE',  ( 0.000000000000000000, 0.000000000000000000, 1.000000000000000000 ) ) ;
#121 = DIRECTION ( 'NONE',  ( 0.000000000000000000, 0.000000000000000000, 1.000000000000000000 ) ) ;
#122 = VERTEX_POINT ( 'NONE', #13 ) ;
#123 = CC_DESIGN_DATE_AND_TIME_ASSIGNMENT ( #356, #188, ( #116 ) ) ;
#124 = ORIENTED_EDGE ( 'NONE', *, *, #273, .T. ) ;
#125 =( NAMED_UNIT ( * ) PLANE_ANGLE_UNIT ( ) SI_UNIT ( $, .RADIAN. ) );
#126 = DIRECTION ( 'NONE',  ( 1.000000000000000000, 0.000000000000000000, 0.000000000000000000 ) ) ;
#127 = VERTEX_POINT ( 'NONE', #329 ) ;
#128 = DIRECTION ( 'NONE',  ( 1.000000000000000000, 0.000000000000000000, 0.000000000000000000 ) ) ;
#129 = EDGE_CURVE ( 'NONE', #197, #254, #105, .T. ) ;
#130 = PERSON_AND_ORGANIZATION_ROLE ( 'classification_officer' ) ;
#131 = LINE ( 'NONE', #250, #101 ) ;
#132 = APPROVAL_STATUS ( 'not_yet_approved' ) ;
#133 = VECTOR ( 'NONE', #156, 1000.000000000000000 ) ;
#134 = DIRECTION ( 'NONE',  ( 1.000000000000000000, 0.000000000000000000, 0.000000000000000000 ) ) ;
#135 = DIRECTION ( 'NONE',  ( -1.000000000000000000, 1.224646799147351482E-16, 0.000000000000000000 ) ) ;
#136 = DIRECTION ( 'NONE',  ( -0.000000000000000000, -0.000000000000000000, -1.000000000000000000 ) ) ;
#137 = CC_DESIGN_PERSON_AND_ORGANIZATION_ASSIGNMENT ( #77, #5, ( #363 ) ) ;
#138 = DIRECTION ( 'NONE',  ( -0.000000000000000000, -0.000000000000000000, -1.000000000000000000 ) ) ;
#139 = CARTESIAN_POINT ( 'NONE',  ( 0.000000000000000000, 0.000000000000000000, 0.000000000000000000 ) ) ;
#140 = CIRCLE ( 'NONE', #315, 8.000000000000000000 ) ;
#141 = AXIS2_PLACEMENT_3D ( 'NONE', #66, #120, #320 ) ;
#142 = VERTEX_POINT ( 'NONE', #244 ) ;
#143 = ORIENTED_EDGE ( 'NONE', *, *, #149, .F. ) ;
#144 = DIRECTION ( 'NONE',  ( 0.000000000000000000, 0.000000000000000000, 1.000000000000000000 ) ) ;
#145 = DIRECTION ( 'NONE',  ( 1.000000000000000000, 0.000000000000000000, 0.000000000000000000 ) ) ;
#146 = LINE ( 'NONE', #266, #370 ) ;
#147 = APPLICATION_CONTEXT ( 'configuration controlled 3d designs of mechanical parts and assemblies' ) ;
#148 = DIRECTION ( 'NONE',  ( 1.000000000000000000, 0.000000000000000000, 0.000000000000000000 ) ) ;
#149 = EDGE_CURVE ( 'NONE', #167, #142, #152, .T. ) ;
#150 = DATE_AND_TIME ( #183, #106 ) ;
#151 = DIRECTION ( 'NONE',  ( 1.000000000000000000, 0.000000000000000000, 0.000000000000000000 ) ) ;
#152 = CIRCLE ( 'NONE', #211, 5.500000000000000000 ) ;
#153 = PERSON_AND_ORGANIZATION_ROLE ( 'design_supplier' ) ;
#154 = DIRECTION ( 'NONE',  ( 0.000000000000000000, 0.000000000000000000, 1.000000000000000000 ) ) ;
#155 = PERSON_AND_ORGANIZATION ( #339, #70 ) ;
#156 = DIRECTION ( 'NONE',  ( -0.000000000000000000, -0.000000000000000000, -1.000000000000000000 ) ) ;
#157 = EDGE_CURVE ( 'NONE', #142, #167, #263, .T. ) ;
#158 = CALENDAR_DATE ( 2022, 8, 7 ) ;
#159 = AXIS2_PLACEMENT_3D ( 'NONE', #173, #175, #27 ) ;
#160 = APPROVAL_DATE_TIME ( #85, #53 ) ;
#161 = CARTESIAN_POINT ( 'NONE',  ( 0.000000000000000000, 0.000000000000000000, 280.0000000000000000 ) ) ;
#162 = EDGE_CURVE ( 'NONE', #164, #122, #131, .T. ) ;
#163 = DIRECTION ( 'NONE',  ( -1.000000000000000000, 0.000000000000000000, 0.000000000000000000 ) ) ;
#164 = VERTEX_POINT ( 'NONE', #223 ) ;
#165 = CIRCLE ( 'NONE', #80, 8.000000000000000000 ) ;
#166 = CARTESIAN_POINT ( 'NONE',  ( -5.500000000000000000, 6.735557395310442023E-16, 5.500000000000005329 ) ) ;
#167 = VERTEX_POINT ( 'NONE', #192 ) ;
#168 = CARTESIAN_POINT ( 'NONE',  ( 0.000000000000000000, 0.000000000000000000, 0.000000000000000000 ) ) ;
#169 = VERTEX_POINT ( 'NONE', #79 ) ;
#170 = EDGE_CURVE ( 'NONE', #15, #169, #140, .T. ) ;
#171 = FACE_OUTER_BOUND ( 'NONE', #292, .T. ) ;
#172 = ORIENTED_EDGE ( 'NONE', *, *, #162, .F. ) ;
#173 = CARTESIAN_POINT ( 'NONE',  ( 0.000000000000000000, 0.000000000000000000, 280.0000000000000000 ) ) ;
#174 = APPROVAL_PERSON_ORGANIZATION ( #240, #189, #214 ) ;
#175 = DIRECTION ( 'NONE',  ( 0.000000000000000000, 0.000000000000000000, -1.000000000000000000 ) ) ;
#176 = FACE_OUTER_BOUND ( 'NONE', #114, .T. ) ;
#177 = CARTESIAN_POINT ( 'NONE',  ( 0.000000000000000000, 0.000000000000000000, 280.0000000000000000 ) ) ;
#178 = ADVANCED_FACE ( 'NONE', ( #98 ), #186, .F. ) ;
#179 = DIRECTION ( 'NONE',  ( 0.000000000000000000, 0.000000000000000000, -1.000000000000000000 ) ) ;
#180 = ORIENTED_EDGE ( 'NONE', *, *, #302, .T. ) ;
#181 = AXIS2_PLACEMENT_3D ( 'NONE', #236, #121, #217 ) ;
#182 = ADVANCED_FACE ( 'NONE', ( #324, #357 ), #50, .F. ) ;
#183 = CALENDAR_DATE ( 2022, 8, 7 ) ;
#184 = DIRECTION ( 'NONE',  ( -0.000000000000000000, -0.000000000000000000, -1.000000000000000000 ) ) ;
#185 = PERSON_AND_ORGANIZATION ( #339, #70 ) ;
#186 = TOROIDAL_SURFACE ( 'NONE', #278, 5.500000000000000000, 0.5000000000000000000 ) ;
#187 = AXIS2_PLACEMENT_3D ( 'NONE', #63, #65, #313 ) ;
#188 = DATE_TIME_ROLE ( 'classification_date' ) ;
#189 = APPROVAL ( #46, 'NEURÈENÝ' ) ;
#190 = APPROVAL_ROLE ( '' ) ;
#191 = CARTESIAN_POINT ( 'NONE',  ( 0.000000000000000000, 0.000000000000000000, 5.000000000000000000 ) ) ;
#192 = CARTESIAN_POINT ( 'NONE',  ( 5.500000000000000000, 0.000000000000000000, 5.000000000000002665 ) ) ;
#193 = LOCAL_TIME ( 17, 4, 50.00000000000000000, #298 ) ;
#194 = DIRECTION ( 'NONE',  ( 0.000000000000000000, 0.000000000000000000, 1.000000000000000000 ) ) ;
#195 = ADVANCED_FACE ( 'NONE', ( #171 ), #19, .T. ) ;
#196 = CARTESIAN_POINT ( 'NONE',  ( 0.000000000000000000, 0.000000000000000000, 5.000000000000000000 ) ) ;
#197 = VERTEX_POINT ( 'NONE', #282 ) ;
#198 = CARTESIAN_POINT ( 'NONE',  ( 5.000000000000000000, 6.123233995736766282E-16, 280.0000000000000000 ) ) ;
#199 = ORIENTED_EDGE ( 'NONE', *, *, #267, .T. ) ;
#200 = CIRCLE ( 'NONE', #187, 5.000000000000000000 ) ;
#201 = CARTESIAN_POINT ( 'NONE',  ( 2.750000000000000000, 3.367778697655221012E-16, 280.0000000000000000 ) ) ;
#202 = CARTESIAN_POINT ( 'NONE',  ( 0.000000000000000000, 0.000000000000000000, 280.0000000000000000 ) ) ;
#203 = ORIENTED_EDGE ( 'NONE', *, *, #246, .T. ) ;
#204 = DIRECTION ( 'NONE',  ( 0.000000000000000000, 0.000000000000000000, 1.000000000000000000 ) ) ;
#205 = ORIENTED_EDGE ( 'NONE', *, *, #162, .T. ) ;
#206 = EDGE_CURVE ( 'NONE', #127, #229, #362, .T. ) ;
#207 = CARTESIAN_POINT ( 'NONE',  ( 0.000000000000000000, 0.000000000000000000, 0.000000000000000000 ) ) ;
#208 = FACE_OUTER_BOUND ( 'NONE', #67, .T. ) ;
#209 = ORIENTED_EDGE ( 'NONE', *, *, #129, .F. ) ;
#210 = CARTESIAN_POINT ( 'NONE',  ( -8.000000000000000000, 0.000000000000000000, 0.000000000000000000 ) ) ;
#211 = AXIS2_PLACEMENT_3D ( 'NONE', #104, #78, #45 ) ;
#212 = DIRECTION ( 'NONE',  ( 1.000000000000000000, 0.000000000000000000, 0.000000000000000000 ) ) ;
#213 = LOCAL_TIME ( 17, 4, 50.00000000000000000, #326 ) ;
#214 = APPROVAL_ROLE ( '' ) ;
#215 = DIRECTION ( 'NONE',  ( 0.000000000000000000, 0.000000000000000000, -1.000000000000000000 ) ) ;
#216 = PERSON_AND_ORGANIZATION_ROLE ( 'creator' ) ;
#217 = DIRECTION ( 'NONE',  ( 1.000000000000000000, 0.000000000000000000, 0.000000000000000000 ) ) ;
#218 = PLANE ( 'NONE',  #271 ) ;
#219 = AXIS2_PLACEMENT_3D ( 'NONE', #360, #323, #128 ) ;
#220 = COORDINATED_UNIVERSAL_TIME_OFFSET ( 1, 0, .AHEAD. ) ;
#221 = DIRECTION ( 'NONE',  ( 1.000000000000000000, 0.000000000000000000, -0.000000000000000000 ) ) ;
#222 = ADVANCED_BREP_SHAPE_REPRESENTATION ( 'ec44', ( #239, #181 ), #352 ) ;
#223 = CARTESIAN_POINT ( 'NONE',  ( -5.000000000000000000, 0.000000000000000000, 280.0000000000000000 ) ) ;
#224 = EDGE_CURVE ( 'NONE', #254, #197, #265, .T. ) ;
#225 = CC_DESIGN_APPROVAL ( #189, ( #363 ) ) ;
#226 = CARTESIAN_POINT ( 'NONE',  ( 0.000000000000000000, 0.000000000000000000, 5.500000000000005329 ) ) ;
#227 = ORIENTED_EDGE ( 'NONE', *, *, #43, .F. ) ;
#228 = DIRECTION ( 'NONE',  ( 1.000000000000000000, 0.000000000000000000, 0.000000000000000000 ) ) ;
#229 = VERTEX_POINT ( 'NONE', #365 ) ;
#230 = AXIS2_PLACEMENT_3D ( 'NONE', #264, #144, #148 ) ;
#231 = DIRECTION ( 'NONE',  ( 1.000000000000000000, 0.000000000000000000, -0.000000000000000000 ) ) ;
#232 = ORIENTED_EDGE ( 'NONE', *, *, #353, .T. ) ;
#233 = ORIENTED_EDGE ( 'NONE', *, *, #157, .F. ) ;
#234 = VERTEX_POINT ( 'NONE', #198 ) ;
#235 = PRODUCT_RELATED_PRODUCT_CATEGORY ( 'detail', '', ( #325 ) ) ;
#236 = CARTESIAN_POINT ( 'NONE',  ( 0.000000000000000000, 0.000000000000000000, 0.000000000000000000 ) ) ;
#237 = AXIS2_PLACEMENT_3D ( 'NONE', #226, #58, #24 ) ;
#238 = ORIENTED_EDGE ( 'NONE', *, *, #68, .F. ) ;
#239 = MANIFOLD_SOLID_BREP ( 'Odebrat vysunutím3', #343 ) ;
#240 = PERSON_AND_ORGANIZATION ( #339, #70 ) ;
#241 = ORIENTED_EDGE ( 'NONE', *, *, #34, .F. ) ;
#242 = AXIS2_PLACEMENT_3D ( 'NONE', #166, #14, #135 ) ;
#243 = PERSON_AND_ORGANIZATION ( #339, #70 ) ;
#244 = CARTESIAN_POINT ( 'NONE',  ( -5.500000000000000000, 6.735557395310442023E-16, 5.000000000000002665 ) ) ;
#245 = DIRECTION ( 'NONE',  ( 1.000000000000000000, 0.000000000000000000, 0.000000000000000000 ) ) ;
#246 = EDGE_CURVE ( 'NONE', #234, #59, #330, .T. ) ;
#247 = APPROVAL_STATUS ( 'not_yet_approved' ) ;
#248 = FACE_BOUND ( 'NONE', #314, .T. ) ;
#249 = PERSON_AND_ORGANIZATION ( #339, #70 ) ;
#250 = CARTESIAN_POINT ( 'NONE',  ( -5.000000000000000000, 0.000000000000000000, 280.0000000000000000 ) ) ;
#251 = ADVANCED_FACE ( 'NONE', ( #86 ), #336, .T. ) ;
#252 = ORIENTED_EDGE ( 'NONE', *, *, #347, .T. ) ;
#253 = CIRCLE ( 'NONE', #319, 5.000000000000000000 ) ;
#254 = VERTEX_POINT ( 'NONE', #201 ) ;
#255 = CC_DESIGN_PERSON_AND_ORGANIZATION_ASSIGNMENT ( #7, #130, ( #116 ) ) ;
#256 = ORIENTED_EDGE ( 'NONE', *, *, #129, .T. ) ;
#257 = DIRECTION ( 'NONE',  ( -0.000000000000000000, -0.000000000000000000, -1.000000000000000000 ) ) ;
#258 = AXIS2_PLACEMENT_3D ( 'NONE', #168, #366, #231 ) ;
#259 = DIRECTION ( 'NONE',  ( -0.000000000000000000, -0.000000000000000000, -1.000000000000000000 ) ) ;
#260 = ADVANCED_FACE ( 'NONE', ( #280 ), #56, .F. ) ;
#261 = ORIENTED_EDGE ( 'NONE', *, *, #112, .T. ) ;
#262 = EDGE_LOOP ( 'NONE', ( #241, #312 ) ) ;
#263 = CIRCLE ( 'NONE', #47, 5.500000000000000000 ) ;
#264 = CARTESIAN_POINT ( 'NONE',  ( 0.000000000000000000, 0.000000000000000000, 280.0000000000000000 ) ) ;
#265 = CIRCLE ( 'NONE', #102, 2.750000000000000000 ) ;
#266 = CARTESIAN_POINT ( 'NONE',  ( -2.750000000000000000, 0.000000000000000000, 280.0000000000000000 ) ) ;
#267 = EDGE_CURVE ( 'NONE', #169, #346, #16, .T. ) ;
#268 = DIRECTION ( 'NONE',  ( 0.000000000000000000, 0.000000000000000000, 1.000000000000000000 ) ) ;
#269 = LINE ( 'NONE', #48, #133 ) ;
#270 = ORIENTED_EDGE ( 'NONE', *, *, #43, .T. ) ;
#271 = AXIS2_PLACEMENT_3D ( 'NONE', #191, #359, #221 ) ;
#272 = SECURITY_CLASSIFICATION_LEVEL ( 'unclassified' ) ;
#273 = EDGE_CURVE ( 'NONE', #59, #122, #6, .T. ) ;
#274 = APPROVAL_PERSON_ORGANIZATION ( #73, #94, #190 ) ;
#275 = FACE_OUTER_BOUND ( 'NONE', #283, .T. ) ;
#276 = DIRECTION ( 'NONE',  ( 1.000000000000000000, 0.000000000000000000, 0.000000000000000000 ) ) ;
#277 = FACE_BOUND ( 'NONE', #376, .T. ) ;
#278 = AXIS2_PLACEMENT_3D ( 'NONE', #299, #8, #245 ) ;
#279 = AXIS2_PLACEMENT_3D ( 'NONE', #308, #138, #113 ) ;
#280 = FACE_OUTER_BOUND ( 'NONE', #108, .T. ) ;
#281 = EDGE_LOOP ( 'NONE', ( #367, #57, #199, #111 ) ) ;
#282 = CARTESIAN_POINT ( 'NONE',  ( -2.750000000000000000, 0.000000000000000000, 280.0000000000000000 ) ) ;
#283 = EDGE_LOOP ( 'NONE', ( #232, #82 ) ) ;
#284 = EDGE_CURVE ( 'NONE', #229, #127, #300, .T. ) ;
#285 = AXIS2_PLACEMENT_3D ( 'NONE', #196, #306, #163 ) ;
#286 = UNCERTAINTY_MEASURE_WITH_UNIT (LENGTH_MEASURE( 1.000000000000000082E-05 ), #340, 'distance_accuracy_value', 'NONE');
#287 = PLANE ( 'NONE',  #371 ) ;
#288 = ORIENTED_EDGE ( 'NONE', *, *, #91, .T. ) ;
#289 = APPLICATION_PROTOCOL_DEFINITION ( 'international standard', 'config_control_design', 1994, #83 ) ;
#290 = ORIENTED_EDGE ( 'NONE', *, *, #157, .T. ) ;
#291 = DIRECTION ( 'NONE',  ( 1.000000000000000000, 0.000000000000000000, -0.000000000000000000 ) ) ;
#292 = EDGE_LOOP ( 'NONE', ( #373, #64, #205, #252 ) ) ;
#293 = CC_DESIGN_DATE_AND_TIME_ASSIGNMENT ( #322, #327, ( #363 ) ) ;
#294 = AXIS2_PLACEMENT_3D ( 'NONE', #139, #259, #276 ) ;
#295 = CARTESIAN_POINT ( 'NONE',  ( 0.000000000000000000, 0.000000000000000000, 5.500000000000005329 ) ) ;
#296 =( NAMED_UNIT ( * ) SI_UNIT ( $, .STERADIAN. ) SOLID_ANGLE_UNIT ( ) );
#297 = ORIENTED_EDGE ( 'NONE', *, *, #224, .F. ) ;
#298 = COORDINATED_UNIVERSAL_TIME_OFFSET ( 1, 0, .AHEAD. ) ;
#299 = CARTESIAN_POINT ( 'NONE',  ( 0.000000000000000000, 0.000000000000000000, 5.500000000000005329 ) ) ;
#300 = CIRCLE ( 'NONE', #294, 2.750000000000000000 ) ;
#301 = APPROVAL_ROLE ( '' ) ;
#302 = EDGE_CURVE ( 'NONE', #122, #142, #321, .T. ) ;
#303 = VECTOR ( 'NONE', #215, 1000.000000000000000 ) ;
#304 = PRODUCT_DEFINITION_FORMATION_WITH_SPECIFIED_SOURCE ( 'LIBOVOLNÝ', '', #325, .NOT_KNOWN. ) ;
#305 = DIRECTION ( 'NONE',  ( 0.000000000000000000, 0.000000000000000000, -1.000000000000000000 ) ) ;
#306 = DIRECTION ( 'NONE',  ( -0.000000000000000000, -0.000000000000000000, -1.000000000000000000 ) ) ;
#307 = EDGE_LOOP ( 'NONE', ( #88, #203, #124, #172 ) ) ;
#308 = CARTESIAN_POINT ( 'NONE',  ( 0.000000000000000000, 0.000000000000000000, 280.0000000000000000 ) ) ;
#309 = ORIENTED_EDGE ( 'NONE', *, *, #74, .T. ) ;
#310 = AXIS2_PLACEMENT_3D ( 'NONE', #207, #268, #380 ) ;
#311 = ORIENTED_EDGE ( 'NONE', *, *, #91, .F. ) ;
#312 = ORIENTED_EDGE ( 'NONE', *, *, #337, .F. ) ;
#313 = DIRECTION ( 'NONE',  ( 1.000000000000000000, 0.000000000000000000, 0.000000000000000000 ) ) ;
#314 = EDGE_LOOP ( 'NONE', ( #2, #290 ) ) ;
#315 = AXIS2_PLACEMENT_3D ( 'NONE', #37, #154, #151 ) ;
#316 = CC_DESIGN_APPROVAL ( #94, ( #304 ) ) ;
#317 = ADVANCED_FACE ( 'NONE', ( #331 ), #81, .T. ) ;
#318 = CARTESIAN_POINT ( 'NONE',  ( 2.750000000000000000, 3.367778697655221012E-16, 280.0000000000000000 ) ) ;
#319 = AXIS2_PLACEMENT_3D ( 'NONE', #33, #30, #145 ) ;
#320 = DIRECTION ( 'NONE',  ( 1.000000000000000000, 0.000000000000000000, 0.000000000000000000 ) ) ;
#321 = CIRCLE ( 'NONE', #242, 0.5000000000000004441 ) ;
#322 = DATE_AND_TIME ( #11, #61 ) ;
#323 = DIRECTION ( 'NONE',  ( 0.000000000000000000, 0.000000000000000000, 1.000000000000000000 ) ) ;
#324 = FACE_BOUND ( 'NONE', #338, .T. ) ;
#325 = PRODUCT ( 'ec44', 'ec44', '', ( #4 ) ) ;
#326 = COORDINATED_UNIVERSAL_TIME_OFFSET ( 1, 0, .AHEAD. ) ;
#327 = DATE_TIME_ROLE ( 'creation_date' ) ;
#328 = ADVANCED_FACE ( 'NONE', ( #277, #32 ), #287, .T. ) ;
#329 = CARTESIAN_POINT ( 'NONE',  ( 2.750000000000000000, 3.367778697655221012E-16, 0.000000000000000000 ) ) ;
#330 = LINE ( 'NONE', #334, #40 ) ;
#331 = FACE_OUTER_BOUND ( 'NONE', #281, .T. ) ;
#332 = ORIENTED_EDGE ( 'NONE', *, *, #347, .F. ) ;
#333 = EDGE_CURVE ( 'NONE', #234, #164, #344, .T. ) ;
#334 = CARTESIAN_POINT ( 'NONE',  ( 5.000000000000000000, 6.123233995736766282E-16, 280.0000000000000000 ) ) ;
#335 = AXIS2_PLACEMENT_3D ( 'NONE', #71, #345, #95 ) ;
#336 = CYLINDRICAL_SURFACE ( 'NONE', #76, 8.000000000000000000 ) ;
#337 = EDGE_CURVE ( 'NONE', #119, #346, #31, .T. ) ;
#338 = EDGE_LOOP ( 'NONE', ( #22, #90 ) ) ;
#339 = PERSON ( 'NEURÈENÝ', 'NEURÈENÝ', 'NEURÈENÝ', ('NEURÈENÝ'), ('NEURÈENÝ'), ('NEURÈENÝ') ) ;
#340 =( LENGTH_UNIT ( ) NAMED_UNIT ( * ) SI_UNIT ( .MILLI., .METRE. ) );
#341 = ORIENTED_EDGE ( 'NONE', *, *, #302, .F. ) ;
#342 = CARTESIAN_POINT ( 'NONE',  ( 0.000000000000000000, 0.000000000000000000, 0.000000000000000000 ) ) ;
#343 = CLOSED_SHELL ( 'NONE', ( #377, #178, #358, #251, #317, #118, #182, #195, #328, #3, #260 ) ) ;
#344 = CIRCLE ( 'NONE', #230, 5.000000000000000000 ) ;
#345 = DIRECTION ( 'NONE',  ( -0.000000000000000000, -0.000000000000000000, -1.000000000000000000 ) ) ;
#346 = VERTEX_POINT ( 'NONE', #210 ) ;
#347 = EDGE_CURVE ( 'NONE', #122, #59, #200, .T. ) ;
#348 = FACE_OUTER_BOUND ( 'NONE', #307, .T. ) ;
#349 = DIRECTION ( 'NONE',  ( 0.000000000000000000, 0.000000000000000000, -1.000000000000000000 ) ) ;
#350 = CARTESIAN_POINT ( 'NONE',  ( 8.000000000000000000, 9.797174393178825657E-16, 5.000000000000000000 ) ) ;
#351 = CALENDAR_DATE ( 2022, 8, 7 ) ;
#352 =( GEOMETRIC_REPRESENTATION_CONTEXT ( 3 ) GLOBAL_UNCERTAINTY_ASSIGNED_CONTEXT ( ( #286 ) ) GLOBAL_UNIT_ASSIGNED_CONTEXT ( ( #340, #125, #296 ) ) REPRESENTATION_CONTEXT ( 'NONE', 'WORKASPACE' ) );
#353 = EDGE_CURVE ( 'NONE', #169, #15, #17, .T. ) ;
#354 = APPROVAL_DATE_TIME ( #150, #94 ) ;
#355 = CARTESIAN_POINT ( 'NONE',  ( 0.000000000000000000, 0.000000000000000000, 5.000000000000000000 ) ) ;
#356 = DATE_AND_TIME ( #75, #213 ) ;
#357 = FACE_OUTER_BOUND ( 'NONE', #262, .T. ) ;
#358 = ADVANCED_FACE ( 'NONE', ( #348 ), #375, .T. ) ;
#359 = DIRECTION ( 'NONE',  ( 0.000000000000000000, 0.000000000000000000, 1.000000000000000000 ) ) ;
#360 = CARTESIAN_POINT ( 'NONE',  ( 0.000000000000000000, 0.000000000000000000, 280.0000000000000000 ) ) ;
#361 = DIRECTION ( 'NONE',  ( -1.000000000000000000, 0.000000000000000000, 0.000000000000000000 ) ) ;
#362 = CIRCLE ( 'NONE', #54, 2.750000000000000000 ) ;
#363 = PRODUCT_DEFINITION ( 'NEZNÁMÝ', '', #304, #23 ) ;
#364 = APPROVAL_PERSON_ORGANIZATION ( #155, #53, #301 ) ;
#365 = CARTESIAN_POINT ( 'NONE',  ( -2.750000000000000000, 0.000000000000000000, 0.000000000000000000 ) ) ;
#366 = DIRECTION ( 'NONE',  ( 0.000000000000000000, 0.000000000000000000, 1.000000000000000000 ) ) ;
#367 = ORIENTED_EDGE ( 'NONE', *, *, #112, .F. ) ;
#368 = CARTESIAN_POINT ( 'NONE',  ( 0.000000000000000000, 0.000000000000000000, 5.000000000000000000 ) ) ;
#369 = EDGE_LOOP ( 'NONE', ( #96, #261, #35, #84 ) ) ;
#370 = VECTOR ( 'NONE', #349, 1000.000000000000000 ) ;
#371 = AXIS2_PLACEMENT_3D ( 'NONE', #177, #204, #291 ) ;
#372 = DIRECTION ( 'NONE',  ( 1.000000000000000000, 0.000000000000000000, 0.000000000000000000 ) ) ;
#373 = ORIENTED_EDGE ( 'NONE', *, *, #246, .F. ) ;
#374 = CARTESIAN_POINT ( 'NONE',  ( 5.000000000000000000, 6.123233995736766282E-16, 5.500000000000005329 ) ) ;
#375 = CYLINDRICAL_SURFACE ( 'NONE', #335, 5.000000000000000000 ) ;
#376 = EDGE_LOOP ( 'NONE', ( #209, #297 ) ) ;
#377 = ADVANCED_FACE ( 'NONE', ( #208 ), #1, .F. ) ;
#378 = AXIS2_PLACEMENT_3D ( 'NONE', #28, #29, #179 ) ;
#379 = LOCAL_TIME ( 17, 4, 50.00000000000000000, #44 ) ;
#380 = DIRECTION ( 'NONE',  ( 1.000000000000000000, 0.000000000000000000, 0.000000000000000000 ) ) ;
#381 = ORIENTED_EDGE ( 'NONE', *, *, #224, .T. ) ;
ENDSEC;
END-ISO-10303-21;
