ISO-10303-21;
HEADER;
FILE_DESCRIPTION (( 'STEP AP203' ),
    '1' );
FILE_NAME ('b3da.STEP',
    '2022-07-08T15:34:27',
    ( '' ),
    ( '' ),
    'SwSTEP 2.0',
    'SolidWorks 2019',
    '' );
FILE_SCHEMA (( 'CONFIG_CONTROL_DESIGN' ));
ENDSEC;

DATA;
#1 = COORDINATED_UNIVERSAL_TIME_OFFSET ( 1, 0, .AHEAD. ) ;
#2 = VERTEX_POINT ( 'NONE', #155 ) ;
#3 = EDGE_CURVE ( 'NONE', #124, #41, #59, .T. ) ;
#4 = AXIS2_PLACEMENT_3D ( 'NONE', #361, #294, #9 ) ;
#5 = DIRECTION ( 'NONE',  ( 0.000000000000000000, 0.000000000000000000, 1.000000000000000000 ) ) ;
#6 = CC_DESIGN_APPROVAL ( #110, ( #112 ) ) ;
#7 = ORIENTED_EDGE ( 'NONE', *, *, #261, .T. ) ;
#8 = VERTEX_POINT ( 'NONE', #167 ) ;
#9 = DIRECTION ( 'NONE',  ( -1.000000000000000000, 0.000000000000000000, 0.000000000000000000 ) ) ;
#10 = EDGE_LOOP ( 'NONE', ( #263, #307, #186, #133 ) ) ;
#11 = APPROVAL ( #355, 'NEURÈENÝ' ) ;
#12 = CIRCLE ( 'NONE', #340, 3.000000000000000444 ) ;
#13 = PRODUCT_RELATED_PRODUCT_CATEGORY ( 'detail', '', ( #78 ) ) ;
#14 = CARTESIAN_POINT ( 'NONE',  ( 3.500000000000000444, 0.000000000000000000, 5.000000000000002665 ) ) ;
#15 = AXIS2_PLACEMENT_3D ( 'NONE', #102, #163, #63 ) ;
#16 = DIRECTION ( 'NONE',  ( 1.000000000000000000, 0.000000000000000000, 0.000000000000000000 ) ) ;
#17 = CARTESIAN_POINT ( 'NONE',  ( 0.000000000000000000, 0.000000000000000000, 0.000000000000000000 ) ) ;
#18 = CC_DESIGN_PERSON_AND_ORGANIZATION_ASSIGNMENT ( #339, #222, ( #346 ) ) ;
#19 = CARTESIAN_POINT ( 'NONE',  ( 0.000000000000000000, 0.000000000000000000, 0.000000000000000000 ) ) ;
#20 = AXIS2_PLACEMENT_3D ( 'NONE', #81, #140, #224 ) ;
#21 = LOCAL_TIME ( 17, 34, 27.00000000000000000, #1 ) ;
#22 = DIRECTION ( 'NONE',  ( -0.000000000000000000, -0.000000000000000000, -1.000000000000000000 ) ) ;
#23 = CARTESIAN_POINT ( 'NONE',  ( 0.000000000000000000, 0.000000000000000000, 5.000000000000000000 ) ) ;
#24 = CARTESIAN_POINT ( 'NONE',  ( 2.000000000000000000, 2.449293598294706414E-16, 505.0000000000000000 ) ) ;
#25 = AXIS2_PLACEMENT_3D ( 'NONE', #91, #56, #292 ) ;
#26 = ORGANIZATION ( 'NEURÈENÝ', 'NEURÈENÝ', '' ) ;
#27 = DIRECTION ( 'NONE',  ( 1.000000000000000000, 0.000000000000000000, 0.000000000000000000 ) ) ;
#28 = LINE ( 'NONE', #228, #220 ) ;
#29 = EDGE_CURVE ( 'NONE', #153, #2, #198, .T. ) ;
#30 = DIRECTION ( 'NONE',  ( -1.000000000000000000, 0.000000000000000000, 0.000000000000000000 ) ) ;
#31 = AXIS2_PLACEMENT_3D ( 'NONE', #171, #75, #77 ) ;
#32 = FACE_OUTER_BOUND ( 'NONE', #98, .T. ) ;
#33 = EDGE_LOOP ( 'NONE', ( #351, #60, #239, #359 ) ) ;
#34 = EDGE_CURVE ( 'NONE', #270, #153, #371, .T. ) ;
#35 = FACE_OUTER_BOUND ( 'NONE', #333, .T. ) ;
#36 = ORIENTED_EDGE ( 'NONE', *, *, #44, .T. ) ;
#37 = PLANE ( 'NONE',  #249 ) ;
#38 = VERTEX_POINT ( 'NONE', #274 ) ;
#39 = AXIS2_PLACEMENT_3D ( 'NONE', #245, #51, #277 ) ;
#40 = CALENDAR_DATE ( 2022, 8, 7 ) ;
#41 = VERTEX_POINT ( 'NONE', #14 ) ;
#42 = PERSON_AND_ORGANIZATION_ROLE ( 'design_owner' ) ;
#43 = ORIENTED_EDGE ( 'NONE', *, *, #29, .F. ) ;
#44 = EDGE_CURVE ( 'NONE', #270, #330, #137, .T. ) ;
#45 = DIRECTION ( 'NONE',  ( -0.000000000000000000, -0.000000000000000000, -1.000000000000000000 ) ) ;
#46 = AXIS2_PLACEMENT_3D ( 'NONE', #203, #226, #289 ) ;
#47 = DIRECTION ( 'NONE',  ( -0.000000000000000000, -0.000000000000000000, -1.000000000000000000 ) ) ;
#48 = EDGE_CURVE ( 'NONE', #136, #189, #345, .T. ) ;
#49 = DIRECTION ( 'NONE',  ( -0.000000000000000000, -0.000000000000000000, -1.000000000000000000 ) ) ;
#50 = APPROVAL_DATE_TIME ( #188, #191 ) ;
#51 = DIRECTION ( 'NONE',  ( 0.000000000000000000, 0.000000000000000000, 1.000000000000000000 ) ) ;
#52 = CALENDAR_DATE ( 2022, 8, 7 ) ;
#53 = DIRECTION ( 'NONE',  ( 1.000000000000000000, 0.000000000000000000, 0.000000000000000000 ) ) ;
#54 = CLOSED_SHELL ( 'NONE', ( #378, #116, #201, #217, #147, #348, #360, #305, #235, #285, #290 ) ) ;
#55 = LOCAL_TIME ( 17, 34, 27.00000000000000000, #296 ) ;
#56 = DIRECTION ( 'NONE',  ( 0.000000000000000000, 0.000000000000000000, -1.000000000000000000 ) ) ;
#57 = DIRECTION ( 'NONE',  ( 1.000000000000000000, 0.000000000000000000, 0.000000000000000000 ) ) ;
#58 = FACE_BOUND ( 'NONE', #92, .T. ) ;
#59 = CIRCLE ( 'NONE', #31, 0.5000000000000004441 ) ;
#60 = ORIENTED_EDGE ( 'NONE', *, *, #242, .T. ) ;
#61 = EDGE_CURVE ( 'NONE', #182, #38, #83, .T. ) ;
#62 = CARTESIAN_POINT ( 'NONE',  ( 0.000000000000000000, 0.000000000000000000, 505.0000000000000000 ) ) ;
#63 = DIRECTION ( 'NONE',  ( 1.000000000000000000, 0.000000000000000000, 0.000000000000000000 ) ) ;
#64 = EDGE_CURVE ( 'NONE', #234, #95, #165, .T. ) ;
#65 = ORIENTED_EDGE ( 'NONE', *, *, #64, .F. ) ;
#66 = DATE_AND_TIME ( #40, #21 ) ;
#67 = ORIENTED_EDGE ( 'NONE', *, *, #178, .F. ) ;
#68 = ORIENTED_EDGE ( 'NONE', *, *, #34, .T. ) ;
#69 = CIRCLE ( 'NONE', #146, 6.000000000000000888 ) ;
#70 = APPROVAL_ROLE ( '' ) ;
#71 = ORIENTED_EDGE ( 'NONE', *, *, #84, .T. ) ;
#72 = ORIENTED_EDGE ( 'NONE', *, *, #261, .F. ) ;
#73 = APPLICATION_CONTEXT ( 'configuration controlled 3d designs of mechanical parts and assemblies' ) ;
#74 = PERSON ( 'NEURÈENÝ', 'NEURÈENÝ', 'NEURÈENÝ', ('NEURÈENÝ'), ('NEURÈENÝ'), ('NEURÈENÝ') ) ;
#75 = DIRECTION ( 'NONE',  ( 0.000000000000000000, -1.000000000000000000, 0.000000000000000000 ) ) ;
#76 = AXIS2_PLACEMENT_3D ( 'NONE', #177, #372, #118 ) ;
#77 = DIRECTION ( 'NONE',  ( 0.000000000000000000, 0.000000000000000000, -1.000000000000000000 ) ) ;
#78 = PRODUCT ( 'b3da', 'b3da', '', ( #213 ) ) ;
#79 = CARTESIAN_POINT ( 'NONE',  ( 0.000000000000000000, 0.000000000000000000, 0.000000000000000000 ) ) ;
#80 = PERSON_AND_ORGANIZATION_ROLE ( 'classification_officer' ) ;
#81 = CARTESIAN_POINT ( 'NONE',  ( 0.000000000000000000, 0.000000000000000000, 505.0000000000000000 ) ) ;
#82 = CARTESIAN_POINT ( 'NONE',  ( 0.000000000000000000, 0.000000000000000000, 5.500000000000005329 ) ) ;
#83 = CIRCLE ( 'NONE', #170, 2.000000000000000000 ) ;
#84 = EDGE_CURVE ( 'NONE', #8, #273, #174, .T. ) ;
#85 = CC_DESIGN_DATE_AND_TIME_ASSIGNMENT ( #141, #365, ( #112 ) ) ;
#86 = CARTESIAN_POINT ( 'NONE',  ( -2.000000000000000000, 0.000000000000000000, 0.000000000000000000 ) ) ;
#87 = FACE_OUTER_BOUND ( 'NONE', #265, .T. ) ;
#88 = FACE_OUTER_BOUND ( 'NONE', #241, .T. ) ;
#89 =( GEOMETRIC_REPRESENTATION_CONTEXT ( 3 ) GLOBAL_UNCERTAINTY_ASSIGNED_CONTEXT ( ( #129 ) ) GLOBAL_UNIT_ASSIGNED_CONTEXT ( ( #157, #93, #332 ) ) REPRESENTATION_CONTEXT ( 'NONE', 'WORKASPACE' ) );
#90 = CC_DESIGN_APPROVAL ( #11, ( #232 ) ) ;
#91 = CARTESIAN_POINT ( 'NONE',  ( 0.000000000000000000, 0.000000000000000000, 505.0000000000000000 ) ) ;
#92 = EDGE_LOOP ( 'NONE', ( #381, #105 ) ) ;
#93 =( NAMED_UNIT ( * ) PLANE_ANGLE_UNIT ( ) SI_UNIT ( $, .RADIAN. ) );
#94 = CARTESIAN_POINT ( 'NONE',  ( 0.000000000000000000, 0.000000000000000000, 0.000000000000000000 ) ) ;
#95 = VERTEX_POINT ( 'NONE', #308 ) ;
#96 = CIRCLE ( 'NONE', #357, 3.000000000000000444 ) ;
#97 = DIRECTION ( 'NONE',  ( 1.000000000000000000, 0.000000000000000000, -0.000000000000000000 ) ) ;
#98 = EDGE_LOOP ( 'NONE', ( #7, #323, #243, #297 ) ) ;
#99 = DESIGN_CONTEXT ( 'detailed design', #73, 'design' ) ;
#100 = ORIENTED_EDGE ( 'NONE', *, *, #271, .F. ) ;
#101 = EDGE_CURVE ( 'NONE', #153, #124, #288, .T. ) ;
#102 = CARTESIAN_POINT ( 'NONE',  ( 0.000000000000000000, 0.000000000000000000, 0.000000000000000000 ) ) ;
#103 = ORIENTED_EDGE ( 'NONE', *, *, #48, .F. ) ;
#104 = AXIS2_PLACEMENT_3D ( 'NONE', #343, #47, #166 ) ;
#105 = ORIENTED_EDGE ( 'NONE', *, *, #152, .T. ) ;
#106 = DIRECTION ( 'NONE',  ( 1.000000000000000000, 0.000000000000000000, 0.000000000000000000 ) ) ;
#107 = EDGE_CURVE ( 'NONE', #273, #182, #223, .T. ) ;
#108 = SHAPE_DEFINITION_REPRESENTATION ( #281, #300 ) ;
#109 = CARTESIAN_POINT ( 'NONE',  ( 0.000000000000000000, 0.000000000000000000, 0.000000000000000000 ) ) ;
#110 = APPROVAL ( #280, 'NEURÈENÝ' ) ;
#111 = AXIS2_PLACEMENT_3D ( 'NONE', #368, #113, #16 ) ;
#112 = SECURITY_CLASSIFICATION ( '', '', #247 ) ;
#113 = DIRECTION ( 'NONE',  ( -0.000000000000000000, -0.000000000000000000, -1.000000000000000000 ) ) ;
#114 = PERSON_AND_ORGANIZATION ( #74, #26 ) ;
#115 = CARTESIAN_POINT ( 'NONE',  ( 0.000000000000000000, 0.000000000000000000, 5.500000000000005329 ) ) ;
#116 = ADVANCED_FACE ( 'NONE', ( #370 ), #131, .F. ) ;
#117 = DIRECTION ( 'NONE',  ( 1.000000000000000000, 0.000000000000000000, 0.000000000000000000 ) ) ;
#118 = DIRECTION ( 'NONE',  ( -1.000000000000000000, 0.000000000000000000, 0.000000000000000000 ) ) ;
#119 = VECTOR ( 'NONE', #367, 1000.000000000000000 ) ;
#120 = DIRECTION ( 'NONE',  ( 1.000000000000000000, 0.000000000000000000, 0.000000000000000000 ) ) ;
#121 = EDGE_CURVE ( 'NONE', #136, #234, #344, .T. ) ;
#122 = PLANE ( 'NONE',  #46 ) ;
#123 = DIRECTION ( 'NONE',  ( 0.000000000000000000, 0.000000000000000000, 1.000000000000000000 ) ) ;
#124 = VERTEX_POINT ( 'NONE', #282 ) ;
#125 = FACE_OUTER_BOUND ( 'NONE', #336, .T. ) ;
#126 = PLANE ( 'NONE',  #293 ) ;
#127 = ORIENTED_EDGE ( 'NONE', *, *, #84, .F. ) ;
#128 = DIRECTION ( 'NONE',  ( 0.000000000000000000, 0.000000000000000000, 1.000000000000000000 ) ) ;
#129 = UNCERTAINTY_MEASURE_WITH_UNIT (LENGTH_MEASURE( 1.000000000000000082E-05 ), #157, 'distance_accuracy_value', 'NONE');
#130 = ORIENTED_EDGE ( 'NONE', *, *, #48, .T. ) ;
#131 = TOROIDAL_SURFACE ( 'NONE', #230, 3.500000000000000444, 0.5000000000000000000 ) ;
#132 = CARTESIAN_POINT ( 'NONE',  ( 0.000000000000000000, 0.000000000000000000, 5.500000000000005329 ) ) ;
#133 = ORIENTED_EDGE ( 'NONE', *, *, #121, .F. ) ;
#134 = CALENDAR_DATE ( 2022, 8, 7 ) ;
#135 = ORIENTED_EDGE ( 'NONE', *, *, #101, .T. ) ;
#136 = VERTEX_POINT ( 'NONE', #219 ) ;
#137 = CIRCLE ( 'NONE', #39, 3.000000000000000444 ) ;
#138 = EDGE_CURVE ( 'NONE', #38, #182, #210, .T. ) ;
#139 = PERSON_AND_ORGANIZATION_ROLE ( 'creator' ) ;
#140 = DIRECTION ( 'NONE',  ( 0.000000000000000000, 0.000000000000000000, 1.000000000000000000 ) ) ;
#141 = DATE_AND_TIME ( #192, #194 ) ;
#142 = DIRECTION ( 'NONE',  ( 0.000000000000000000, 0.000000000000000000, 1.000000000000000000 ) ) ;
#143 = DIRECTION ( 'NONE',  ( 1.224646799147353207E-16, 1.000000000000000000, -0.000000000000000000 ) ) ;
#144 = CYLINDRICAL_SURFACE ( 'NONE', #76, 3.000000000000000444 ) ;
#145 = CARTESIAN_POINT ( 'NONE',  ( 6.000000000000000888, 7.347880794884120722E-16, 5.000000000000000000 ) ) ;
#146 = AXIS2_PLACEMENT_3D ( 'NONE', #23, #123, #57 ) ;
#147 = ADVANCED_FACE ( 'NONE', ( #310 ), #169, .T. ) ;
#148 = FACE_OUTER_BOUND ( 'NONE', #10, .T. ) ;
#149 = DIRECTION ( 'NONE',  ( 1.000000000000000000, 0.000000000000000000, 0.000000000000000000 ) ) ;
#150 = FACE_OUTER_BOUND ( 'NONE', #33, .T. ) ;
#151 = TOROIDAL_SURFACE ( 'NONE', #244, 3.500000000000000444, 0.5000000000000000000 ) ;
#152 = EDGE_CURVE ( 'NONE', #2, #41, #180, .T. ) ;
#153 = VERTEX_POINT ( 'NONE', #221 ) ;
#154 = APPLICATION_PROTOCOL_DEFINITION ( 'international standard', 'config_control_design', 1994, #266 ) ;
#155 = CARTESIAN_POINT ( 'NONE',  ( -3.500000000000000444, 4.286263797015737088E-16, 5.000000000000002665 ) ) ;
#156 = MANIFOLD_SOLID_BREP ( 'Odebrat vysunutím3', #54 ) ;
#157 =( LENGTH_UNIT ( ) NAMED_UNIT ( * ) SI_UNIT ( .MILLI., .METRE. ) );
#158 = ORIENTED_EDGE ( 'NONE', *, *, #276, .T. ) ;
#159 = CC_DESIGN_DATE_AND_TIME_ASSIGNMENT ( #66, #272, ( #232 ) ) ;
#160 = AXIS2_PLACEMENT_3D ( 'NONE', #173, #374, #120 ) ;
#161 = COORDINATED_UNIVERSAL_TIME_OFFSET ( 1, 0, .AHEAD. ) ;
#162 = EDGE_LOOP ( 'NONE', ( #72, #127 ) ) ;
#163 = DIRECTION ( 'NONE',  ( 0.000000000000000000, 0.000000000000000000, 1.000000000000000000 ) ) ;
#164 = ORIENTED_EDGE ( 'NONE', *, *, #121, .T. ) ;
#165 = CIRCLE ( 'NONE', #187, 6.000000000000000888 ) ;
#166 = DIRECTION ( 'NONE',  ( -1.000000000000000000, 0.000000000000000000, 0.000000000000000000 ) ) ;
#167 = CARTESIAN_POINT ( 'NONE',  ( 2.000000000000000000, 2.449293598294706414E-16, 505.0000000000000000 ) ) ;
#168 = APPROVAL_DATE_TIME ( #251, #110 ) ;
#169 = CYLINDRICAL_SURFACE ( 'NONE', #104, 6.000000000000000888 ) ;
#170 = AXIS2_PLACEMENT_3D ( 'NONE', #79, #279, #106 ) ;
#171 = CARTESIAN_POINT ( 'NONE',  ( 3.500000000000000444, 0.000000000000000000, 5.500000000000005329 ) ) ;
#172 = DIRECTION ( 'NONE',  ( 0.000000000000000000, 0.000000000000000000, 1.000000000000000000 ) ) ;
#173 = CARTESIAN_POINT ( 'NONE',  ( 0.000000000000000000, 0.000000000000000000, 5.000000000000000000 ) ) ;
#174 = CIRCLE ( 'NONE', #20, 2.000000000000000000 ) ;
#175 = DIRECTION ( 'NONE',  ( 0.000000000000000000, 0.000000000000000000, 1.000000000000000000 ) ) ;
#176 = ORIENTED_EDGE ( 'NONE', *, *, #309, .F. ) ;
#177 = CARTESIAN_POINT ( 'NONE',  ( 0.000000000000000000, 0.000000000000000000, 505.0000000000000000 ) ) ;
#178 = EDGE_CURVE ( 'NONE', #95, #234, #320, .T. ) ;
#179 = CYLINDRICAL_SURFACE ( 'NONE', #4, 2.000000000000000000 ) ;
#180 = CIRCLE ( 'NONE', #111, 3.500000000000000444 ) ;
#181 = APPLICATION_PROTOCOL_DEFINITION ( 'international standard', 'config_control_design', 1994, #73 ) ;
#182 = VERTEX_POINT ( 'NONE', #86 ) ;
#183 = EDGE_CURVE ( 'NONE', #189, #136, #69, .T. ) ;
#184 = APPROVAL_STATUS ( 'not_yet_approved' ) ;
#185 = APPROVAL_ROLE ( '' ) ;
#186 = ORIENTED_EDGE ( 'NONE', *, *, #178, .T. ) ;
#187 = AXIS2_PLACEMENT_3D ( 'NONE', #109, #284, #117 ) ;
#188 = DATE_AND_TIME ( #240, #250 ) ;
#189 = VERTEX_POINT ( 'NONE', #206 ) ;
#190 = CARTESIAN_POINT ( 'NONE',  ( -2.000000000000000000, 0.000000000000000000, 505.0000000000000000 ) ) ;
#191 = APPROVAL ( #184, 'NEURÈENÝ' ) ;
#192 = CALENDAR_DATE ( 2022, 8, 7 ) ;
#193 = CARTESIAN_POINT ( 'NONE',  ( -6.000000000000000888, 0.000000000000000000, 5.000000000000000000 ) ) ;
#194 = LOCAL_TIME ( 17, 34, 27.00000000000000000, #283 ) ;
#195 = CARTESIAN_POINT ( 'NONE',  ( 0.000000000000000000, 0.000000000000000000, 5.000000000000000000 ) ) ;
#196 = CARTESIAN_POINT ( 'NONE',  ( -3.000000000000000444, 0.000000000000000000, 505.0000000000000000 ) ) ;
#197 = CARTESIAN_POINT ( 'NONE',  ( 0.000000000000000000, 0.000000000000000000, 5.500000000000005329 ) ) ;
#198 = CIRCLE ( 'NONE', #327, 0.4999999999999995559 ) ;
#199 = LOCAL_TIME ( 17, 34, 27.00000000000000000, #218 ) ;
#200 = CYLINDRICAL_SURFACE ( 'NONE', #215, 6.000000000000000888 ) ;
#201 = ADVANCED_FACE ( 'NONE', ( #150 ), #256, .T. ) ;
#202 = LINE ( 'NONE', #145, #341 ) ;
#203 = CARTESIAN_POINT ( 'NONE',  ( 0.000000000000000000, 0.000000000000000000, 505.0000000000000000 ) ) ;
#204 = CYLINDRICAL_SURFACE ( 'NONE', #25, 2.000000000000000000 ) ;
#205 = ORIENTED_EDGE ( 'NONE', *, *, #64, .T. ) ;
#206 = CARTESIAN_POINT ( 'NONE',  ( 6.000000000000000888, 7.347880794884120722E-16, 5.000000000000000000 ) ) ;
#207 = CARTESIAN_POINT ( 'NONE',  ( 0.000000000000000000, 0.000000000000000000, 5.000000000000000000 ) ) ;
#208 = PERSON_AND_ORGANIZATION ( #74, #26 ) ;
#209 = ORIENTED_EDGE ( 'NONE', *, *, #44, .F. ) ;
#210 = CIRCLE ( 'NONE', #311, 2.000000000000000000 ) ;
#211 = ORIENTED_EDGE ( 'NONE', *, *, #152, .F. ) ;
#212 = ORIENTED_EDGE ( 'NONE', *, *, #242, .F. ) ;
#213 = MECHANICAL_CONTEXT ( 'NONE', #266, 'mechanical' ) ;
#214 = ORIENTED_EDGE ( 'NONE', *, *, #369, .F. ) ;
#215 = AXIS2_PLACEMENT_3D ( 'NONE', #316, #291, #30 ) ;
#216 = ORIENTED_EDGE ( 'NONE', *, *, #3, .F. ) ;
#217 = ADVANCED_FACE ( 'NONE', ( #148 ), #200, .T. ) ;
#218 = COORDINATED_UNIVERSAL_TIME_OFFSET ( 1, 0, .AHEAD. ) ;
#219 = CARTESIAN_POINT ( 'NONE',  ( -6.000000000000000888, 0.000000000000000000, 5.000000000000000000 ) ) ;
#220 = VECTOR ( 'NONE', #353, 1000.000000000000000 ) ;
#221 = CARTESIAN_POINT ( 'NONE',  ( -3.000000000000000444, 0.000000000000000000, 5.500000000000005329 ) ) ;
#222 = PERSON_AND_ORGANIZATION_ROLE ( 'design_supplier' ) ;
#223 = LINE ( 'NONE', #190, #119 ) ;
#224 = DIRECTION ( 'NONE',  ( 1.000000000000000000, 0.000000000000000000, 0.000000000000000000 ) ) ;
#225 = APPROVAL_PERSON_ORGANIZATION ( #208, #11, #185 ) ;
#226 = DIRECTION ( 'NONE',  ( 0.000000000000000000, 0.000000000000000000, 1.000000000000000000 ) ) ;
#227 = CARTESIAN_POINT ( 'NONE',  ( 3.000000000000000444, 3.673940397442060361E-16, 505.0000000000000000 ) ) ;
#228 = CARTESIAN_POINT ( 'NONE',  ( 3.000000000000000444, 3.673940397442060361E-16, 505.0000000000000000 ) ) ;
#229 = EDGE_LOOP ( 'NONE', ( #212, #209, #68, #135 ) ) ;
#230 = AXIS2_PLACEMENT_3D ( 'NONE', #115, #313, #53 ) ;
#231 = DIRECTION ( 'NONE',  ( -0.000000000000000000, -0.000000000000000000, -1.000000000000000000 ) ) ;
#232 = PRODUCT_DEFINITION ( 'NEZNÁMÝ', '', #346, #99 ) ;
#233 = ORIENTED_EDGE ( 'NONE', *, *, #101, .F. ) ;
#234 = VERTEX_POINT ( 'NONE', #260 ) ;
#235 = ADVANCED_FACE ( 'NONE', ( #376, #88 ), #122, .T. ) ;
#236 = DIRECTION ( 'NONE',  ( 1.000000000000000000, 0.000000000000000000, 0.000000000000000000 ) ) ;
#237 = CIRCLE ( 'NONE', #160, 3.500000000000000444 ) ;
#238 = FACE_BOUND ( 'NONE', #363, .T. ) ;
#239 = ORIENTED_EDGE ( 'NONE', *, *, #369, .T. ) ;
#240 = CALENDAR_DATE ( 2022, 8, 7 ) ;
#241 = EDGE_LOOP ( 'NONE', ( #36, #158 ) ) ;
#242 = EDGE_CURVE ( 'NONE', #330, #124, #28, .T. ) ;
#243 = ORIENTED_EDGE ( 'NONE', *, *, #138, .T. ) ;
#244 = AXIS2_PLACEMENT_3D ( 'NONE', #82, #175, #350 ) ;
#245 = CARTESIAN_POINT ( 'NONE',  ( 0.000000000000000000, 0.000000000000000000, 505.0000000000000000 ) ) ;
#246 = DIRECTION ( 'NONE',  ( 0.000000000000000000, 0.000000000000000000, 1.000000000000000000 ) ) ;
#247 = SECURITY_CLASSIFICATION_LEVEL ( 'unclassified' ) ;
#248 = DIRECTION ( 'NONE',  ( 1.000000000000000000, 0.000000000000000000, 0.000000000000000000 ) ) ;
#249 = AXIS2_PLACEMENT_3D ( 'NONE', #207, #128, #328 ) ;
#250 = LOCAL_TIME ( 17, 34, 27.00000000000000000, #161 ) ;
#251 = DATE_AND_TIME ( #52, #199 ) ;
#252 = DIRECTION ( 'NONE',  ( -1.000000000000000000, 1.224646799147354440E-16, 0.000000000000000000 ) ) ;
#253 = DIRECTION ( 'NONE',  ( 0.000000000000000000, 0.000000000000000000, 1.000000000000000000 ) ) ;
#254 = CC_DESIGN_PERSON_AND_ORGANIZATION_ASSIGNMENT ( #380, #42, ( #78 ) ) ;
#255 = AXIS2_PLACEMENT_3D ( 'NONE', #62, #257, #379 ) ;
#256 = CYLINDRICAL_SURFACE ( 'NONE', #302, 3.000000000000000444 ) ;
#257 = DIRECTION ( 'NONE',  ( 0.000000000000000000, 0.000000000000000000, 1.000000000000000000 ) ) ;
#258 = CARTESIAN_POINT ( 'NONE',  ( 0.000000000000000000, 0.000000000000000000, 505.0000000000000000 ) ) ;
#259 = CIRCLE ( 'NONE', #255, 2.000000000000000000 ) ;
#260 = CARTESIAN_POINT ( 'NONE',  ( -6.000000000000000888, 0.000000000000000000, 0.000000000000000000 ) ) ;
#261 = EDGE_CURVE ( 'NONE', #273, #8, #259, .T. ) ;
#262 = PERSON_AND_ORGANIZATION ( #74, #26 ) ;
#263 = ORIENTED_EDGE ( 'NONE', *, *, #183, .F. ) ;
#264 = PERSON_AND_ORGANIZATION_ROLE ( 'creator' ) ;
#265 = EDGE_LOOP ( 'NONE', ( #130, #356 ) ) ;
#266 = APPLICATION_CONTEXT ( 'configuration controlled 3d designs of mechanical parts and assemblies' ) ;
#267 = AXIS2_PLACEMENT_3D ( 'NONE', #195, #246, #366 ) ;
#268 = ORIENTED_EDGE ( 'NONE', *, *, #29, .T. ) ;
#269 = CC_DESIGN_APPROVAL ( #191, ( #346 ) ) ;
#270 = VERTEX_POINT ( 'NONE', #287 ) ;
#271 = EDGE_CURVE ( 'NONE', #8, #38, #322, .T. ) ;
#272 = DATE_TIME_ROLE ( 'creation_date' ) ;
#273 = VERTEX_POINT ( 'NONE', #375 ) ;
#274 = CARTESIAN_POINT ( 'NONE',  ( 2.000000000000000000, 2.449293598294706414E-16, 0.000000000000000000 ) ) ;
#275 = PERSON_AND_ORGANIZATION ( #74, #26 ) ;
#276 = EDGE_CURVE ( 'NONE', #330, #270, #96, .T. ) ;
#277 = DIRECTION ( 'NONE',  ( 1.000000000000000000, 0.000000000000000000, 0.000000000000000000 ) ) ;
#278 = PERSON_AND_ORGANIZATION ( #74, #26 ) ;
#279 = DIRECTION ( 'NONE',  ( -0.000000000000000000, -0.000000000000000000, -1.000000000000000000 ) ) ;
#280 = APPROVAL_STATUS ( 'not_yet_approved' ) ;
#281 = PRODUCT_DEFINITION_SHAPE ( 'NONE', 'NONE',  #232 ) ;
#282 = CARTESIAN_POINT ( 'NONE',  ( 3.000000000000000444, 3.673940397442060361E-16, 5.500000000000005329 ) ) ;
#283 = COORDINATED_UNIVERSAL_TIME_OFFSET ( 1, 0, .AHEAD. ) ;
#284 = DIRECTION ( 'NONE',  ( 0.000000000000000000, 0.000000000000000000, 1.000000000000000000 ) ) ;
#285 = ADVANCED_FACE ( 'NONE', ( #286 ), #151, .F. ) ;
#286 = FACE_OUTER_BOUND ( 'NONE', #329, .T. ) ;
#287 = CARTESIAN_POINT ( 'NONE',  ( -3.000000000000000444, 0.000000000000000000, 505.0000000000000000 ) ) ;
#288 = CIRCLE ( 'NONE', #373, 3.000000000000000444 ) ;
#289 = DIRECTION ( 'NONE',  ( 1.000000000000000000, 0.000000000000000000, -0.000000000000000000 ) ) ;
#290 = ADVANCED_FACE ( 'NONE', ( #125 ), #204, .F. ) ;
#291 = DIRECTION ( 'NONE',  ( -0.000000000000000000, -0.000000000000000000, -1.000000000000000000 ) ) ;
#292 = DIRECTION ( 'NONE',  ( -1.000000000000000000, 0.000000000000000000, 0.000000000000000000 ) ) ;
#293 = AXIS2_PLACEMENT_3D ( 'NONE', #94, #5, #97 ) ;
#294 = DIRECTION ( 'NONE',  ( 0.000000000000000000, 0.000000000000000000, -1.000000000000000000 ) ) ;
#295 = ORIENTED_EDGE ( 'NONE', *, *, #61, .F. ) ;
#296 = COORDINATED_UNIVERSAL_TIME_OFFSET ( 1, 0, .AHEAD. ) ;
#297 = ORIENTED_EDGE ( 'NONE', *, *, #107, .F. ) ;
#298 = APPROVAL_DATE_TIME ( #301, #11 ) ;
#299 = ORIENTED_EDGE ( 'NONE', *, *, #61, .T. ) ;
#300 = ADVANCED_BREP_SHAPE_REPRESENTATION ( 'b3da', ( #156, #15 ), #89 ) ;
#301 = DATE_AND_TIME ( #134, #55 ) ;
#302 = AXIS2_PLACEMENT_3D ( 'NONE', #258, #231, #324 ) ;
#303 = ORIENTED_EDGE ( 'NONE', *, *, #107, .T. ) ;
#304 = APPROVAL_PERSON_ORGANIZATION ( #278, #110, #342 ) ;
#305 = ADVANCED_FACE ( 'NONE', ( #347 ), #144, .T. ) ;
#306 = PERSON_AND_ORGANIZATION ( #74, #26 ) ;
#307 = ORIENTED_EDGE ( 'NONE', *, *, #309, .T. ) ;
#308 = CARTESIAN_POINT ( 'NONE',  ( 6.000000000000000888, 7.347880794884120722E-16, 0.000000000000000000 ) ) ;
#309 = EDGE_CURVE ( 'NONE', #189, #95, #202, .T. ) ;
#310 = FACE_OUTER_BOUND ( 'NONE', #364, .T. ) ;
#311 = AXIS2_PLACEMENT_3D ( 'NONE', #17, #45, #338 ) ;
#312 = CARTESIAN_POINT ( 'NONE',  ( -3.500000000000000444, 4.286263797015737088E-16, 5.500000000000005329 ) ) ;
#313 = DIRECTION ( 'NONE',  ( 0.000000000000000000, 0.000000000000000000, 1.000000000000000000 ) ) ;
#314 = EDGE_CURVE ( 'NONE', #41, #2, #237, .T. ) ;
#315 = VECTOR ( 'NONE', #349, 1000.000000000000000 ) ;
#316 = CARTESIAN_POINT ( 'NONE',  ( 0.000000000000000000, 0.000000000000000000, 5.000000000000000000 ) ) ;
#317 = DIRECTION ( 'NONE',  ( -0.000000000000000000, -0.000000000000000000, -1.000000000000000000 ) ) ;
#318 = CARTESIAN_POINT ( 'NONE',  ( 0.000000000000000000, 0.000000000000000000, 505.0000000000000000 ) ) ;
#319 = ORIENTED_EDGE ( 'NONE', *, *, #138, .F. ) ;
#320 = CIRCLE ( 'NONE', #352, 6.000000000000000888 ) ;
#321 = CC_DESIGN_SECURITY_CLASSIFICATION ( #112, ( #346 ) ) ;
#322 = LINE ( 'NONE', #24, #315 ) ;
#323 = ORIENTED_EDGE ( 'NONE', *, *, #271, .T. ) ;
#324 = DIRECTION ( 'NONE',  ( -1.000000000000000000, 0.000000000000000000, 0.000000000000000000 ) ) ;
#325 = DIRECTION ( 'NONE',  ( 0.000000000000000000, 0.000000000000000000, 1.000000000000000000 ) ) ;
#326 = CC_DESIGN_PERSON_AND_ORGANIZATION_ASSIGNMENT ( #262, #264, ( #232 ) ) ;
#327 = AXIS2_PLACEMENT_3D ( 'NONE', #312, #143, #252 ) ;
#328 = DIRECTION ( 'NONE',  ( 1.000000000000000000, 0.000000000000000000, -0.000000000000000000 ) ) ;
#329 = EDGE_LOOP ( 'NONE', ( #43, #214, #362, #211 ) ) ;
#330 = VERTEX_POINT ( 'NONE', #227 ) ;
#331 = CC_DESIGN_PERSON_AND_ORGANIZATION_ASSIGNMENT ( #275, #80, ( #112 ) ) ;
#332 =( NAMED_UNIT ( * ) SI_UNIT ( $, .STERADIAN. ) SOLID_ANGLE_UNIT ( ) );
#333 = EDGE_LOOP ( 'NONE', ( #65, #67 ) ) ;
#334 = VECTOR ( 'NONE', #22, 1000.000000000000000 ) ;
#335 = ORIENTED_EDGE ( 'NONE', *, *, #314, .F. ) ;
#336 = EDGE_LOOP ( 'NONE', ( #100, #71, #303, #299 ) ) ;
#337 = CC_DESIGN_PERSON_AND_ORGANIZATION_ASSIGNMENT ( #114, #139, ( #346 ) ) ;
#338 = DIRECTION ( 'NONE',  ( 1.000000000000000000, 0.000000000000000000, 0.000000000000000000 ) ) ;
#339 = PERSON_AND_ORGANIZATION ( #74, #26 ) ;
#340 = AXIS2_PLACEMENT_3D ( 'NONE', #132, #325, #236 ) ;
#341 = VECTOR ( 'NONE', #317, 1000.000000000000000 ) ;
#342 = APPROVAL_ROLE ( '' ) ;
#343 = CARTESIAN_POINT ( 'NONE',  ( 0.000000000000000000, 0.000000000000000000, 5.000000000000000000 ) ) ;
#344 = LINE ( 'NONE', #193, #377 ) ;
#345 = CIRCLE ( 'NONE', #267, 6.000000000000000888 ) ;
#346 = PRODUCT_DEFINITION_FORMATION_WITH_SPECIFIED_SOURCE ( 'LIBOVOLNÝ', '', #78, .NOT_KNOWN. ) ;
#347 = FACE_OUTER_BOUND ( 'NONE', #229, .T. ) ;
#348 = ADVANCED_FACE ( 'NONE', ( #58, #87 ), #37, .T. ) ;
#349 = DIRECTION ( 'NONE',  ( 0.000000000000000000, 0.000000000000000000, -1.000000000000000000 ) ) ;
#350 = DIRECTION ( 'NONE',  ( 1.000000000000000000, 0.000000000000000000, 0.000000000000000000 ) ) ;
#351 = ORIENTED_EDGE ( 'NONE', *, *, #276, .F. ) ;
#352 = AXIS2_PLACEMENT_3D ( 'NONE', #19, #142, #27 ) ;
#353 = DIRECTION ( 'NONE',  ( -0.000000000000000000, -0.000000000000000000, -1.000000000000000000 ) ) ;
#354 = EDGE_LOOP ( 'NONE', ( #233, #268, #335, #216 ) ) ;
#355 = APPROVAL_STATUS ( 'not_yet_approved' ) ;
#356 = ORIENTED_EDGE ( 'NONE', *, *, #183, .T. ) ;
#357 = AXIS2_PLACEMENT_3D ( 'NONE', #318, #172, #149 ) ;
#358 = APPROVAL_PERSON_ORGANIZATION ( #306, #191, #70 ) ;
#359 = ORIENTED_EDGE ( 'NONE', *, *, #34, .F. ) ;
#360 = ADVANCED_FACE ( 'NONE', ( #238, #35 ), #126, .F. ) ;
#361 = CARTESIAN_POINT ( 'NONE',  ( 0.000000000000000000, 0.000000000000000000, 505.0000000000000000 ) ) ;
#362 = ORIENTED_EDGE ( 'NONE', *, *, #3, .T. ) ;
#363 = EDGE_LOOP ( 'NONE', ( #295, #319 ) ) ;
#364 = EDGE_LOOP ( 'NONE', ( #176, #103, #164, #205 ) ) ;
#365 = DATE_TIME_ROLE ( 'classification_date' ) ;
#366 = DIRECTION ( 'NONE',  ( 1.000000000000000000, 0.000000000000000000, 0.000000000000000000 ) ) ;
#367 = DIRECTION ( 'NONE',  ( 0.000000000000000000, 0.000000000000000000, -1.000000000000000000 ) ) ;
#368 = CARTESIAN_POINT ( 'NONE',  ( 0.000000000000000000, 0.000000000000000000, 5.000000000000000000 ) ) ;
#369 = EDGE_CURVE ( 'NONE', #124, #153, #12, .T. ) ;
#370 = FACE_OUTER_BOUND ( 'NONE', #354, .T. ) ;
#371 = LINE ( 'NONE', #196, #334 ) ;
#372 = DIRECTION ( 'NONE',  ( -0.000000000000000000, -0.000000000000000000, -1.000000000000000000 ) ) ;
#373 = AXIS2_PLACEMENT_3D ( 'NONE', #197, #253, #248 ) ;
#374 = DIRECTION ( 'NONE',  ( -0.000000000000000000, -0.000000000000000000, -1.000000000000000000 ) ) ;
#375 = CARTESIAN_POINT ( 'NONE',  ( -2.000000000000000000, 0.000000000000000000, 505.0000000000000000 ) ) ;
#376 = FACE_BOUND ( 'NONE', #162, .T. ) ;
#377 = VECTOR ( 'NONE', #49, 1000.000000000000000 ) ;
#378 = ADVANCED_FACE ( 'NONE', ( #32 ), #179, .F. ) ;
#379 = DIRECTION ( 'NONE',  ( 1.000000000000000000, 0.000000000000000000, 0.000000000000000000 ) ) ;
#380 = PERSON_AND_ORGANIZATION ( #74, #26 ) ;
#381 = ORIENTED_EDGE ( 'NONE', *, *, #314, .T. ) ;
ENDSEC;
END-ISO-10303-21;
