ISO-10303-21;
HEADER;
FILE_DESCRIPTION (( 'STEP AP203' ),
    '1' );
FILE_NAME ('febe.STEP',
    '2022-07-08T15:05:25',
    ( '' ),
    ( '' ),
    'SwSTEP 2.0',
    'SolidWorks 2019',
    '' );
FILE_SCHEMA (( 'CONFIG_CONTROL_DESIGN' ));
ENDSEC;

DATA;
#1 = CARTESIAN_POINT ( 'NONE',  ( 0.000000000000000000, 0.000000000000000000, 180.0000000000000000 ) ) ;
#2 = PLANE ( 'NONE',  #266 ) ;
#3 = VERTEX_POINT ( 'NONE', #24 ) ;
#4 = MANIFOLD_SOLID_BREP ( 'Odebrat vysunutím3', #362 ) ;
#5 = CC_DESIGN_PERSON_AND_ORGANIZATION_ASSIGNMENT ( #17, #371, ( #195 ) ) ;
#6 = ORIENTED_EDGE ( 'NONE', *, *, #60, .T. ) ;
#7 = VECTOR ( 'NONE', #254, 1000.000000000000000 ) ;
#8 = EDGE_LOOP ( 'NONE', ( #221, #275, #131, #355 ) ) ;
#9 = DIRECTION ( 'NONE',  ( 0.000000000000000000, 0.000000000000000000, 1.000000000000000000 ) ) ;
#10 = CIRCLE ( 'NONE', #305, 5.000000000000000000 ) ;
#11 = ORIENTED_EDGE ( 'NONE', *, *, #124, .T. ) ;
#12 = CIRCLE ( 'NONE', #285, 8.000000000000000000 ) ;
#13 = ADVANCED_FACE ( 'NONE', ( #370 ), #179, .F. ) ;
#14 = APPROVAL_DATE_TIME ( #41, #82 ) ;
#15 = DATE_TIME_ROLE ( 'classification_date' ) ;
#16 = CARTESIAN_POINT ( 'NONE',  ( -5.000000000000000000, 0.000000000000000000, 180.0000000000000000 ) ) ;
#17 = PERSON_AND_ORGANIZATION ( #247, #367 ) ;
#18 = AXIS2_PLACEMENT_3D ( 'NONE', #318, #319, #62 ) ;
#19 = FACE_OUTER_BOUND ( 'NONE', #59, .T. ) ;
#20 = APPLICATION_CONTEXT ( 'configuration controlled 3d designs of mechanical parts and assemblies' ) ;
#21 = ORIENTED_EDGE ( 'NONE', *, *, #53, .F. ) ;
#22 = APPROVAL ( #199, 'NEURÈENÝ' ) ;
#23 = CALENDAR_DATE ( 2022, 8, 7 ) ;
#24 = CARTESIAN_POINT ( 'NONE',  ( 5.500000000000000000, 0.000000000000000000, 5.000000000000002665 ) ) ;
#25 = ADVANCED_BREP_SHAPE_REPRESENTATION ( 'febe', ( #4, #31 ), #152 ) ;
#26 = ORIENTED_EDGE ( 'NONE', *, *, #27, .T. ) ;
#27 = EDGE_CURVE ( 'NONE', #110, #77, #227, .T. ) ;
#28 = FACE_BOUND ( 'NONE', #281, .T. ) ;
#29 = CARTESIAN_POINT ( 'NONE',  ( 2.750000000000000000, 3.367778697655220519E-16, 180.0000000000000000 ) ) ;
#30 = DIRECTION ( 'NONE',  ( 1.000000000000000000, 0.000000000000000000, -0.000000000000000000 ) ) ;
#31 = AXIS2_PLACEMENT_3D ( 'NONE', #128, #278, #99 ) ;
#32 = AXIS2_PLACEMENT_3D ( 'NONE', #90, #320, #149 ) ;
#33 = CARTESIAN_POINT ( 'NONE',  ( 0.000000000000000000, 0.000000000000000000, 180.0000000000000000 ) ) ;
#34 = CARTESIAN_POINT ( 'NONE',  ( 0.000000000000000000, 0.000000000000000000, 180.0000000000000000 ) ) ;
#35 = AXIS2_PLACEMENT_3D ( 'NONE', #311, #175, #83 ) ;
#36 =( NAMED_UNIT ( * ) SI_UNIT ( $, .STERADIAN. ) SOLID_ANGLE_UNIT ( ) );
#37 = ORIENTED_EDGE ( 'NONE', *, *, #150, .F. ) ;
#38 = DESIGN_CONTEXT ( 'detailed design', #44, 'design' ) ;
#39 = APPROVAL_PERSON_ORGANIZATION ( #325, #82, #69 ) ;
#40 = EDGE_CURVE ( 'NONE', #77, #3, #45, .T. ) ;
#41 = DATE_AND_TIME ( #105, #115 ) ;
#42 = EDGE_LOOP ( 'NONE', ( #299, #81, #79, #51 ) ) ;
#43 = ORIENTED_EDGE ( 'NONE', *, *, #53, .T. ) ;
#44 = APPLICATION_CONTEXT ( 'configuration controlled 3d designs of mechanical parts and assemblies' ) ;
#45 = CIRCLE ( 'NONE', #257, 0.5000000000000004441 ) ;
#46 = APPLICATION_PROTOCOL_DEFINITION ( 'international standard', 'config_control_design', 1994, #44 ) ;
#47 = ORIENTED_EDGE ( 'NONE', *, *, #335, .T. ) ;
#48 = LINE ( 'NONE', #68, #66 ) ;
#49 = AXIS2_PLACEMENT_3D ( 'NONE', #290, #147, #262 ) ;
#50 = ORIENTED_EDGE ( 'NONE', *, *, #212, .F. ) ;
#51 = ORIENTED_EDGE ( 'NONE', *, *, #314, .F. ) ;
#52 = DIRECTION ( 'NONE',  ( 0.000000000000000000, -1.000000000000000000, 0.000000000000000000 ) ) ;
#53 = EDGE_CURVE ( 'NONE', #164, #102, #116, .T. ) ;
#54 = VECTOR ( 'NONE', #210, 1000.000000000000000 ) ;
#55 = DIRECTION ( 'NONE',  ( -0.000000000000000000, -0.000000000000000000, -1.000000000000000000 ) ) ;
#56 = AXIS2_PLACEMENT_3D ( 'NONE', #374, #344, #197 ) ;
#57 = APPROVAL_ROLE ( '' ) ;
#58 = CARTESIAN_POINT ( 'NONE',  ( 0.000000000000000000, 0.000000000000000000, 5.500000000000005329 ) ) ;
#59 = EDGE_LOOP ( 'NONE', ( #162, #26, #129, #21 ) ) ;
#60 = EDGE_CURVE ( 'NONE', #100, #364, #309, .T. ) ;
#61 = DIRECTION ( 'NONE',  ( 1.000000000000000000, 0.000000000000000000, 0.000000000000000000 ) ) ;
#62 = DIRECTION ( 'NONE',  ( -1.000000000000000000, 0.000000000000000000, 0.000000000000000000 ) ) ;
#63 = DIRECTION ( 'NONE',  ( -0.000000000000000000, -0.000000000000000000, -1.000000000000000000 ) ) ;
#64 = AXIS2_PLACEMENT_3D ( 'NONE', #200, #340, #256 ) ;
#65 = FACE_OUTER_BOUND ( 'NONE', #137, .T. ) ;
#66 = VECTOR ( 'NONE', #157, 1000.000000000000000 ) ;
#67 = CARTESIAN_POINT ( 'NONE',  ( 0.000000000000000000, 0.000000000000000000, 5.500000000000005329 ) ) ;
#68 = CARTESIAN_POINT ( 'NONE',  ( 8.000000000000000000, 9.797174393178825657E-16, 5.000000000000000000 ) ) ;
#69 = APPROVAL_ROLE ( '' ) ;
#70 = ORIENTED_EDGE ( 'NONE', *, *, #307, .F. ) ;
#71 = AXIS2_PLACEMENT_3D ( 'NONE', #292, #375, #30 ) ;
#72 = DIRECTION ( 'NONE',  ( 1.000000000000000000, 0.000000000000000000, -0.000000000000000000 ) ) ;
#73 = ORIENTED_EDGE ( 'NONE', *, *, #288, .F. ) ;
#74 = DIRECTION ( 'NONE',  ( 1.000000000000000000, 0.000000000000000000, -0.000000000000000000 ) ) ;
#75 = AXIS2_PLACEMENT_3D ( 'NONE', #366, #306, #228 ) ;
#76 = CALENDAR_DATE ( 2022, 8, 7 ) ;
#77 = VERTEX_POINT ( 'NONE', #140 ) ;
#78 = APPROVAL_ROLE ( '' ) ;
#79 = ORIENTED_EDGE ( 'NONE', *, *, #40, .T. ) ;
#80 = APPROVAL_DATE_TIME ( #108, #177 ) ;
#81 = ORIENTED_EDGE ( 'NONE', *, *, #218, .F. ) ;
#82 = APPROVAL ( #163, 'NEURÈENÝ' ) ;
#83 = DIRECTION ( 'NONE',  ( 1.000000000000000000, 0.000000000000000000, 0.000000000000000000 ) ) ;
#84 = DATE_AND_TIME ( #23, #294 ) ;
#85 = SECURITY_CLASSIFICATION ( '', '', #339 ) ;
#86 = EDGE_LOOP ( 'NONE', ( #248, #50 ) ) ;
#87 = PRODUCT_DEFINITION_SHAPE ( 'NONE', 'NONE',  #269 ) ;
#88 = EDGE_CURVE ( 'NONE', #364, #250, #252, .T. ) ;
#89 = CARTESIAN_POINT ( 'NONE',  ( 0.000000000000000000, 0.000000000000000000, 5.000000000000000000 ) ) ;
#90 = CARTESIAN_POINT ( 'NONE',  ( 0.000000000000000000, 0.000000000000000000, 0.000000000000000000 ) ) ;
#91 = LOCAL_TIME ( 17, 5, 25.00000000000000000, #365 ) ;
#92 = FACE_OUTER_BOUND ( 'NONE', #8, .T. ) ;
#93 = CC_DESIGN_DATE_AND_TIME_ASSIGNMENT ( #84, #15, ( #85 ) ) ;
#94 = DIRECTION ( 'NONE',  ( -1.000000000000000000, 0.000000000000000000, 0.000000000000000000 ) ) ;
#95 = VECTOR ( 'NONE', #167, 1000.000000000000000 ) ;
#96 = FACE_OUTER_BOUND ( 'NONE', #279, .T. ) ;
#97 = CIRCLE ( 'NONE', #32, 8.000000000000000000 ) ;
#98 = ADVANCED_FACE ( 'NONE', ( #259 ), #372, .T. ) ;
#99 = DIRECTION ( 'NONE',  ( 1.000000000000000000, 0.000000000000000000, 0.000000000000000000 ) ) ;
#100 = VERTEX_POINT ( 'NONE', #343 ) ;
#101 = DATE_TIME_ROLE ( 'creation_date' ) ;
#102 = VERTEX_POINT ( 'NONE', #113 ) ;
#103 = CIRCLE ( 'NONE', #206, 5.500000000000000000 ) ;
#104 = ORIENTED_EDGE ( 'NONE', *, *, #212, .T. ) ;
#105 = CALENDAR_DATE ( 2022, 8, 7 ) ;
#106 = VERTEX_POINT ( 'NONE', #112 ) ;
#107 = AXIS2_PLACEMENT_3D ( 'NONE', #342, #117, #202 ) ;
#108 = DATE_AND_TIME ( #170, #91 ) ;
#109 = AXIS2_PLACEMENT_3D ( 'NONE', #213, #126, #159 ) ;
#110 = VERTEX_POINT ( 'NONE', #229 ) ;
#111 = ADVANCED_FACE ( 'NONE', ( #198 ), #234, .F. ) ;
#112 = CARTESIAN_POINT ( 'NONE',  ( -5.500000000000000000, 6.735557395310442023E-16, 5.000000000000002665 ) ) ;
#113 = CARTESIAN_POINT ( 'NONE',  ( -5.000000000000000000, 0.000000000000000000, 5.500000000000005329 ) ) ;
#114 = ADVANCED_FACE ( 'NONE', ( #19 ), #142, .T. ) ;
#115 = LOCAL_TIME ( 17, 5, 25.00000000000000000, #185 ) ;
#116 = LINE ( 'NONE', #16, #316 ) ;
#117 = DIRECTION ( 'NONE',  ( -0.000000000000000000, -0.000000000000000000, -1.000000000000000000 ) ) ;
#118 = PLANE ( 'NONE',  #71 ) ;
#119 = CARTESIAN_POINT ( 'NONE',  ( 2.750000000000000000, 3.367778697655220519E-16, 180.0000000000000000 ) ) ;
#120 = APPROVAL_PERSON_ORGANIZATION ( #333, #177, #78 ) ;
#121 = EDGE_CURVE ( 'NONE', #164, #110, #174, .T. ) ;
#122 = CARTESIAN_POINT ( 'NONE',  ( 0.000000000000000000, 0.000000000000000000, 5.000000000000000000 ) ) ;
#123 = DIRECTION ( 'NONE',  ( 1.000000000000000000, 0.000000000000000000, 0.000000000000000000 ) ) ;
#124 = EDGE_CURVE ( 'NONE', #304, #191, #251, .T. ) ;
#125 = DIRECTION ( 'NONE',  ( 0.000000000000000000, 0.000000000000000000, 1.000000000000000000 ) ) ;
#126 = DIRECTION ( 'NONE',  ( 0.000000000000000000, 0.000000000000000000, 1.000000000000000000 ) ) ;
#127 = EDGE_LOOP ( 'NONE', ( #277, #214 ) ) ;
#128 = CARTESIAN_POINT ( 'NONE',  ( 0.000000000000000000, 0.000000000000000000, 0.000000000000000000 ) ) ;
#129 = ORIENTED_EDGE ( 'NONE', *, *, #218, .T. ) ;
#130 = DIRECTION ( 'NONE',  ( -0.000000000000000000, -0.000000000000000000, -1.000000000000000000 ) ) ;
#131 = ORIENTED_EDGE ( 'NONE', *, *, #88, .T. ) ;
#132 = CC_DESIGN_SECURITY_CLASSIFICATION ( #85, ( #195 ) ) ;
#133 = CIRCLE ( 'NONE', #237, 8.000000000000000000 ) ;
#134 = PERSON_AND_ORGANIZATION_ROLE ( 'design_owner' ) ;
#135 = ORIENTED_EDGE ( 'NONE', *, *, #307, .T. ) ;
#136 = PERSON_AND_ORGANIZATION ( #247, #367 ) ;
#137 = EDGE_LOOP ( 'NONE', ( #282, #165, #104, #70 ) ) ;
#138 = PRODUCT ( 'febe', 'febe', '', ( #280 ) ) ;
#139 = EDGE_CURVE ( 'NONE', #102, #106, #261, .T. ) ;
#140 = CARTESIAN_POINT ( 'NONE',  ( 5.000000000000000000, 6.123233995736766282E-16, 5.500000000000005329 ) ) ;
#141 = CC_DESIGN_APPROVAL ( #82, ( #269 ) ) ;
#142 = CYLINDRICAL_SURFACE ( 'NONE', #107, 5.000000000000000000 ) ;
#143 = PERSON_AND_ORGANIZATION_ROLE ( 'design_supplier' ) ;
#144 = DIRECTION ( 'NONE',  ( 0.000000000000000000, 0.000000000000000000, -1.000000000000000000 ) ) ;
#145 = CARTESIAN_POINT ( 'NONE',  ( -8.000000000000000000, 0.000000000000000000, 5.000000000000000000 ) ) ;
#146 = AXIS2_PLACEMENT_3D ( 'NONE', #230, #345, #233 ) ;
#147 = DIRECTION ( 'NONE',  ( 0.000000000000000000, 0.000000000000000000, 1.000000000000000000 ) ) ;
#148 = DIRECTION ( 'NONE',  ( 1.000000000000000000, 0.000000000000000000, 0.000000000000000000 ) ) ;
#149 = DIRECTION ( 'NONE',  ( 1.000000000000000000, 0.000000000000000000, 0.000000000000000000 ) ) ;
#150 = EDGE_CURVE ( 'NONE', #250, #334, #97, .T. ) ;
#151 = DIRECTION ( 'NONE',  ( 0.000000000000000000, 0.000000000000000000, 1.000000000000000000 ) ) ;
#152 =( GEOMETRIC_REPRESENTATION_CONTEXT ( 3 ) GLOBAL_UNCERTAINTY_ASSIGNED_CONTEXT ( ( #324 ) ) GLOBAL_UNIT_ASSIGNED_CONTEXT ( ( #360, #276, #36 ) ) REPRESENTATION_CONTEXT ( 'NONE', 'WORKASPACE' ) );
#153 = AXIS2_PLACEMENT_3D ( 'NONE', #263, #268, #61 ) ;
#154 = LINE ( 'NONE', #232, #54 ) ;
#155 = EDGE_CURVE ( 'NONE', #110, #164, #10, .T. ) ;
#156 = DIRECTION ( 'NONE',  ( 1.000000000000000000, 0.000000000000000000, 0.000000000000000000 ) ) ;
#157 = DIRECTION ( 'NONE',  ( -0.000000000000000000, -0.000000000000000000, -1.000000000000000000 ) ) ;
#158 = EDGE_LOOP ( 'NONE', ( #189, #353, #211, #171 ) ) ;
#159 = DIRECTION ( 'NONE',  ( 1.000000000000000000, 0.000000000000000000, 0.000000000000000000 ) ) ;
#160 = EDGE_LOOP ( 'NONE', ( #329, #6 ) ) ;
#161 = ADVANCED_FACE ( 'NONE', ( #297 ), #293, .F. ) ;
#162 = ORIENTED_EDGE ( 'NONE', *, *, #155, .F. ) ;
#163 = APPROVAL_STATUS ( 'not_yet_approved' ) ;
#164 = VERTEX_POINT ( 'NONE', #291 ) ;
#165 = ORIENTED_EDGE ( 'NONE', *, *, #288, .T. ) ;
#166 = CC_DESIGN_DATE_AND_TIME_ASSIGNMENT ( #354, #101, ( #269 ) ) ;
#167 = DIRECTION ( 'NONE',  ( -0.000000000000000000, -0.000000000000000000, -1.000000000000000000 ) ) ;
#168 = CARTESIAN_POINT ( 'NONE',  ( 0.000000000000000000, 0.000000000000000000, 5.500000000000005329 ) ) ;
#169 = CC_DESIGN_APPROVAL ( #22, ( #85 ) ) ;
#170 = CALENDAR_DATE ( 2022, 8, 7 ) ;
#171 = ORIENTED_EDGE ( 'NONE', *, *, #88, .F. ) ;
#172 = EDGE_CURVE ( 'NONE', #102, #77, #267, .T. ) ;
#173 = ORIENTED_EDGE ( 'NONE', *, *, #260, .F. ) ;
#174 = CIRCLE ( 'NONE', #35, 5.000000000000000000 ) ;
#175 = DIRECTION ( 'NONE',  ( 0.000000000000000000, 0.000000000000000000, 1.000000000000000000 ) ) ;
#176 = DIRECTION ( 'NONE',  ( 0.000000000000000000, 0.000000000000000000, -1.000000000000000000 ) ) ;
#177 = APPROVAL ( #258, 'NEURÈENÝ' ) ;
#178 = FACE_OUTER_BOUND ( 'NONE', #216, .T. ) ;
#179 = TOROIDAL_SURFACE ( 'NONE', #264, 5.500000000000000000, 0.5000000000000000000 ) ;
#180 = CARTESIAN_POINT ( 'NONE',  ( -2.750000000000000000, 0.000000000000000000, 0.000000000000000000 ) ) ;
#181 = LINE ( 'NONE', #29, #358 ) ;
#182 = CC_DESIGN_PERSON_AND_ORGANIZATION_ASSIGNMENT ( #303, #134, ( #138 ) ) ;
#183 = CIRCLE ( 'NONE', #296, 5.000000000000000000 ) ;
#184 = DIRECTION ( 'NONE',  ( 0.000000000000000000, 0.000000000000000000, 1.000000000000000000 ) ) ;
#185 = COORDINATED_UNIVERSAL_TIME_OFFSET ( 1, 0, .AHEAD. ) ;
#186 = ORIENTED_EDGE ( 'NONE', *, *, #121, .T. ) ;
#187 = AXIS2_PLACEMENT_3D ( 'NONE', #33, #207, #350 ) ;
#188 = FACE_BOUND ( 'NONE', #86, .T. ) ;
#189 = ORIENTED_EDGE ( 'NONE', *, *, #60, .F. ) ;
#190 = APPLICATION_PROTOCOL_DEFINITION ( 'international standard', 'config_control_design', 1994, #20 ) ;
#191 = VERTEX_POINT ( 'NONE', #204 ) ;
#192 = CARTESIAN_POINT ( 'NONE',  ( 8.000000000000000000, 9.797174393178825657E-16, 0.000000000000000000 ) ) ;
#193 = ORIENTED_EDGE ( 'NONE', *, *, #376, .F. ) ;
#194 = CC_DESIGN_PERSON_AND_ORGANIZATION_ASSIGNMENT ( #196, #143, ( #195 ) ) ;
#195 = PRODUCT_DEFINITION_FORMATION_WITH_SPECIFIED_SOURCE ( 'LIBOVOLNÝ', '', #138, .NOT_KNOWN. ) ;
#196 = PERSON_AND_ORGANIZATION ( #247, #367 ) ;
#197 = DIRECTION ( 'NONE',  ( -1.000000000000000000, 1.224646799147351482E-16, 0.000000000000000000 ) ) ;
#198 = FACE_OUTER_BOUND ( 'NONE', #42, .T. ) ;
#199 = APPROVAL_STATUS ( 'not_yet_approved' ) ;
#200 = CARTESIAN_POINT ( 'NONE',  ( 0.000000000000000000, 0.000000000000000000, 5.000000000000000000 ) ) ;
#201 = CIRCLE ( 'NONE', #109, 2.750000000000000000 ) ;
#202 = DIRECTION ( 'NONE',  ( -1.000000000000000000, 0.000000000000000000, 0.000000000000000000 ) ) ;
#203 = DIRECTION ( 'NONE',  ( 0.000000000000000000, 0.000000000000000000, 1.000000000000000000 ) ) ;
#204 = CARTESIAN_POINT ( 'NONE',  ( -2.750000000000000000, 0.000000000000000000, 180.0000000000000000 ) ) ;
#205 = EDGE_CURVE ( 'NONE', #334, #250, #133, .T. ) ;
#206 = AXIS2_PLACEMENT_3D ( 'NONE', #122, #347, #348 ) ;
#207 = DIRECTION ( 'NONE',  ( 0.000000000000000000, 0.000000000000000000, -1.000000000000000000 ) ) ;
#208 = CARTESIAN_POINT ( 'NONE',  ( 0.000000000000000000, 0.000000000000000000, 5.000000000000000000 ) ) ;
#209 = CYLINDRICAL_SURFACE ( 'NONE', #18, 5.000000000000000000 ) ;
#210 = DIRECTION ( 'NONE',  ( 0.000000000000000000, 0.000000000000000000, -1.000000000000000000 ) ) ;
#211 = ORIENTED_EDGE ( 'NONE', *, *, #205, .T. ) ;
#212 = EDGE_CURVE ( 'NONE', #359, #326, #368, .T. ) ;
#213 = CARTESIAN_POINT ( 'NONE',  ( 0.000000000000000000, 0.000000000000000000, 180.0000000000000000 ) ) ;
#214 = ORIENTED_EDGE ( 'NONE', *, *, #314, .T. ) ;
#215 = AXIS2_PLACEMENT_3D ( 'NONE', #352, #242, #74 ) ;
#216 = EDGE_LOOP ( 'NONE', ( #186, #219 ) ) ;
#217 = COORDINATED_UNIVERSAL_TIME_OFFSET ( 1, 0, .AHEAD. ) ;
#218 = EDGE_CURVE ( 'NONE', #77, #102, #183, .T. ) ;
#219 = ORIENTED_EDGE ( 'NONE', *, *, #155, .T. ) ;
#220 = DATE_AND_TIME ( #255, #321 ) ;
#221 = ORIENTED_EDGE ( 'NONE', *, *, #346, .F. ) ;
#222 = AXIS2_PLACEMENT_3D ( 'NONE', #381, #236, #156 ) ;
#223 = PERSON_AND_ORGANIZATION ( #247, #367 ) ;
#224 = ORIENTED_EDGE ( 'NONE', *, *, #121, .F. ) ;
#225 = CARTESIAN_POINT ( 'NONE',  ( 5.500000000000000000, 0.000000000000000000, 5.500000000000005329 ) ) ;
#226 = ADVANCED_FACE ( 'NONE', ( #28, #178 ), #118, .T. ) ;
#227 = LINE ( 'NONE', #287, #7 ) ;
#228 = DIRECTION ( 'NONE',  ( -1.000000000000000000, 0.000000000000000000, 0.000000000000000000 ) ) ;
#229 = CARTESIAN_POINT ( 'NONE',  ( 5.000000000000000000, 6.123233995736766282E-16, 180.0000000000000000 ) ) ;
#230 = CARTESIAN_POINT ( 'NONE',  ( 0.000000000000000000, 0.000000000000000000, 5.000000000000000000 ) ) ;
#231 = APPROVAL_PERSON_ORGANIZATION ( #223, #22, #57 ) ;
#232 = CARTESIAN_POINT ( 'NONE',  ( -2.750000000000000000, 0.000000000000000000, 180.0000000000000000 ) ) ;
#233 = DIRECTION ( 'NONE',  ( 1.000000000000000000, 0.000000000000000000, 0.000000000000000000 ) ) ;
#234 = TOROIDAL_SURFACE ( 'NONE', #289, 5.500000000000000000, 0.5000000000000000000 ) ;
#235 = CARTESIAN_POINT ( 'NONE',  ( -8.000000000000000000, 0.000000000000000000, 0.000000000000000000 ) ) ;
#236 = DIRECTION ( 'NONE',  ( 0.000000000000000000, 0.000000000000000000, 1.000000000000000000 ) ) ;
#237 = AXIS2_PLACEMENT_3D ( 'NONE', #295, #125, #148 ) ;
#238 = FACE_BOUND ( 'NONE', #127, .T. ) ;
#239 = EDGE_CURVE ( 'NONE', #364, #100, #12, .T. ) ;
#240 = ORIENTED_EDGE ( 'NONE', *, *, #27, .F. ) ;
#241 = ORIENTED_EDGE ( 'NONE', *, *, #205, .F. ) ;
#242 = DIRECTION ( 'NONE',  ( 0.000000000000000000, 0.000000000000000000, 1.000000000000000000 ) ) ;
#243 = ORIENTED_EDGE ( 'NONE', *, *, #139, .T. ) ;
#244 = LOCAL_TIME ( 17, 5, 25.00000000000000000, #217 ) ;
#245 = PRODUCT_RELATED_PRODUCT_CATEGORY ( 'detail', '', ( #138 ) ) ;
#246 = PERSON_AND_ORGANIZATION_ROLE ( 'creator' ) ;
#247 = PERSON ( 'NEURÈENÝ', 'NEURÈENÝ', 'NEURÈENÝ', ('NEURÈENÝ'), ('NEURÈENÝ'), ('NEURÈENÝ') ) ;
#248 = ORIENTED_EDGE ( 'NONE', *, *, #335, .F. ) ;
#249 = COORDINATED_UNIVERSAL_TIME_OFFSET ( 1, 0, .AHEAD. ) ;
#250 = VERTEX_POINT ( 'NONE', #235 ) ;
#251 = CIRCLE ( 'NONE', #49, 2.750000000000000000 ) ;
#252 = LINE ( 'NONE', #145, #95 ) ;
#253 = CC_DESIGN_APPROVAL ( #177, ( #195 ) ) ;
#254 = DIRECTION ( 'NONE',  ( -0.000000000000000000, -0.000000000000000000, -1.000000000000000000 ) ) ;
#255 = CALENDAR_DATE ( 2022, 8, 7 ) ;
#256 = DIRECTION ( 'NONE',  ( 1.000000000000000000, 0.000000000000000000, 0.000000000000000000 ) ) ;
#257 = AXIS2_PLACEMENT_3D ( 'NONE', #225, #52, #144 ) ;
#258 = APPROVAL_STATUS ( 'not_yet_approved' ) ;
#259 = FACE_OUTER_BOUND ( 'NONE', #158, .T. ) ;
#260 = EDGE_CURVE ( 'NONE', #3, #106, #328, .T. ) ;
#261 = CIRCLE ( 'NONE', #56, 0.5000000000000004441 ) ;
#262 = DIRECTION ( 'NONE',  ( 1.000000000000000000, 0.000000000000000000, 0.000000000000000000 ) ) ;
#263 = CARTESIAN_POINT ( 'NONE',  ( 0.000000000000000000, 0.000000000000000000, 0.000000000000000000 ) ) ;
#264 = AXIS2_PLACEMENT_3D ( 'NONE', #58, #338, #313 ) ;
#265 = DIRECTION ( 'NONE',  ( 0.000000000000000000, 0.000000000000000000, -1.000000000000000000 ) ) ;
#266 = AXIS2_PLACEMENT_3D ( 'NONE', #327, #9, #72 ) ;
#267 = CIRCLE ( 'NONE', #222, 5.000000000000000000 ) ;
#268 = DIRECTION ( 'NONE',  ( -0.000000000000000000, -0.000000000000000000, -1.000000000000000000 ) ) ;
#269 = PRODUCT_DEFINITION ( 'NEZNÁMÝ', '', #195, #38 ) ;
#270 = DIRECTION ( 'NONE',  ( 1.000000000000000000, 0.000000000000000000, 0.000000000000000000 ) ) ;
#271 = DIRECTION ( 'NONE',  ( 1.000000000000000000, 0.000000000000000000, 0.000000000000000000 ) ) ;
#272 = ADVANCED_FACE ( 'NONE', ( #65 ), #379, .F. ) ;
#273 = CARTESIAN_POINT ( 'NONE',  ( 0.000000000000000000, 0.000000000000000000, 0.000000000000000000 ) ) ;
#274 = CIRCLE ( 'NONE', #378, 2.750000000000000000 ) ;
#275 = ORIENTED_EDGE ( 'NONE', *, *, #239, .F. ) ;
#276 =( NAMED_UNIT ( * ) PLANE_ANGLE_UNIT ( ) SI_UNIT ( $, .RADIAN. ) );
#277 = ORIENTED_EDGE ( 'NONE', *, *, #260, .T. ) ;
#278 = DIRECTION ( 'NONE',  ( 0.000000000000000000, 0.000000000000000000, 1.000000000000000000 ) ) ;
#279 = EDGE_LOOP ( 'NONE', ( #240, #224, #43, #315 ) ) ;
#280 = MECHANICAL_CONTEXT ( 'NONE', #20, 'mechanical' ) ;
#281 = EDGE_LOOP ( 'NONE', ( #193, #302 ) ) ;
#282 = ORIENTED_EDGE ( 'NONE', *, *, #376, .T. ) ;
#283 = ADVANCED_FACE ( 'NONE', ( #96 ), #209, .T. ) ;
#284 = EDGE_LOOP ( 'NONE', ( #332, #243, #173, #361 ) ) ;
#285 = AXIS2_PLACEMENT_3D ( 'NONE', #89, #377, #123 ) ;
#286 = PERSON_AND_ORGANIZATION ( #247, #367 ) ;
#287 = CARTESIAN_POINT ( 'NONE',  ( 5.000000000000000000, 6.123233995736766282E-16, 180.0000000000000000 ) ) ;
#288 = EDGE_CURVE ( 'NONE', #304, #359, #181, .T. ) ;
#289 = AXIS2_PLACEMENT_3D ( 'NONE', #168, #203, #308 ) ;
#290 = CARTESIAN_POINT ( 'NONE',  ( 0.000000000000000000, 0.000000000000000000, 180.0000000000000000 ) ) ;
#291 = CARTESIAN_POINT ( 'NONE',  ( -5.000000000000000000, 0.000000000000000000, 180.0000000000000000 ) ) ;
#292 = CARTESIAN_POINT ( 'NONE',  ( 0.000000000000000000, 0.000000000000000000, 180.0000000000000000 ) ) ;
#293 = CYLINDRICAL_SURFACE ( 'NONE', #336, 2.750000000000000000 ) ;
#294 = LOCAL_TIME ( 17, 5, 25.00000000000000000, #369 ) ;
#295 = CARTESIAN_POINT ( 'NONE',  ( 0.000000000000000000, 0.000000000000000000, 0.000000000000000000 ) ) ;
#296 = AXIS2_PLACEMENT_3D ( 'NONE', #67, #184, #271 ) ;
#297 = FACE_OUTER_BOUND ( 'NONE', #301, .T. ) ;
#298 = FACE_OUTER_BOUND ( 'NONE', #160, .T. ) ;
#299 = ORIENTED_EDGE ( 'NONE', *, *, #139, .F. ) ;
#300 = CARTESIAN_POINT ( 'NONE',  ( -8.000000000000000000, 0.000000000000000000, 5.000000000000000000 ) ) ;
#301 = EDGE_LOOP ( 'NONE', ( #73, #11, #135, #47 ) ) ;
#302 = ORIENTED_EDGE ( 'NONE', *, *, #124, .F. ) ;
#303 = PERSON_AND_ORGANIZATION ( #247, #367 ) ;
#304 = VERTEX_POINT ( 'NONE', #119 ) ;
#305 = AXIS2_PLACEMENT_3D ( 'NONE', #1, #151, #270 ) ;
#306 = DIRECTION ( 'NONE',  ( -0.000000000000000000, -0.000000000000000000, -1.000000000000000000 ) ) ;
#307 = EDGE_CURVE ( 'NONE', #191, #326, #154, .T. ) ;
#308 = DIRECTION ( 'NONE',  ( 1.000000000000000000, 0.000000000000000000, 0.000000000000000000 ) ) ;
#309 = CIRCLE ( 'NONE', #64, 8.000000000000000000 ) ;
#310 = PERSON_AND_ORGANIZATION_ROLE ( 'classification_officer' ) ;
#311 = CARTESIAN_POINT ( 'NONE',  ( 0.000000000000000000, 0.000000000000000000, 180.0000000000000000 ) ) ;
#312 = AXIS2_PLACEMENT_3D ( 'NONE', #208, #63, #94 ) ;
#313 = DIRECTION ( 'NONE',  ( 1.000000000000000000, 0.000000000000000000, 0.000000000000000000 ) ) ;
#314 = EDGE_CURVE ( 'NONE', #106, #3, #103, .T. ) ;
#315 = ORIENTED_EDGE ( 'NONE', *, *, #172, .T. ) ;
#316 = VECTOR ( 'NONE', #55, 1000.000000000000000 ) ;
#317 = DIRECTION ( 'NONE',  ( -1.000000000000000000, 0.000000000000000000, 0.000000000000000000 ) ) ;
#318 = CARTESIAN_POINT ( 'NONE',  ( 0.000000000000000000, 0.000000000000000000, 180.0000000000000000 ) ) ;
#319 = DIRECTION ( 'NONE',  ( -0.000000000000000000, -0.000000000000000000, -1.000000000000000000 ) ) ;
#320 = DIRECTION ( 'NONE',  ( 0.000000000000000000, 0.000000000000000000, 1.000000000000000000 ) ) ;
#321 = LOCAL_TIME ( 17, 5, 25.00000000000000000, #249 ) ;
#322 = CYLINDRICAL_SURFACE ( 'NONE', #312, 8.000000000000000000 ) ;
#323 = ADVANCED_FACE ( 'NONE', ( #92 ), #322, .T. ) ;
#324 = UNCERTAINTY_MEASURE_WITH_UNIT (LENGTH_MEASURE( 1.000000000000000082E-05 ), #360, 'distance_accuracy_value', 'NONE');
#325 = PERSON_AND_ORGANIZATION ( #247, #367 ) ;
#326 = VERTEX_POINT ( 'NONE', #180 ) ;
#327 = CARTESIAN_POINT ( 'NONE',  ( 0.000000000000000000, 0.000000000000000000, 0.000000000000000000 ) ) ;
#328 = CIRCLE ( 'NONE', #146, 5.500000000000000000 ) ;
#329 = ORIENTED_EDGE ( 'NONE', *, *, #239, .T. ) ;
#330 = DIRECTION ( 'NONE',  ( 1.000000000000000000, 0.000000000000000000, 0.000000000000000000 ) ) ;
#331 = PLANE ( 'NONE',  #215 ) ;
#332 = ORIENTED_EDGE ( 'NONE', *, *, #172, .F. ) ;
#333 = PERSON_AND_ORGANIZATION ( #247, #367 ) ;
#334 = VERTEX_POINT ( 'NONE', #192 ) ;
#335 = EDGE_CURVE ( 'NONE', #326, #359, #274, .T. ) ;
#336 = AXIS2_PLACEMENT_3D ( 'NONE', #34, #176, #317 ) ;
#337 = SHAPE_DEFINITION_REPRESENTATION ( #87, #25 ) ;
#338 = DIRECTION ( 'NONE',  ( 0.000000000000000000, 0.000000000000000000, 1.000000000000000000 ) ) ;
#339 = SECURITY_CLASSIFICATION_LEVEL ( 'unclassified' ) ;
#340 = DIRECTION ( 'NONE',  ( 0.000000000000000000, 0.000000000000000000, 1.000000000000000000 ) ) ;
#341 = APPROVAL_DATE_TIME ( #220, #22 ) ;
#342 = CARTESIAN_POINT ( 'NONE',  ( 0.000000000000000000, 0.000000000000000000, 180.0000000000000000 ) ) ;
#343 = CARTESIAN_POINT ( 'NONE',  ( 8.000000000000000000, 9.797174393178825657E-16, 5.000000000000000000 ) ) ;
#344 = DIRECTION ( 'NONE',  ( 1.224646799147353207E-16, 1.000000000000000000, -0.000000000000000000 ) ) ;
#345 = DIRECTION ( 'NONE',  ( -0.000000000000000000, -0.000000000000000000, -1.000000000000000000 ) ) ;
#346 = EDGE_CURVE ( 'NONE', #100, #334, #48, .T. ) ;
#347 = DIRECTION ( 'NONE',  ( -0.000000000000000000, -0.000000000000000000, -1.000000000000000000 ) ) ;
#348 = DIRECTION ( 'NONE',  ( 1.000000000000000000, 0.000000000000000000, 0.000000000000000000 ) ) ;
#349 = ADVANCED_FACE ( 'NONE', ( #188, #351 ), #2, .F. ) ;
#350 = DIRECTION ( 'NONE',  ( -1.000000000000000000, 0.000000000000000000, 0.000000000000000000 ) ) ;
#351 = FACE_OUTER_BOUND ( 'NONE', #373, .T. ) ;
#352 = CARTESIAN_POINT ( 'NONE',  ( 0.000000000000000000, 0.000000000000000000, 5.000000000000000000 ) ) ;
#353 = ORIENTED_EDGE ( 'NONE', *, *, #346, .T. ) ;
#354 = DATE_AND_TIME ( #76, #244 ) ;
#355 = ORIENTED_EDGE ( 'NONE', *, *, #150, .T. ) ;
#356 = CC_DESIGN_PERSON_AND_ORGANIZATION_ASSIGNMENT ( #136, #246, ( #269 ) ) ;
#357 = CARTESIAN_POINT ( 'NONE',  ( 2.750000000000000000, 3.367778697655220519E-16, 0.000000000000000000 ) ) ;
#358 = VECTOR ( 'NONE', #265, 1000.000000000000000 ) ;
#359 = VERTEX_POINT ( 'NONE', #357 ) ;
#360 =( LENGTH_UNIT ( ) NAMED_UNIT ( * ) SI_UNIT ( .MILLI., .METRE. ) );
#361 = ORIENTED_EDGE ( 'NONE', *, *, #40, .F. ) ;
#362 = CLOSED_SHELL ( 'NONE', ( #272, #13, #114, #98, #323, #380, #349, #283, #226, #111, #161 ) ) ;
#363 = CC_DESIGN_PERSON_AND_ORGANIZATION_ASSIGNMENT ( #286, #310, ( #85 ) ) ;
#364 = VERTEX_POINT ( 'NONE', #300 ) ;
#365 = COORDINATED_UNIVERSAL_TIME_OFFSET ( 1, 0, .AHEAD. ) ;
#366 = CARTESIAN_POINT ( 'NONE',  ( 0.000000000000000000, 0.000000000000000000, 5.000000000000000000 ) ) ;
#367 = ORGANIZATION ( 'NEURÈENÝ', 'NEURÈENÝ', '' ) ;
#368 = CIRCLE ( 'NONE', #153, 2.750000000000000000 ) ;
#369 = COORDINATED_UNIVERSAL_TIME_OFFSET ( 1, 0, .AHEAD. ) ;
#370 = FACE_OUTER_BOUND ( 'NONE', #284, .T. ) ;
#371 = PERSON_AND_ORGANIZATION_ROLE ( 'creator' ) ;
#372 = CYLINDRICAL_SURFACE ( 'NONE', #75, 8.000000000000000000 ) ;
#373 = EDGE_LOOP ( 'NONE', ( #37, #241 ) ) ;
#374 = CARTESIAN_POINT ( 'NONE',  ( -5.500000000000000000, 6.735557395310442023E-16, 5.500000000000005329 ) ) ;
#375 = DIRECTION ( 'NONE',  ( 0.000000000000000000, 0.000000000000000000, 1.000000000000000000 ) ) ;
#376 = EDGE_CURVE ( 'NONE', #191, #304, #201, .T. ) ;
#377 = DIRECTION ( 'NONE',  ( 0.000000000000000000, 0.000000000000000000, 1.000000000000000000 ) ) ;
#378 = AXIS2_PLACEMENT_3D ( 'NONE', #273, #130, #330 ) ;
#379 = CYLINDRICAL_SURFACE ( 'NONE', #187, 2.750000000000000000 ) ;
#380 = ADVANCED_FACE ( 'NONE', ( #238, #298 ), #331, .T. ) ;
#381 = CARTESIAN_POINT ( 'NONE',  ( 0.000000000000000000, 0.000000000000000000, 5.500000000000005329 ) ) ;
ENDSEC;
END-ISO-10303-21;
