ISO-10303-21;
HEADER;
FILE_DESCRIPTION (( 'STEP AP203' ),
    '1' );
FILE_NAME ('5e1f.STEP',
    '2022-07-08T14:20:16',
    ( '' ),
    ( '' ),
    'SwSTEP 2.0',
    'SolidWorks 2019',
    '' );
FILE_SCHEMA (( 'CONFIG_CONTROL_DESIGN' ));
ENDSEC;

DATA;
#1 = ORIENTED_EDGE ( 'NONE', *, *, #84, .F. ) ;
#2 = CARTESIAN_POINT ( 'NONE',  ( 8.000000000000000000, 9.797174393178825657E-16, 157.0000000000000000 ) ) ;
#3 = AXIS2_PLACEMENT_3D ( 'NONE', #373, #79, #169 ) ;
#4 = SECURITY_CLASSIFICATION_LEVEL ( 'unclassified' ) ;
#5 = FACE_BOUND ( 'NONE', #376, .T. ) ;
#6 = ORIENTED_EDGE ( 'NONE', *, *, #255, .F. ) ;
#7 = MECHANICAL_CONTEXT ( 'NONE', #333, 'mechanical' ) ;
#8 = DESIGN_CONTEXT ( 'detailed design', #208, 'design' ) ;
#9 = AXIS2_PLACEMENT_3D ( 'NONE', #344, #262, #83 ) ;
#10 = EDGE_LOOP ( 'NONE', ( #236, #181 ) ) ;
#11 = PERSON_AND_ORGANIZATION ( #149, #36 ) ;
#12 = CARTESIAN_POINT ( 'NONE',  ( 0.000000000000000000, 0.000000000000000000, 157.0000000000000000 ) ) ;
#13 = CALENDAR_DATE ( 2022, 8, 7 ) ;
#14 = CARTESIAN_POINT ( 'NONE',  ( 6.000000000000000888, 7.347880794884120722E-16, 157.0000000000000000 ) ) ;
#15 = ORIENTED_EDGE ( 'NONE', *, *, #255, .T. ) ;
#16 = AXIS2_PLACEMENT_3D ( 'NONE', #263, #378, #352 ) ;
#17 = PLANE ( 'NONE',  #143 ) ;
#18 = PERSON_AND_ORGANIZATION ( #149, #36 ) ;
#19 = DIRECTION ( 'NONE',  ( 0.000000000000000000, 0.000000000000000000, -1.000000000000000000 ) ) ;
#20 = EDGE_CURVE ( 'NONE', #350, #247, #234, .T. ) ;
#21 = CARTESIAN_POINT ( 'NONE',  ( 0.000000000000000000, 0.000000000000000000, 0.000000000000000000 ) ) ;
#22 = ORIENTED_EDGE ( 'NONE', *, *, #38, .F. ) ;
#23 = CARTESIAN_POINT ( 'NONE',  ( 0.000000000000000000, 0.000000000000000000, 0.000000000000000000 ) ) ;
#24 = DIRECTION ( 'NONE',  ( 0.000000000000000000, 0.000000000000000000, -1.000000000000000000 ) ) ;
#25 = CIRCLE ( 'NONE', #265, 11.00000000000000000 ) ;
#26 = DIRECTION ( 'NONE',  ( 1.000000000000000000, 0.000000000000000000, 0.000000000000000000 ) ) ;
#27 = CARTESIAN_POINT ( 'NONE',  ( 6.000000000000000888, 7.347880794884120722E-16, 157.0000000000000000 ) ) ;
#28 = AXIS2_PLACEMENT_3D ( 'NONE', #287, #92, #349 ) ;
#29 = VERTEX_POINT ( 'NONE', #328 ) ;
#30 = DIRECTION ( 'NONE',  ( -0.000000000000000000, -0.000000000000000000, -1.000000000000000000 ) ) ;
#31 = EDGE_CURVE ( 'NONE', #350, #321, #358, .T. ) ;
#32 = DIRECTION ( 'NONE',  ( 1.000000000000000000, 0.000000000000000000, 0.000000000000000000 ) ) ;
#33 = DIRECTION ( 'NONE',  ( 0.000000000000000000, 0.000000000000000000, -1.000000000000000000 ) ) ;
#34 = CC_DESIGN_DATE_AND_TIME_ASSIGNMENT ( #140, #107, ( #126 ) ) ;
#35 = DIRECTION ( 'NONE',  ( 1.000000000000000000, 0.000000000000000000, 0.000000000000000000 ) ) ;
#36 = ORGANIZATION ( 'NEURÈENÝ', 'NEURÈENÝ', '' ) ;
#37 = PERSON_AND_ORGANIZATION_ROLE ( 'design_owner' ) ;
#38 = EDGE_CURVE ( 'NONE', #277, #219, #188, .T. ) ;
#39 = DIRECTION ( 'NONE',  ( 0.000000000000000000, 0.000000000000000000, 1.000000000000000000 ) ) ;
#40 = AXIS2_PLACEMENT_3D ( 'NONE', #357, #325, #365 ) ;
#41 = EDGE_LOOP ( 'NONE', ( #260, #96, #257, #141 ) ) ;
#42 = COORDINATED_UNIVERSAL_TIME_OFFSET ( 1, 0, .AHEAD. ) ;
#43 = UNCERTAINTY_MEASURE_WITH_UNIT (LENGTH_MEASURE( 1.000000000000000082E-05 ), #101, 'distance_accuracy_value', 'NONE');
#44 = CC_DESIGN_APPROVAL ( #345, ( #54 ) ) ;
#45 = ORIENTED_EDGE ( 'NONE', *, *, #270, .T. ) ;
#46 = CARTESIAN_POINT ( 'NONE',  ( 0.000000000000000000, 0.000000000000000000, 7.700000000000012612 ) ) ;
#47 = VECTOR ( 'NONE', #330, 1000.000000000000000 ) ;
#48 = LINE ( 'NONE', #14, #229 ) ;
#49 = APPROVAL ( #100, 'NEURÈENÝ' ) ;
#50 = ORIENTED_EDGE ( 'NONE', *, *, #165, .F. ) ;
#51 = VECTOR ( 'NONE', #339, 1000.000000000000000 ) ;
#52 = AXIS2_PLACEMENT_3D ( 'NONE', #176, #147, #200 ) ;
#53 = DIRECTION ( 'NONE',  ( 0.000000000000000000, 0.000000000000000000, 1.000000000000000000 ) ) ;
#54 = PRODUCT_DEFINITION ( 'NEZNÁMÝ', '', #329, #8 ) ;
#55 = ORIENTED_EDGE ( 'NONE', *, *, #206, .T. ) ;
#56 = FACE_OUTER_BOUND ( 'NONE', #41, .T. ) ;
#57 = CIRCLE ( 'NONE', #211, 11.00000000000000000 ) ;
#58 = EDGE_CURVE ( 'NONE', #155, #177, #218, .T. ) ;
#59 = EDGE_LOOP ( 'NONE', ( #166, #366, #170, #289 ) ) ;
#60 = APPROVAL_DATE_TIME ( #214, #49 ) ;
#61 = ORIENTED_EDGE ( 'NONE', *, *, #139, .F. ) ;
#62 = PRODUCT_DEFINITION_SHAPE ( 'NONE', 'NONE',  #54 ) ;
#63 = PERSON_AND_ORGANIZATION_ROLE ( 'design_supplier' ) ;
#64 = DIRECTION ( 'NONE',  ( 1.000000000000000000, 0.000000000000000000, -0.000000000000000000 ) ) ;
#65 = APPROVAL_STATUS ( 'not_yet_approved' ) ;
#66 = DIRECTION ( 'NONE',  ( 1.000000000000000000, 0.000000000000000000, 0.000000000000000000 ) ) ;
#67 = AXIS2_PLACEMENT_3D ( 'NONE', #346, #267, #26 ) ;
#68 = MANIFOLD_SOLID_BREP ( 'Odebrat vysunutím3', #221 ) ;
#69 = FACE_OUTER_BOUND ( 'NONE', #314, .T. ) ;
#70 = EDGE_LOOP ( 'NONE', ( #272, #133, #292, #61 ) ) ;
#71 = CARTESIAN_POINT ( 'NONE',  ( 0.000000000000000000, 0.000000000000000000, 0.000000000000000000 ) ) ;
#72 = ORIENTED_EDGE ( 'NONE', *, *, #268, .T. ) ;
#73 = DIRECTION ( 'NONE',  ( 1.000000000000000000, 0.000000000000000000, -0.000000000000000000 ) ) ;
#74 = ORIENTED_EDGE ( 'NONE', *, *, #78, .F. ) ;
#75 = FACE_BOUND ( 'NONE', #317, .T. ) ;
#76 = AXIS2_PLACEMENT_3D ( 'NONE', #246, #39, #332 ) ;
#77 = CARTESIAN_POINT ( 'NONE',  ( 8.699999999999999289, 0.000000000000000000, 7.000000000000006217 ) ) ;
#78 = EDGE_CURVE ( 'NONE', #244, #277, #25, .T. ) ;
#79 = DIRECTION ( 'NONE',  ( -0.000000000000000000, -0.000000000000000000, -1.000000000000000000 ) ) ;
#80 = FACE_BOUND ( 'NONE', #210, .T. ) ;
#81 = VERTEX_POINT ( 'NONE', #243 ) ;
#82 = DIRECTION ( 'NONE',  ( -1.000000000000000000, 0.000000000000000000, 0.000000000000000000 ) ) ;
#83 = DIRECTION ( 'NONE',  ( 1.000000000000000000, 0.000000000000000000, 0.000000000000000000 ) ) ;
#84 = EDGE_CURVE ( 'NONE', #277, #244, #106, .T. ) ;
#85 = CIRCLE ( 'NONE', #300, 8.000000000000000000 ) ;
#86 = CC_DESIGN_APPROVAL ( #49, ( #329 ) ) ;
#87 = FACE_OUTER_BOUND ( 'NONE', #123, .T. ) ;
#88 = VERTEX_POINT ( 'NONE', #361 ) ;
#89 = VECTOR ( 'NONE', #215, 1000.000000000000000 ) ;
#90 = DIRECTION ( 'NONE',  ( -1.000000000000000000, 0.000000000000000000, 0.000000000000000000 ) ) ;
#91 = CARTESIAN_POINT ( 'NONE',  ( -6.000000000000000888, 0.000000000000000000, 157.0000000000000000 ) ) ;
#92 = DIRECTION ( 'NONE',  ( 0.000000000000000000, 0.000000000000000000, 1.000000000000000000 ) ) ;
#93 = ORIENTED_EDGE ( 'NONE', *, *, #266, .T. ) ;
#94 = DATE_TIME_ROLE ( 'creation_date' ) ;
#95 = LOCAL_TIME ( 16, 20, 16.00000000000000000, #142 ) ;
#96 = ORIENTED_EDGE ( 'NONE', *, *, #165, .T. ) ;
#97 = CALENDAR_DATE ( 2022, 8, 7 ) ;
#98 = CARTESIAN_POINT ( 'NONE',  ( -8.699999999999999289, 1.065442715258197248E-15, 7.700000000000012612 ) ) ;
#99 = CIRCLE ( 'NONE', #119, 0.6999999999999992895 ) ;
#100 = APPROVAL_STATUS ( 'not_yet_approved' ) ;
#101 =( LENGTH_UNIT ( ) NAMED_UNIT ( * ) SI_UNIT ( .MILLI., .METRE. ) );
#102 = DIRECTION ( 'NONE',  ( 0.000000000000000000, 0.000000000000000000, 1.000000000000000000 ) ) ;
#103 =( GEOMETRIC_REPRESENTATION_CONTEXT ( 3 ) GLOBAL_UNCERTAINTY_ASSIGNED_CONTEXT ( ( #43 ) ) GLOBAL_UNIT_ASSIGNED_CONTEXT ( ( #101, #359, #217 ) ) REPRESENTATION_CONTEXT ( 'NONE', 'WORKASPACE' ) );
#104 = ORIENTED_EDGE ( 'NONE', *, *, #193, .F. ) ;
#105 = CARTESIAN_POINT ( 'NONE',  ( 0.000000000000000000, 0.000000000000000000, 7.000000000000000000 ) ) ;
#106 = CIRCLE ( 'NONE', #40, 11.00000000000000000 ) ;
#107 = DATE_TIME_ROLE ( 'classification_date' ) ;
#108 = DIRECTION ( 'NONE',  ( -1.000000000000000000, 1.224646799147353207E-16, 0.000000000000000000 ) ) ;
#109 = CALENDAR_DATE ( 2022, 8, 7 ) ;
#110 = CIRCLE ( 'NONE', #199, 0.7000000000000000666 ) ;
#111 = PLANE ( 'NONE',  #179 ) ;
#112 = EDGE_CURVE ( 'NONE', #341, #238, #316, .T. ) ;
#113 = DATE_AND_TIME ( #13, #347 ) ;
#114 = ADVANCED_FACE ( 'NONE', ( #69 ), #311, .F. ) ;
#115 = CIRCLE ( 'NONE', #279, 11.00000000000000000 ) ;
#116 = EDGE_LOOP ( 'NONE', ( #192, #118 ) ) ;
#117 = CARTESIAN_POINT ( 'NONE',  ( 0.000000000000000000, 0.000000000000000000, 157.0000000000000000 ) ) ;
#118 = ORIENTED_EDGE ( 'NONE', *, *, #78, .T. ) ;
#119 = AXIS2_PLACEMENT_3D ( 'NONE', #98, #367, #108 ) ;
#120 = CYLINDRICAL_SURFACE ( 'NONE', #362, 8.000000000000000000 ) ;
#121 = APPROVAL_PERSON_ORGANIZATION ( #245, #345, #364 ) ;
#122 = CARTESIAN_POINT ( 'NONE',  ( -8.699999999999999289, 1.065442715258197248E-15, 7.000000000000006217 ) ) ;
#123 = EDGE_LOOP ( 'NONE', ( #74, #226, #363, #22 ) ) ;
#124 = PRODUCT_RELATED_PRODUCT_CATEGORY ( 'detail', '', ( #336 ) ) ;
#125 = ORIENTED_EDGE ( 'NONE', *, *, #38, .T. ) ;
#126 = SECURITY_CLASSIFICATION ( '', '', #4 ) ;
#127 = PERSON_AND_ORGANIZATION_ROLE ( 'creator' ) ;
#128 = AXIS2_PLACEMENT_3D ( 'NONE', #117, #53, #180 ) ;
#129 = PERSON_AND_ORGANIZATION ( #149, #36 ) ;
#130 = AXIS2_PLACEMENT_3D ( 'NONE', #12, #360, #301 ) ;
#131 = APPROVAL ( #368, 'NEURÈENÝ' ) ;
#132 = CARTESIAN_POINT ( 'NONE',  ( -8.000000000000000000, 0.000000000000000000, 157.0000000000000000 ) ) ;
#133 = ORIENTED_EDGE ( 'NONE', *, *, #58, .T. ) ;
#134 = CARTESIAN_POINT ( 'NONE',  ( 0.000000000000000000, 0.000000000000000000, 0.000000000000000000 ) ) ;
#135 = CARTESIAN_POINT ( 'NONE',  ( 0.000000000000000000, 0.000000000000000000, 157.0000000000000000 ) ) ;
#136 = CIRCLE ( 'NONE', #52, 8.000000000000000000 ) ;
#137 = ADVANCED_FACE ( 'NONE', ( #5, #162 ), #271, .F. ) ;
#138 = ORIENTED_EDGE ( 'NONE', *, *, #156, .T. ) ;
#139 = EDGE_CURVE ( 'NONE', #29, #158, #275, .T. ) ;
#140 = DATE_AND_TIME ( #109, #95 ) ;
#141 = ORIENTED_EDGE ( 'NONE', *, *, #206, .F. ) ;
#142 = COORDINATED_UNIVERSAL_TIME_OFFSET ( 1, 0, .AHEAD. ) ;
#143 = AXIS2_PLACEMENT_3D ( 'NONE', #371, #230, #73 ) ;
#144 = AXIS2_PLACEMENT_3D ( 'NONE', #23, #319, #154 ) ;
#145 = DIRECTION ( 'NONE',  ( 0.000000000000000000, 0.000000000000000000, -1.000000000000000000 ) ) ;
#146 = COORDINATED_UNIVERSAL_TIME_OFFSET ( 1, 0, .AHEAD. ) ;
#147 = DIRECTION ( 'NONE',  ( 0.000000000000000000, 0.000000000000000000, 1.000000000000000000 ) ) ;
#148 = ORIENTED_EDGE ( 'NONE', *, *, #20, .T. ) ;
#149 = PERSON ( 'NEURÈENÝ', 'NEURÈENÝ', 'NEURÈENÝ', ('NEURÈENÝ'), ('NEURÈENÝ'), ('NEURÈENÝ') ) ;
#150 = APPROVAL_PERSON_ORGANIZATION ( #212, #49, #161 ) ;
#151 = CYLINDRICAL_SURFACE ( 'NONE', #205, 8.000000000000000000 ) ;
#152 = CYLINDRICAL_SURFACE ( 'NONE', #16, 11.00000000000000000 ) ;
#153 = APPROVAL_PERSON_ORGANIZATION ( #18, #131, #171 ) ;
#154 = DIRECTION ( 'NONE',  ( 1.000000000000000000, 0.000000000000000000, 0.000000000000000000 ) ) ;
#155 = VERTEX_POINT ( 'NONE', #2 ) ;
#156 = EDGE_CURVE ( 'NONE', #321, #350, #288, .T. ) ;
#157 = DIRECTION ( 'NONE',  ( 1.000000000000000000, 0.000000000000000000, 0.000000000000000000 ) ) ;
#158 = VERTEX_POINT ( 'NONE', #248 ) ;
#159 = DIRECTION ( 'NONE',  ( -0.000000000000000000, -0.000000000000000000, -1.000000000000000000 ) ) ;
#160 = CIRCLE ( 'NONE', #28, 8.000000000000000000 ) ;
#161 = APPROVAL_ROLE ( '' ) ;
#162 = FACE_OUTER_BOUND ( 'NONE', #10, .T. ) ;
#163 = DIRECTION ( 'NONE',  ( -0.000000000000000000, -0.000000000000000000, -1.000000000000000000 ) ) ;
#164 = DIRECTION ( 'NONE',  ( 0.000000000000000000, 0.000000000000000000, 1.000000000000000000 ) ) ;
#165 = EDGE_CURVE ( 'NONE', #158, #341, #99, .T. ) ;
#166 = ORIENTED_EDGE ( 'NONE', *, *, #58, .F. ) ;
#167 = DATE_AND_TIME ( #222, #252 ) ;
#168 = DIRECTION ( 'NONE',  ( 0.000000000000000000, 0.000000000000000000, 1.000000000000000000 ) ) ;
#169 = DIRECTION ( 'NONE',  ( -1.000000000000000000, 0.000000000000000000, 0.000000000000000000 ) ) ;
#170 = ORIENTED_EDGE ( 'NONE', *, *, #139, .T. ) ;
#171 = APPROVAL_ROLE ( '' ) ;
#172 = CC_DESIGN_APPROVAL ( #131, ( #126 ) ) ;
#173 = VECTOR ( 'NONE', #163, 1000.000000000000000 ) ;
#174 = ADVANCED_BREP_SHAPE_REPRESENTATION ( '5e1f', ( #68, #284 ), #103 ) ;
#175 = SHAPE_DEFINITION_REPRESENTATION ( #62, #174 ) ;
#176 = CARTESIAN_POINT ( 'NONE',  ( 0.000000000000000000, 0.000000000000000000, 157.0000000000000000 ) ) ;
#177 = VERTEX_POINT ( 'NONE', #223 ) ;
#178 = CARTESIAN_POINT ( 'NONE',  ( 0.000000000000000000, 0.000000000000000000, 0.000000000000000000 ) ) ;
#179 = AXIS2_PLACEMENT_3D ( 'NONE', #195, #227, #340 ) ;
#180 = DIRECTION ( 'NONE',  ( 1.000000000000000000, 0.000000000000000000, 0.000000000000000000 ) ) ;
#181 = ORIENTED_EDGE ( 'NONE', *, *, #297, .F. ) ;
#182 = ADVANCED_FACE ( 'NONE', ( #334 ), #186, .F. ) ;
#183 = CARTESIAN_POINT ( 'NONE',  ( 0.000000000000000000, 0.000000000000000000, 157.0000000000000000 ) ) ;
#184 = ORIENTED_EDGE ( 'NONE', *, *, #156, .F. ) ;
#185 = CIRCLE ( 'NONE', #144, 6.000000000000000888 ) ;
#186 = CYLINDRICAL_SURFACE ( 'NONE', #370, 6.000000000000000888 ) ;
#187 = APPLICATION_PROTOCOL_DEFINITION ( 'international standard', 'config_control_design', 1994, #208 ) ;
#188 = LINE ( 'NONE', #302, #173 ) ;
#189 = AXIS2_PLACEMENT_3D ( 'NONE', #183, #264, #90 ) ;
#190 = PERSON_AND_ORGANIZATION_ROLE ( 'classification_officer' ) ;
#191 = CARTESIAN_POINT ( 'NONE',  ( 8.000000000000000000, 9.797174393178825657E-16, 157.0000000000000000 ) ) ;
#192 = ORIENTED_EDGE ( 'NONE', *, *, #84, .T. ) ;
#193 = EDGE_CURVE ( 'NONE', #244, #88, #307, .T. ) ;
#194 = DIRECTION ( 'NONE',  ( 0.000000000000000000, 0.000000000000000000, 1.000000000000000000 ) ) ;
#195 = CARTESIAN_POINT ( 'NONE',  ( 0.000000000000000000, 0.000000000000000000, 7.000000000000000000 ) ) ;
#196 = CIRCLE ( 'NONE', #67, 8.699999999999999289 ) ;
#197 = EDGE_CURVE ( 'NONE', #158, #177, #85, .T. ) ;
#198 = CARTESIAN_POINT ( 'NONE',  ( -6.000000000000000888, 0.000000000000000000, 0.000000000000000000 ) ) ;
#199 = AXIS2_PLACEMENT_3D ( 'NONE', #256, #282, #145 ) ;
#200 = DIRECTION ( 'NONE',  ( 1.000000000000000000, 0.000000000000000000, 0.000000000000000000 ) ) ;
#201 = ORIENTED_EDGE ( 'NONE', *, *, #20, .F. ) ;
#202 = ADVANCED_FACE ( 'NONE', ( #80, #369 ), #17, .T. ) ;
#203 = EDGE_LOOP ( 'NONE', ( #104, #1, #125, #93 ) ) ;
#204 = CYLINDRICAL_SURFACE ( 'NONE', #189, 6.000000000000000888 ) ;
#205 = AXIS2_PLACEMENT_3D ( 'NONE', #209, #375, #242 ) ;
#206 = EDGE_CURVE ( 'NONE', #177, #238, #110, .T. ) ;
#207 = ORIENTED_EDGE ( 'NONE', *, *, #351, .F. ) ;
#208 = APPLICATION_CONTEXT ( 'configuration controlled 3d designs of mechanical parts and assemblies' ) ;
#209 = CARTESIAN_POINT ( 'NONE',  ( 0.000000000000000000, 0.000000000000000000, 157.0000000000000000 ) ) ;
#210 = EDGE_LOOP ( 'NONE', ( #331, #184 ) ) ;
#211 = AXIS2_PLACEMENT_3D ( 'NONE', #178, #315, #293 ) ;
#212 = PERSON_AND_ORGANIZATION ( #149, #36 ) ;
#213 = VECTOR ( 'NONE', #24, 1000.000000000000000 ) ;
#214 = DATE_AND_TIME ( #97, #258 ) ;
#215 = DIRECTION ( 'NONE',  ( -0.000000000000000000, -0.000000000000000000, -1.000000000000000000 ) ) ;
#216 = ADVANCED_FACE ( 'NONE', ( #75, #276 ), #111, .T. ) ;
#217 =( NAMED_UNIT ( * ) SI_UNIT ( $, .STERADIAN. ) SOLID_ANGLE_UNIT ( ) );
#218 = LINE ( 'NONE', #191, #47 ) ;
#219 = VERTEX_POINT ( 'NONE', #280 ) ;
#220 = CC_DESIGN_PERSON_AND_ORGANIZATION_ASSIGNMENT ( #11, #127, ( #54 ) ) ;
#221 = CLOSED_SHELL ( 'NONE', ( #182, #291, #318, #338, #225, #216, #137, #380, #202, #114, #281 ) ) ;
#222 = CALENDAR_DATE ( 2022, 8, 7 ) ;
#223 = CARTESIAN_POINT ( 'NONE',  ( 8.000000000000000000, 9.797174393178825657E-16, 7.700000000000012612 ) ) ;
#224 = FACE_OUTER_BOUND ( 'NONE', #203, .T. ) ;
#225 = ADVANCED_FACE ( 'NONE', ( #224 ), #337, .T. ) ;
#226 = ORIENTED_EDGE ( 'NONE', *, *, #193, .T. ) ;
#227 = DIRECTION ( 'NONE',  ( 0.000000000000000000, 0.000000000000000000, 1.000000000000000000 ) ) ;
#228 = CARTESIAN_POINT ( 'NONE',  ( 11.00000000000000000, 1.347111479062088405E-15, 7.000000000000000000 ) ) ;
#229 = VECTOR ( 'NONE', #19, 1000.000000000000000 ) ;
#230 = DIRECTION ( 'NONE',  ( 0.000000000000000000, 0.000000000000000000, 1.000000000000000000 ) ) ;
#231 = ORIENTED_EDGE ( 'NONE', *, *, #306, .F. ) ;
#232 = FACE_OUTER_BOUND ( 'NONE', #312, .T. ) ;
#233 = CC_DESIGN_PERSON_AND_ORGANIZATION_ASSIGNMENT ( #324, #63, ( #329 ) ) ;
#234 = LINE ( 'NONE', #91, #213 ) ;
#235 = FACE_OUTER_BOUND ( 'NONE', #70, .T. ) ;
#236 = ORIENTED_EDGE ( 'NONE', *, *, #266, .F. ) ;
#237 = COORDINATED_UNIVERSAL_TIME_OFFSET ( 1, 0, .AHEAD. ) ;
#238 = VERTEX_POINT ( 'NONE', #77 ) ;
#239 = AXIS2_PLACEMENT_3D ( 'NONE', #105, #159, #241 ) ;
#240 = PERSON_AND_ORGANIZATION_ROLE ( 'creator' ) ;
#241 = DIRECTION ( 'NONE',  ( 1.000000000000000000, 0.000000000000000000, 0.000000000000000000 ) ) ;
#242 = DIRECTION ( 'NONE',  ( -1.000000000000000000, 0.000000000000000000, 0.000000000000000000 ) ) ;
#243 = CARTESIAN_POINT ( 'NONE',  ( 6.000000000000000888, 7.347880794884120722E-16, 0.000000000000000000 ) ) ;
#244 = VERTEX_POINT ( 'NONE', #228 ) ;
#245 = PERSON_AND_ORGANIZATION ( #149, #36 ) ;
#246 = CARTESIAN_POINT ( 'NONE',  ( 0.000000000000000000, 0.000000000000000000, 7.700000000000012612 ) ) ;
#247 = VERTEX_POINT ( 'NONE', #198 ) ;
#248 = CARTESIAN_POINT ( 'NONE',  ( -8.000000000000000000, 0.000000000000000000, 7.700000000000012612 ) ) ;
#249 = ORIENTED_EDGE ( 'NONE', *, *, #377, .F. ) ;
#250 = APPROVAL_DATE_TIME ( #113, #131 ) ;
#251 = CARTESIAN_POINT ( 'NONE',  ( 11.00000000000000000, 1.347111479062088405E-15, 7.000000000000000000 ) ) ;
#252 = LOCAL_TIME ( 16, 20, 16.00000000000000000, #42 ) ;
#253 = DIRECTION ( 'NONE',  ( 0.000000000000000000, 0.000000000000000000, 1.000000000000000000 ) ) ;
#254 = DIRECTION ( 'NONE',  ( 0.000000000000000000, 0.000000000000000000, 1.000000000000000000 ) ) ;
#255 = EDGE_CURVE ( 'NONE', #321, #81, #48, .T. ) ;
#256 = CARTESIAN_POINT ( 'NONE',  ( 8.699999999999999289, 0.000000000000000000, 7.700000000000012612 ) ) ;
#257 = ORIENTED_EDGE ( 'NONE', *, *, #270, .F. ) ;
#258 = LOCAL_TIME ( 16, 20, 16.00000000000000000, #323 ) ;
#259 = AXIS2_PLACEMENT_3D ( 'NONE', #135, #102, #66 ) ;
#260 = ORIENTED_EDGE ( 'NONE', *, *, #197, .F. ) ;
#261 = CC_DESIGN_PERSON_AND_ORGANIZATION_ASSIGNMENT ( #129, #190, ( #126 ) ) ;
#262 = DIRECTION ( 'NONE',  ( 0.000000000000000000, 0.000000000000000000, 1.000000000000000000 ) ) ;
#263 = CARTESIAN_POINT ( 'NONE',  ( 0.000000000000000000, 0.000000000000000000, 7.000000000000000000 ) ) ;
#264 = DIRECTION ( 'NONE',  ( 0.000000000000000000, 0.000000000000000000, -1.000000000000000000 ) ) ;
#265 = AXIS2_PLACEMENT_3D ( 'NONE', #299, #168, #35 ) ;
#266 = EDGE_CURVE ( 'NONE', #219, #88, #115, .T. ) ;
#267 = DIRECTION ( 'NONE',  ( -0.000000000000000000, -0.000000000000000000, -1.000000000000000000 ) ) ;
#268 = EDGE_CURVE ( 'NONE', #155, #29, #136, .T. ) ;
#269 = PERSON_AND_ORGANIZATION ( #149, #36 ) ;
#270 = EDGE_CURVE ( 'NONE', #238, #341, #196, .T. ) ;
#271 = PLANE ( 'NONE',  #372 ) ;
#272 = ORIENTED_EDGE ( 'NONE', *, *, #268, .F. ) ;
#273 = AXIS2_PLACEMENT_3D ( 'NONE', #342, #30, #157 ) ;
#274 = APPROVAL_DATE_TIME ( #167, #345 ) ;
#275 = LINE ( 'NONE', #132, #89 ) ;
#276 = FACE_OUTER_BOUND ( 'NONE', #116, .T. ) ;
#277 = VERTEX_POINT ( 'NONE', #313 ) ;
#278 = DIRECTION ( 'NONE',  ( 1.000000000000000000, 0.000000000000000000, 0.000000000000000000 ) ) ;
#279 = AXIS2_PLACEMENT_3D ( 'NONE', #21, #254, #310 ) ;
#280 = CARTESIAN_POINT ( 'NONE',  ( -11.00000000000000000, 0.000000000000000000, 0.000000000000000000 ) ) ;
#281 = ADVANCED_FACE ( 'NONE', ( #232 ), #204, .F. ) ;
#282 = DIRECTION ( 'NONE',  ( 0.000000000000000000, -1.000000000000000000, 0.000000000000000000 ) ) ;
#283 = DIRECTION ( 'NONE',  ( -0.000000000000000000, -0.000000000000000000, -1.000000000000000000 ) ) ;
#284 = AXIS2_PLACEMENT_3D ( 'NONE', #134, #164, #32 ) ;
#285 = ORIENTED_EDGE ( 'NONE', *, *, #306, .T. ) ;
#286 = TOROIDAL_SURFACE ( 'NONE', #9, 8.699999999999999289, 0.6999999999999999556 ) ;
#287 = CARTESIAN_POINT ( 'NONE',  ( 0.000000000000000000, 0.000000000000000000, 7.700000000000012612 ) ) ;
#288 = CIRCLE ( 'NONE', #130, 6.000000000000000888 ) ;
#289 = ORIENTED_EDGE ( 'NONE', *, *, #197, .T. ) ;
#290 = CARTESIAN_POINT ( 'NONE',  ( 0.000000000000000000, 0.000000000000000000, 157.0000000000000000 ) ) ;
#291 = ADVANCED_FACE ( 'NONE', ( #56 ), #286, .F. ) ;
#292 = ORIENTED_EDGE ( 'NONE', *, *, #351, .T. ) ;
#293 = DIRECTION ( 'NONE',  ( 1.000000000000000000, 0.000000000000000000, 0.000000000000000000 ) ) ;
#294 = EDGE_LOOP ( 'NONE', ( #379, #15, #285, #201 ) ) ;
#295 = PERSON_AND_ORGANIZATION ( #149, #36 ) ;
#296 = CARTESIAN_POINT ( 'NONE',  ( 0.000000000000000000, 0.000000000000000000, 157.0000000000000000 ) ) ;
#297 = EDGE_CURVE ( 'NONE', #88, #219, #57, .T. ) ;
#298 = CALENDAR_DATE ( 2022, 8, 7 ) ;
#299 = CARTESIAN_POINT ( 'NONE',  ( 0.000000000000000000, 0.000000000000000000, 7.000000000000000000 ) ) ;
#300 = AXIS2_PLACEMENT_3D ( 'NONE', #46, #253, #278 ) ;
#301 = DIRECTION ( 'NONE',  ( 1.000000000000000000, 0.000000000000000000, 0.000000000000000000 ) ) ;
#302 = CARTESIAN_POINT ( 'NONE',  ( -11.00000000000000000, 0.000000000000000000, 7.000000000000000000 ) ) ;
#303 = CIRCLE ( 'NONE', #128, 8.000000000000000000 ) ;
#304 = ORIENTED_EDGE ( 'NONE', *, *, #377, .T. ) ;
#305 = DIRECTION ( 'NONE',  ( -1.000000000000000000, 0.000000000000000000, 0.000000000000000000 ) ) ;
#306 = EDGE_CURVE ( 'NONE', #81, #247, #322, .T. ) ;
#307 = LINE ( 'NONE', #251, #51 ) ;
#308 = CC_DESIGN_DATE_AND_TIME_ASSIGNMENT ( #353, #94, ( #54 ) ) ;
#309 = LOCAL_TIME ( 16, 20, 16.00000000000000000, #237 ) ;
#310 = DIRECTION ( 'NONE',  ( 1.000000000000000000, 0.000000000000000000, 0.000000000000000000 ) ) ;
#311 = TOROIDAL_SURFACE ( 'NONE', #76, 8.699999999999999289, 0.6999999999999999556 ) ;
#312 = EDGE_LOOP ( 'NONE', ( #6, #138, #148, #304 ) ) ;
#313 = CARTESIAN_POINT ( 'NONE',  ( -11.00000000000000000, 0.000000000000000000, 7.000000000000000000 ) ) ;
#314 = EDGE_LOOP ( 'NONE', ( #50, #207, #55, #374 ) ) ;
#315 = DIRECTION ( 'NONE',  ( 0.000000000000000000, 0.000000000000000000, 1.000000000000000000 ) ) ;
#316 = CIRCLE ( 'NONE', #239, 8.699999999999999289 ) ;
#317 = EDGE_LOOP ( 'NONE', ( #45, #354 ) ) ;
#318 = ADVANCED_FACE ( 'NONE', ( #235 ), #120, .T. ) ;
#319 = DIRECTION ( 'NONE',  ( -0.000000000000000000, -0.000000000000000000, -1.000000000000000000 ) ) ;
#320 = CARTESIAN_POINT ( 'NONE',  ( -6.000000000000000888, 0.000000000000000000, 157.0000000000000000 ) ) ;
#321 = VERTEX_POINT ( 'NONE', #27 ) ;
#322 = CIRCLE ( 'NONE', #273, 6.000000000000000888 ) ;
#323 = COORDINATED_UNIVERSAL_TIME_OFFSET ( 1, 0, .AHEAD. ) ;
#324 = PERSON_AND_ORGANIZATION ( #149, #36 ) ;
#325 = DIRECTION ( 'NONE',  ( 0.000000000000000000, 0.000000000000000000, 1.000000000000000000 ) ) ;
#326 = CC_DESIGN_PERSON_AND_ORGANIZATION_ASSIGNMENT ( #269, #37, ( #336 ) ) ;
#327 = APPLICATION_PROTOCOL_DEFINITION ( 'international standard', 'config_control_design', 1994, #333 ) ;
#328 = CARTESIAN_POINT ( 'NONE',  ( -8.000000000000000000, 0.000000000000000000, 157.0000000000000000 ) ) ;
#329 = PRODUCT_DEFINITION_FORMATION_WITH_SPECIFIED_SOURCE ( 'LIBOVOLNÝ', '', #336, .NOT_KNOWN. ) ;
#330 = DIRECTION ( 'NONE',  ( -0.000000000000000000, -0.000000000000000000, -1.000000000000000000 ) ) ;
#331 = ORIENTED_EDGE ( 'NONE', *, *, #31, .F. ) ;
#332 = DIRECTION ( 'NONE',  ( 1.000000000000000000, 0.000000000000000000, 0.000000000000000000 ) ) ;
#333 = APPLICATION_CONTEXT ( 'configuration controlled 3d designs of mechanical parts and assemblies' ) ;
#334 = FACE_OUTER_BOUND ( 'NONE', #294, .T. ) ;
#335 = EDGE_LOOP ( 'NONE', ( #343, #72 ) ) ;
#336 = PRODUCT ( '5e1f', '5e1f', '', ( #7 ) ) ;
#337 = CYLINDRICAL_SURFACE ( 'NONE', #3, 11.00000000000000000 ) ;
#338 = ADVANCED_FACE ( 'NONE', ( #87 ), #152, .T. ) ;
#339 = DIRECTION ( 'NONE',  ( -0.000000000000000000, -0.000000000000000000, -1.000000000000000000 ) ) ;
#340 = DIRECTION ( 'NONE',  ( 1.000000000000000000, 0.000000000000000000, -0.000000000000000000 ) ) ;
#341 = VERTEX_POINT ( 'NONE', #122 ) ;
#342 = CARTESIAN_POINT ( 'NONE',  ( 0.000000000000000000, 0.000000000000000000, 0.000000000000000000 ) ) ;
#343 = ORIENTED_EDGE ( 'NONE', *, *, #348, .T. ) ;
#344 = CARTESIAN_POINT ( 'NONE',  ( 0.000000000000000000, 0.000000000000000000, 7.700000000000012612 ) ) ;
#345 = APPROVAL ( #65, 'NEURÈENÝ' ) ;
#346 = CARTESIAN_POINT ( 'NONE',  ( 0.000000000000000000, 0.000000000000000000, 7.000000000000000000 ) ) ;
#347 = LOCAL_TIME ( 16, 20, 16.00000000000000000, #146 ) ;
#348 = EDGE_CURVE ( 'NONE', #29, #155, #303, .T. ) ;
#349 = DIRECTION ( 'NONE',  ( 1.000000000000000000, 0.000000000000000000, 0.000000000000000000 ) ) ;
#350 = VERTEX_POINT ( 'NONE', #320 ) ;
#351 = EDGE_CURVE ( 'NONE', #177, #158, #160, .T. ) ;
#352 = DIRECTION ( 'NONE',  ( -1.000000000000000000, 0.000000000000000000, 0.000000000000000000 ) ) ;
#353 = DATE_AND_TIME ( #298, #309 ) ;
#354 = ORIENTED_EDGE ( 'NONE', *, *, #112, .T. ) ;
#355 = CC_DESIGN_SECURITY_CLASSIFICATION ( #126, ( #329 ) ) ;
#356 = CC_DESIGN_PERSON_AND_ORGANIZATION_ASSIGNMENT ( #295, #240, ( #329 ) ) ;
#357 = CARTESIAN_POINT ( 'NONE',  ( 0.000000000000000000, 0.000000000000000000, 7.000000000000000000 ) ) ;
#358 = CIRCLE ( 'NONE', #259, 6.000000000000000888 ) ;
#359 =( NAMED_UNIT ( * ) PLANE_ANGLE_UNIT ( ) SI_UNIT ( $, .RADIAN. ) );
#360 = DIRECTION ( 'NONE',  ( 0.000000000000000000, 0.000000000000000000, 1.000000000000000000 ) ) ;
#361 = CARTESIAN_POINT ( 'NONE',  ( 11.00000000000000000, 1.347111479062088405E-15, 0.000000000000000000 ) ) ;
#362 = AXIS2_PLACEMENT_3D ( 'NONE', #290, #283, #82 ) ;
#363 = ORIENTED_EDGE ( 'NONE', *, *, #297, .T. ) ;
#364 = APPROVAL_ROLE ( '' ) ;
#365 = DIRECTION ( 'NONE',  ( 1.000000000000000000, 0.000000000000000000, 0.000000000000000000 ) ) ;
#366 = ORIENTED_EDGE ( 'NONE', *, *, #348, .F. ) ;
#367 = DIRECTION ( 'NONE',  ( 1.224646799147353207E-16, 1.000000000000000000, -0.000000000000000000 ) ) ;
#368 = APPROVAL_STATUS ( 'not_yet_approved' ) ;
#369 = FACE_OUTER_BOUND ( 'NONE', #335, .T. ) ;
#370 = AXIS2_PLACEMENT_3D ( 'NONE', #296, #33, #305 ) ;
#371 = CARTESIAN_POINT ( 'NONE',  ( 0.000000000000000000, 0.000000000000000000, 157.0000000000000000 ) ) ;
#372 = AXIS2_PLACEMENT_3D ( 'NONE', #71, #194, #64 ) ;
#373 = CARTESIAN_POINT ( 'NONE',  ( 0.000000000000000000, 0.000000000000000000, 7.000000000000000000 ) ) ;
#374 = ORIENTED_EDGE ( 'NONE', *, *, #112, .F. ) ;
#375 = DIRECTION ( 'NONE',  ( -0.000000000000000000, -0.000000000000000000, -1.000000000000000000 ) ) ;
#376 = EDGE_LOOP ( 'NONE', ( #249, #231 ) ) ;
#377 = EDGE_CURVE ( 'NONE', #247, #81, #185, .T. ) ;
#378 = DIRECTION ( 'NONE',  ( -0.000000000000000000, -0.000000000000000000, -1.000000000000000000 ) ) ;
#379 = ORIENTED_EDGE ( 'NONE', *, *, #31, .T. ) ;
#380 = ADVANCED_FACE ( 'NONE', ( #381 ), #151, .T. ) ;
#381 = FACE_OUTER_BOUND ( 'NONE', #59, .T. ) ;
ENDSEC;
END-ISO-10303-21;
