ISO-10303-21;
HEADER;
FILE_DESCRIPTION (( 'STEP AP203' ),
    '1' );
FILE_NAME ('73b7.STEP',
    '2022-07-08T15:41:18',
    ( '' ),
    ( '' ),
    'SwSTEP 2.0',
    'SolidWorks 2019',
    '' );
FILE_SCHEMA (( 'CONFIG_CONTROL_DESIGN' ));
ENDSEC;

DATA;
#1 = CIRCLE ( 'NONE', #56, 5.000000000000000000 ) ;
#2 = CIRCLE ( 'NONE', #191, 5.000000000000000000 ) ;
#3 = CARTESIAN_POINT ( 'NONE',  ( 0.000000000000000000, 0.000000000000000000, 3.000000000000000000 ) ) ;
#4 = PERSON ( 'NEURÈENÝ', 'NEURÈENÝ', 'NEURÈENÝ', ('NEURÈENÝ'), ('NEURÈENÝ'), ('NEURÈENÝ') ) ;
#5 = CARTESIAN_POINT ( 'NONE',  ( 2.500000000000000000, 3.061616997868383141E-16, 453.0000000000000000 ) ) ;
#6 = APPLICATION_PROTOCOL_DEFINITION ( 'international standard', 'config_control_design', 1994, #157 ) ;
#7 = ORIENTED_EDGE ( 'NONE', *, *, #365, .T. ) ;
#8 = CC_DESIGN_DATE_AND_TIME_ASSIGNMENT ( #373, #344, ( #361 ) ) ;
#9 = AXIS2_PLACEMENT_3D ( 'NONE', #286, #345, #282 ) ;
#10 = PRODUCT_DEFINITION_SHAPE ( 'NONE', 'NONE',  #297 ) ;
#11 = LINE ( 'NONE', #5, #251 ) ;
#12 = DIRECTION ( 'NONE',  ( -0.000000000000000000, -0.000000000000000000, -1.000000000000000000 ) ) ;
#13 = PERSON_AND_ORGANIZATION_ROLE ( 'design_owner' ) ;
#14 = AXIS2_PLACEMENT_3D ( 'NONE', #254, #75, #371 ) ;
#15 = ORIENTED_EDGE ( 'NONE', *, *, #88, .T. ) ;
#16 = LOCAL_TIME ( 17, 41, 18.00000000000000000, #44 ) ;
#17 = PRODUCT_RELATED_PRODUCT_CATEGORY ( 'detail', '', ( #128 ) ) ;
#18 = DIRECTION ( 'NONE',  ( 1.000000000000000000, 0.000000000000000000, 0.000000000000000000 ) ) ;
#19 = DATE_TIME_ROLE ( 'creation_date' ) ;
#20 = DIRECTION ( 'NONE',  ( 1.000000000000000000, 0.000000000000000000, 0.000000000000000000 ) ) ;
#21 = PERSON_AND_ORGANIZATION_ROLE ( 'classification_officer' ) ;
#22 = DIRECTION ( 'NONE',  ( 1.000000000000000000, 0.000000000000000000, 0.000000000000000000 ) ) ;
#23 = EDGE_CURVE ( 'NONE', #245, #275, #43, .T. ) ;
#24 = EDGE_CURVE ( 'NONE', #245, #120, #112, .T. ) ;
#25 = DIRECTION ( 'NONE',  ( 1.000000000000000000, 0.000000000000000000, 0.000000000000000000 ) ) ;
#26 = AXIS2_PLACEMENT_3D ( 'NONE', #133, #195, #167 ) ;
#27 = CARTESIAN_POINT ( 'NONE',  ( -1.600000000000000089, 0.000000000000000000, 453.0000000000000000 ) ) ;
#28 = ORIENTED_EDGE ( 'NONE', *, *, #236, .T. ) ;
#29 = AXIS2_PLACEMENT_3D ( 'NONE', #64, #110, #114 ) ;
#30 = CYLINDRICAL_SURFACE ( 'NONE', #85, 5.000000000000000000 ) ;
#31 = AXIS2_PLACEMENT_3D ( 'NONE', #316, #130, #18 ) ;
#32 = CARTESIAN_POINT ( 'NONE',  ( 2.799999999999999822, 0.000000000000000000, 3.000000000000012434 ) ) ;
#33 = LINE ( 'NONE', #203, #126 ) ;
#34 = AXIS2_PLACEMENT_3D ( 'NONE', #381, #322, #113 ) ;
#35 = EDGE_CURVE ( 'NONE', #38, #91, #11, .T. ) ;
#36 = AXIS2_PLACEMENT_3D ( 'NONE', #354, #356, #67 ) ;
#37 = CARTESIAN_POINT ( 'NONE',  ( -5.000000000000000000, 0.000000000000000000, 3.000000000000000000 ) ) ;
#38 = VERTEX_POINT ( 'NONE', #124 ) ;
#39 = ORIENTED_EDGE ( 'NONE', *, *, #115, .F. ) ;
#40 = EDGE_CURVE ( 'NONE', #247, #188, #46, .T. ) ;
#41 = ORIENTED_EDGE ( 'NONE', *, *, #40, .F. ) ;
#42 = APPLICATION_CONTEXT ( 'configuration controlled 3d designs of mechanical parts and assemblies' ) ;
#43 = LINE ( 'NONE', #73, #216 ) ;
#44 = COORDINATED_UNIVERSAL_TIME_OFFSET ( 1, 0, .AHEAD. ) ;
#45 = CIRCLE ( 'NONE', #182, 5.000000000000000000 ) ;
#46 = LINE ( 'NONE', #155, #194 ) ;
#47 = CARTESIAN_POINT ( 'NONE',  ( 2.500000000000000000, 3.061616997868383141E-16, 3.300000000000025135 ) ) ;
#48 = PLANE ( 'NONE',  #284 ) ;
#49 = AXIS2_PLACEMENT_3D ( 'NONE', #327, #201, #292 ) ;
#50 = FACE_BOUND ( 'NONE', #301, .T. ) ;
#51 = PERSON_AND_ORGANIZATION_ROLE ( 'design_supplier' ) ;
#52 = CARTESIAN_POINT ( 'NONE',  ( 0.000000000000000000, 0.000000000000000000, 0.000000000000000000 ) ) ;
#53 = APPROVAL_ROLE ( '' ) ;
#54 = CC_DESIGN_PERSON_AND_ORGANIZATION_ASSIGNMENT ( #313, #51, ( #111 ) ) ;
#55 = CARTESIAN_POINT ( 'NONE',  ( 0.000000000000000000, 0.000000000000000000, 0.000000000000000000 ) ) ;
#56 = AXIS2_PLACEMENT_3D ( 'NONE', #232, #380, #237 ) ;
#57 = AXIS2_PLACEMENT_3D ( 'NONE', #358, #151, #214 ) ;
#58 = CC_DESIGN_SECURITY_CLASSIFICATION ( #361, ( #111 ) ) ;
#59 = FACE_OUTER_BOUND ( 'NONE', #330, .T. ) ;
#60 = CYLINDRICAL_SURFACE ( 'NONE', #29, 1.600000000000000089 ) ;
#61 = DIRECTION ( 'NONE',  ( 1.000000000000000000, 0.000000000000000000, 0.000000000000000000 ) ) ;
#62 = CYLINDRICAL_SURFACE ( 'NONE', #34, 5.000000000000000000 ) ;
#63 = ORIENTED_EDGE ( 'NONE', *, *, #375, .F. ) ;
#64 = CARTESIAN_POINT ( 'NONE',  ( 0.000000000000000000, 0.000000000000000000, 453.0000000000000000 ) ) ;
#65 = VERTEX_POINT ( 'NONE', #240 ) ;
#66 = APPROVAL ( #377, 'NEURÈENÝ' ) ;
#67 = DIRECTION ( 'NONE',  ( 1.000000000000000000, 0.000000000000000000, 0.000000000000000000 ) ) ;
#68 = ORIENTED_EDGE ( 'NONE', *, *, #199, .F. ) ;
#69 = TOROIDAL_SURFACE ( 'NONE', #229, 2.799999999999999822, 0.2999999999999999889 ) ;
#70 = ORIENTED_EDGE ( 'NONE', *, *, #40, .T. ) ;
#71 = ORIENTED_EDGE ( 'NONE', *, *, #281, .F. ) ;
#72 = ORIENTED_EDGE ( 'NONE', *, *, #321, .T. ) ;
#73 = CARTESIAN_POINT ( 'NONE',  ( 1.600000000000000089, 1.959434878635764737E-16, 453.0000000000000000 ) ) ;
#74 = DIRECTION ( 'NONE',  ( -1.000000000000000000, 1.224646799147353207E-16, 0.000000000000000000 ) ) ;
#75 = DIRECTION ( 'NONE',  ( -0.000000000000000000, -0.000000000000000000, -1.000000000000000000 ) ) ;
#76 = VECTOR ( 'NONE', #314, 1000.000000000000000 ) ;
#77 = CARTESIAN_POINT ( 'NONE',  ( 0.000000000000000000, 0.000000000000000000, 453.0000000000000000 ) ) ;
#78 = APPROVAL_DATE_TIME ( #280, #238 ) ;
#79 = CIRCLE ( 'NONE', #9, 0.2999999999999999334 ) ;
#80 = CC_DESIGN_PERSON_AND_ORGANIZATION_ASSIGNMENT ( #246, #13, ( #128 ) ) ;
#81 = DIRECTION ( 'NONE',  ( 1.000000000000000000, 0.000000000000000000, -0.000000000000000000 ) ) ;
#82 = PERSON_AND_ORGANIZATION ( #4, #177 ) ;
#83 = DIRECTION ( 'NONE',  ( 1.000000000000000000, 0.000000000000000000, 0.000000000000000000 ) ) ;
#84 = PLANE ( 'NONE',  #136 ) ;
#85 = AXIS2_PLACEMENT_3D ( 'NONE', #143, #86, #135 ) ;
#86 = DIRECTION ( 'NONE',  ( -0.000000000000000000, -0.000000000000000000, -1.000000000000000000 ) ) ;
#87 = PERSON_AND_ORGANIZATION ( #4, #177 ) ;
#88 = EDGE_CURVE ( 'NONE', #332, #65, #222, .T. ) ;
#89 = CARTESIAN_POINT ( 'NONE',  ( 0.000000000000000000, 0.000000000000000000, 0.000000000000000000 ) ) ;
#90 = CARTESIAN_POINT ( 'NONE',  ( 0.000000000000000000, 0.000000000000000000, 3.300000000000025135 ) ) ;
#91 = VERTEX_POINT ( 'NONE', #47 ) ;
#92 = EDGE_CURVE ( 'NONE', #332, #91, #208, .T. ) ;
#93 = CYLINDRICAL_SURFACE ( 'NONE', #49, 2.500000000000000000 ) ;
#94 = CARTESIAN_POINT ( 'NONE',  ( -2.500000000000000000, 0.000000000000000000, 3.300000000000025135 ) ) ;
#95 = ORIENTED_EDGE ( 'NONE', *, *, #335, .T. ) ;
#96 = EDGE_LOOP ( 'NONE', ( #41, #368, #263, #265 ) ) ;
#97 = ORIENTED_EDGE ( 'NONE', *, *, #146, .F. ) ;
#98 = APPROVAL_PERSON_ORGANIZATION ( #82, #197, #53 ) ;
#99 = EDGE_CURVE ( 'NONE', #38, #303, #262, .T. ) ;
#100 = ORIENTED_EDGE ( 'NONE', *, *, #267, .T. ) ;
#101 = CARTESIAN_POINT ( 'NONE',  ( 5.000000000000000000, 6.123233995736766282E-16, 0.000000000000000000 ) ) ;
#102 = DIRECTION ( 'NONE',  ( 1.000000000000000000, 0.000000000000000000, -0.000000000000000000 ) ) ;
#103 = DATE_AND_TIME ( #370, #248 ) ;
#104 = EDGE_CURVE ( 'NONE', #275, #366, #243, .T. ) ;
#105 = DIRECTION ( 'NONE',  ( 0.000000000000000000, 0.000000000000000000, -1.000000000000000000 ) ) ;
#106 = COORDINATED_UNIVERSAL_TIME_OFFSET ( 1, 0, .AHEAD. ) ;
#107 = CARTESIAN_POINT ( 'NONE',  ( 5.000000000000000000, 6.123233995736766282E-16, 3.000000000000000000 ) ) ;
#108 = DATE_AND_TIME ( #283, #242 ) ;
#109 = FACE_OUTER_BOUND ( 'NONE', #212, .T. ) ;
#110 = DIRECTION ( 'NONE',  ( 0.000000000000000000, 0.000000000000000000, -1.000000000000000000 ) ) ;
#111 = PRODUCT_DEFINITION_FORMATION_WITH_SPECIFIED_SOURCE ( 'LIBOVOLNÝ', '', #128, .NOT_KNOWN. ) ;
#112 = CIRCLE ( 'NONE', #331, 1.600000000000000089 ) ;
#113 = DIRECTION ( 'NONE',  ( -1.000000000000000000, 0.000000000000000000, 0.000000000000000000 ) ) ;
#114 = DIRECTION ( 'NONE',  ( -1.000000000000000000, 0.000000000000000000, 0.000000000000000000 ) ) ;
#115 = EDGE_CURVE ( 'NONE', #91, #306, #79, .T. ) ;
#116 = DIRECTION ( 'NONE',  ( 0.000000000000000000, 0.000000000000000000, 1.000000000000000000 ) ) ;
#117 = ORIENTED_EDGE ( 'NONE', *, *, #104, .T. ) ;
#118 = CIRCLE ( 'NONE', #337, 2.500000000000000000 ) ;
#119 =( NAMED_UNIT ( * ) PLANE_ANGLE_UNIT ( ) SI_UNIT ( $, .RADIAN. ) );
#120 = VERTEX_POINT ( 'NONE', #27 ) ;
#121 = ORIENTED_EDGE ( 'NONE', *, *, #35, .T. ) ;
#122 = AXIS2_PLACEMENT_3D ( 'NONE', #217, #105, #372 ) ;
#123 = ORIENTED_EDGE ( 'NONE', *, *, #295, .T. ) ;
#124 = CARTESIAN_POINT ( 'NONE',  ( 2.500000000000000000, 3.061616997868383141E-16, 453.0000000000000000 ) ) ;
#125 = CARTESIAN_POINT ( 'NONE',  ( -2.799999999999999822, 3.429011037612588783E-16, 3.300000000000025135 ) ) ;
#126 = VECTOR ( 'NONE', #264, 1000.000000000000000 ) ;
#127 = EDGE_LOOP ( 'NONE', ( #123, #261, #117, #175 ) ) ;
#128 = PRODUCT ( '73b7', '73b7', '', ( #149 ) ) ;
#129 = DIRECTION ( 'NONE',  ( -0.000000000000000000, -0.000000000000000000, -1.000000000000000000 ) ) ;
#130 = DIRECTION ( 'NONE',  ( 0.000000000000000000, 0.000000000000000000, 1.000000000000000000 ) ) ;
#131 = FACE_OUTER_BOUND ( 'NONE', #127, .T. ) ;
#132 = CALENDAR_DATE ( 2022, 8, 7 ) ;
#133 = CARTESIAN_POINT ( 'NONE',  ( 0.000000000000000000, 0.000000000000000000, 453.0000000000000000 ) ) ;
#134 = CARTESIAN_POINT ( 'NONE',  ( -5.000000000000000000, 0.000000000000000000, 3.000000000000000000 ) ) ;
#135 = DIRECTION ( 'NONE',  ( -1.000000000000000000, 0.000000000000000000, 0.000000000000000000 ) ) ;
#136 = AXIS2_PLACEMENT_3D ( 'NONE', #287, #198, #102 ) ;
#137 = EDGE_LOOP ( 'NONE', ( #357, #121, #293, #305 ) ) ;
#138 = CC_DESIGN_APPROVAL ( #66, ( #111 ) ) ;
#139 = DIRECTION ( 'NONE',  ( 1.000000000000000000, 0.000000000000000000, 0.000000000000000000 ) ) ;
#140 = ADVANCED_FACE ( 'NONE', ( #165 ), #341, .T. ) ;
#141 = DIRECTION ( 'NONE',  ( 0.000000000000000000, 0.000000000000000000, 1.000000000000000000 ) ) ;
#142 = ORIENTED_EDGE ( 'NONE', *, *, #115, .T. ) ;
#143 = CARTESIAN_POINT ( 'NONE',  ( 0.000000000000000000, 0.000000000000000000, 3.000000000000000000 ) ) ;
#144 = DIRECTION ( 'NONE',  ( 0.000000000000000000, 0.000000000000000000, 1.000000000000000000 ) ) ;
#145 = EDGE_LOOP ( 'NONE', ( #7, #244 ) ) ;
#146 = EDGE_CURVE ( 'NONE', #209, #188, #45, .T. ) ;
#147 = CARTESIAN_POINT ( 'NONE',  ( 0.000000000000000000, 0.000000000000000000, 453.0000000000000000 ) ) ;
#148 = ORIENTED_EDGE ( 'NONE', *, *, #92, .F. ) ;
#149 = MECHANICAL_CONTEXT ( 'NONE', #157, 'mechanical' ) ;
#150 = AXIS2_PLACEMENT_3D ( 'NONE', #52, #162, #22 ) ;
#151 = DIRECTION ( 'NONE',  ( 0.000000000000000000, 0.000000000000000000, 1.000000000000000000 ) ) ;
#152 = DIRECTION ( 'NONE',  ( 0.000000000000000000, 0.000000000000000000, -1.000000000000000000 ) ) ;
#153 = ADVANCED_FACE ( 'NONE', ( #227, #310 ), #48, .T. ) ;
#154 = CC_DESIGN_DATE_AND_TIME_ASSIGNMENT ( #228, #19, ( #297 ) ) ;
#155 = CARTESIAN_POINT ( 'NONE',  ( 5.000000000000000000, 6.123233995736766282E-16, 3.000000000000000000 ) ) ;
#156 = ORIENTED_EDGE ( 'NONE', *, *, #308, .T. ) ;
#157 = APPLICATION_CONTEXT ( 'configuration controlled 3d designs of mechanical parts and assemblies' ) ;
#158 = CIRCLE ( 'NONE', #300, 5.000000000000000000 ) ;
#159 = DIRECTION ( 'NONE',  ( 0.000000000000000000, 0.000000000000000000, 1.000000000000000000 ) ) ;
#160 = DIRECTION ( 'NONE',  ( 0.000000000000000000, 0.000000000000000000, 1.000000000000000000 ) ) ;
#161 = PERSON_AND_ORGANIZATION ( #4, #177 ) ;
#162 = DIRECTION ( 'NONE',  ( -0.000000000000000000, -0.000000000000000000, -1.000000000000000000 ) ) ;
#163 = COORDINATED_UNIVERSAL_TIME_OFFSET ( 1, 0, .AHEAD. ) ;
#164 = CIRCLE ( 'NONE', #14, 2.799999999999999822 ) ;
#165 = FACE_OUTER_BOUND ( 'NONE', #137, .T. ) ;
#166 = CC_DESIGN_PERSON_AND_ORGANIZATION_ASSIGNMENT ( #219, #193, ( #111 ) ) ;
#167 = DIRECTION ( 'NONE',  ( -1.000000000000000000, 0.000000000000000000, 0.000000000000000000 ) ) ;
#168 = CALENDAR_DATE ( 2022, 8, 7 ) ;
#169 = CARTESIAN_POINT ( 'NONE',  ( -1.600000000000000089, 0.000000000000000000, 0.000000000000000000 ) ) ;
#170 = ADVANCED_FACE ( 'NONE', ( #376, #59 ), #84, .T. ) ;
#171 = CIRCLE ( 'NONE', #176, 2.500000000000000000 ) ;
#172 = AXIS2_PLACEMENT_3D ( 'NONE', #55, #257, #369 ) ;
#173 = DIRECTION ( 'NONE',  ( 1.000000000000000000, 0.000000000000000000, 0.000000000000000000 ) ) ;
#174 = CARTESIAN_POINT ( 'NONE',  ( 0.000000000000000000, 0.000000000000000000, 3.000000000000000000 ) ) ;
#175 = ORIENTED_EDGE ( 'NONE', *, *, #249, .F. ) ;
#176 = AXIS2_PLACEMENT_3D ( 'NONE', #192, #279, #25 ) ;
#177 = ORGANIZATION ( 'NEURÈENÝ', 'NEURÈENÝ', '' ) ;
#178 = ORIENTED_EDGE ( 'NONE', *, *, #295, .F. ) ;
#179 = MANIFOLD_SOLID_BREP ( 'Odebrat vysunutím3', #278 ) ;
#180 = EDGE_LOOP ( 'NONE', ( #28, #336 ) ) ;
#181 = APPROVAL_STATUS ( 'not_yet_approved' ) ;
#182 = AXIS2_PLACEMENT_3D ( 'NONE', #218, #160, #83 ) ;
#183 = EDGE_LOOP ( 'NONE', ( #326, #68, #142, #63 ) ) ;
#184 = APPROVAL_ROLE ( '' ) ;
#185 = DIRECTION ( 'NONE',  ( -0.000000000000000000, -0.000000000000000000, -1.000000000000000000 ) ) ;
#186 = AXIS2_PLACEMENT_3D ( 'NONE', #190, #277, #20 ) ;
#187 = ADVANCED_BREP_SHAPE_REPRESENTATION ( '73b7', ( #179, #57 ), #260 ) ;
#188 = VERTEX_POINT ( 'NONE', #101 ) ;
#189 = APPLICATION_PROTOCOL_DEFINITION ( 'international standard', 'config_control_design', 1994, #42 ) ;
#190 = CARTESIAN_POINT ( 'NONE',  ( 0.000000000000000000, 0.000000000000000000, 3.300000000000025135 ) ) ;
#191 = AXIS2_PLACEMENT_3D ( 'NONE', #174, #234, #294 ) ;
#192 = CARTESIAN_POINT ( 'NONE',  ( 0.000000000000000000, 0.000000000000000000, 3.300000000000025135 ) ) ;
#193 = PERSON_AND_ORGANIZATION_ROLE ( 'creator' ) ;
#194 = VECTOR ( 'NONE', #12, 1000.000000000000000 ) ;
#195 = DIRECTION ( 'NONE',  ( -0.000000000000000000, -0.000000000000000000, -1.000000000000000000 ) ) ;
#196 = COORDINATED_UNIVERSAL_TIME_OFFSET ( 1, 0, .AHEAD. ) ;
#197 = APPROVAL ( #315, 'NEURÈENÝ' ) ;
#198 = DIRECTION ( 'NONE',  ( 0.000000000000000000, 0.000000000000000000, 1.000000000000000000 ) ) ;
#199 = EDGE_CURVE ( 'NONE', #91, #332, #171, .T. ) ;
#200 = CYLINDRICAL_SURFACE ( 'NONE', #122, 1.600000000000000089 ) ;
#201 = DIRECTION ( 'NONE',  ( -0.000000000000000000, -0.000000000000000000, -1.000000000000000000 ) ) ;
#202 = DIRECTION ( 'NONE',  ( -0.000000000000000000, -0.000000000000000000, -1.000000000000000000 ) ) ;
#203 = CARTESIAN_POINT ( 'NONE',  ( -2.500000000000000000, 0.000000000000000000, 453.0000000000000000 ) ) ;
#204 = FACE_OUTER_BOUND ( 'NONE', #296, .T. ) ;
#205 = CC_DESIGN_PERSON_AND_ORGANIZATION_ASSIGNMENT ( #87, #255, ( #297 ) ) ;
#206 = ORIENTED_EDGE ( 'NONE', *, *, #23, .F. ) ;
#207 = CIRCLE ( 'NONE', #329, 2.799999999999999822 ) ;
#208 = CIRCLE ( 'NONE', #186, 2.500000000000000000 ) ;
#209 = VERTEX_POINT ( 'NONE', #256 ) ;
#210 = EDGE_CURVE ( 'NONE', #334, #209, #312, .T. ) ;
#211 = ORIENTED_EDGE ( 'NONE', *, *, #267, .F. ) ;
#212 = EDGE_LOOP ( 'NONE', ( #97, #338 ) ) ;
#213 = UNCERTAINTY_MEASURE_WITH_UNIT (LENGTH_MEASURE( 1.000000000000000082E-05 ), #289, 'distance_accuracy_value', 'NONE');
#214 = DIRECTION ( 'NONE',  ( 1.000000000000000000, 0.000000000000000000, 0.000000000000000000 ) ) ;
#215 = DIRECTION ( 'NONE',  ( 1.224646799147353207E-16, 1.000000000000000000, -0.000000000000000000 ) ) ;
#216 = VECTOR ( 'NONE', #152, 1000.000000000000000 ) ;
#217 = CARTESIAN_POINT ( 'NONE',  ( 0.000000000000000000, 0.000000000000000000, 453.0000000000000000 ) ) ;
#218 = CARTESIAN_POINT ( 'NONE',  ( 0.000000000000000000, 0.000000000000000000, 0.000000000000000000 ) ) ;
#219 = PERSON_AND_ORGANIZATION ( #4, #177 ) ;
#220 = LINE ( 'NONE', #343, #76 ) ;
#221 = CALENDAR_DATE ( 2022, 8, 7 ) ;
#222 = CIRCLE ( 'NONE', #302, 0.2999999999999999334 ) ;
#223 = ADVANCED_FACE ( 'NONE', ( #50, #109 ), #252, .F. ) ;
#224 = ADVANCED_FACE ( 'NONE', ( #131 ), #200, .F. ) ;
#225 = CARTESIAN_POINT ( 'NONE',  ( 1.600000000000000089, 1.959434878635764737E-16, 0.000000000000000000 ) ) ;
#226 = APPROVAL_DATE_TIME ( #108, #197 ) ;
#227 = FACE_BOUND ( 'NONE', #309, .T. ) ;
#228 = DATE_AND_TIME ( #168, #276 ) ;
#229 = AXIS2_PLACEMENT_3D ( 'NONE', #90, #268, #173 ) ;
#230 = FACE_OUTER_BOUND ( 'NONE', #96, .T. ) ;
#231 = CARTESIAN_POINT ( 'NONE',  ( -2.500000000000000000, 0.000000000000000000, 453.0000000000000000 ) ) ;
#232 = CARTESIAN_POINT ( 'NONE',  ( 0.000000000000000000, 0.000000000000000000, 3.000000000000000000 ) ) ;
#233 = ORIENTED_EDGE ( 'NONE', *, *, #24, .F. ) ;
#234 = DIRECTION ( 'NONE',  ( 0.000000000000000000, 0.000000000000000000, 1.000000000000000000 ) ) ;
#235 = ORIENTED_EDGE ( 'NONE', *, *, #210, .F. ) ;
#236 = EDGE_CURVE ( 'NONE', #306, #65, #164, .T. ) ;
#237 = DIRECTION ( 'NONE',  ( 1.000000000000000000, 0.000000000000000000, 0.000000000000000000 ) ) ;
#238 = APPROVAL ( #181, 'NEURÈENÝ' ) ;
#239 = EDGE_LOOP ( 'NONE', ( #71, #70, #72, #235 ) ) ;
#240 = CARTESIAN_POINT ( 'NONE',  ( -2.799999999999999822, 3.429011037612589276E-16, 3.000000000000012434 ) ) ;
#241 = APPROVAL_PERSON_ORGANIZATION ( #333, #238, #184 ) ;
#242 = LOCAL_TIME ( 17, 41, 18.00000000000000000, #163 ) ;
#243 = CIRCLE ( 'NONE', #172, 1.600000000000000089 ) ;
#244 = ORIENTED_EDGE ( 'NONE', *, *, #99, .T. ) ;
#245 = VERTEX_POINT ( 'NONE', #319 ) ;
#246 = PERSON_AND_ORGANIZATION ( #4, #177 ) ;
#247 = VERTEX_POINT ( 'NONE', #107 ) ;
#248 = LOCAL_TIME ( 17, 41, 18.00000000000000000, #253 ) ;
#249 = EDGE_CURVE ( 'NONE', #120, #366, #220, .T. ) ;
#250 = ORIENTED_EDGE ( 'NONE', *, *, #236, .F. ) ;
#251 = VECTOR ( 'NONE', #185, 1000.000000000000000 ) ;
#252 = PLANE ( 'NONE',  #291 ) ;
#253 = COORDINATED_UNIVERSAL_TIME_OFFSET ( 1, 0, .AHEAD. ) ;
#254 = CARTESIAN_POINT ( 'NONE',  ( 0.000000000000000000, 0.000000000000000000, 3.000000000000000000 ) ) ;
#255 = PERSON_AND_ORGANIZATION_ROLE ( 'creator' ) ;
#256 = CARTESIAN_POINT ( 'NONE',  ( -5.000000000000000000, 0.000000000000000000, 0.000000000000000000 ) ) ;
#257 = DIRECTION ( 'NONE',  ( -0.000000000000000000, -0.000000000000000000, -1.000000000000000000 ) ) ;
#258 = SECURITY_CLASSIFICATION_LEVEL ( 'unclassified' ) ;
#259 = CARTESIAN_POINT ( 'NONE',  ( 0.000000000000000000, 0.000000000000000000, 0.000000000000000000 ) ) ;
#260 =( GEOMETRIC_REPRESENTATION_CONTEXT ( 3 ) GLOBAL_UNCERTAINTY_ASSIGNED_CONTEXT ( ( #213 ) ) GLOBAL_UNIT_ASSIGNED_CONTEXT ( ( #289, #119, #270 ) ) REPRESENTATION_CONTEXT ( 'NONE', 'WORKASPACE' ) );
#261 = ORIENTED_EDGE ( 'NONE', *, *, #23, .T. ) ;
#262 = CIRCLE ( 'NONE', #31, 2.500000000000000000 ) ;
#263 = ORIENTED_EDGE ( 'NONE', *, *, #210, .T. ) ;
#264 = DIRECTION ( 'NONE',  ( -0.000000000000000000, -0.000000000000000000, -1.000000000000000000 ) ) ;
#265 = ORIENTED_EDGE ( 'NONE', *, *, #146, .T. ) ;
#266 = CC_DESIGN_PERSON_AND_ORGANIZATION_ASSIGNMENT ( #161, #21, ( #361 ) ) ;
#267 = EDGE_CURVE ( 'NONE', #366, #275, #342, .T. ) ;
#268 = DIRECTION ( 'NONE',  ( 0.000000000000000000, 0.000000000000000000, 1.000000000000000000 ) ) ;
#269 = LOCAL_TIME ( 17, 41, 18.00000000000000000, #106 ) ;
#270 =( NAMED_UNIT ( * ) SI_UNIT ( $, .STERADIAN. ) SOLID_ANGLE_UNIT ( ) );
#271 = DIRECTION ( 'NONE',  ( 0.000000000000000000, 0.000000000000000000, 1.000000000000000000 ) ) ;
#272 = ORIENTED_EDGE ( 'NONE', *, *, #365, .F. ) ;
#273 = EDGE_LOOP ( 'NONE', ( #148, #15, #250, #39 ) ) ;
#274 = DIRECTION ( 'NONE',  ( 1.000000000000000000, 0.000000000000000000, 0.000000000000000000 ) ) ;
#275 = VERTEX_POINT ( 'NONE', #225 ) ;
#276 = LOCAL_TIME ( 17, 41, 18.00000000000000000, #196 ) ;
#277 = DIRECTION ( 'NONE',  ( 0.000000000000000000, 0.000000000000000000, 1.000000000000000000 ) ) ;
#278 = CLOSED_SHELL ( 'NONE', ( #224, #349, #140, #353, #288, #170, #223, #359, #153, #307, #374 ) ) ;
#279 = DIRECTION ( 'NONE',  ( 0.000000000000000000, 0.000000000000000000, 1.000000000000000000 ) ) ;
#280 = DATE_AND_TIME ( #132, #16 ) ;
#281 = EDGE_CURVE ( 'NONE', #247, #334, #1, .T. ) ;
#282 = DIRECTION ( 'NONE',  ( 0.000000000000000000, 0.000000000000000000, -1.000000000000000000 ) ) ;
#283 = CALENDAR_DATE ( 2022, 8, 7 ) ;
#284 = AXIS2_PLACEMENT_3D ( 'NONE', #77, #159, #340 ) ;
#285 = CC_DESIGN_APPROVAL ( #238, ( #297 ) ) ;
#286 = CARTESIAN_POINT ( 'NONE',  ( 2.799999999999999822, 0.000000000000000000, 3.300000000000025135 ) ) ;
#287 = CARTESIAN_POINT ( 'NONE',  ( 0.000000000000000000, 0.000000000000000000, 3.000000000000000000 ) ) ;
#288 = ADVANCED_FACE ( 'NONE', ( #230 ), #62, .T. ) ;
#289 =( LENGTH_UNIT ( ) NAMED_UNIT ( * ) SI_UNIT ( .MILLI., .METRE. ) );
#290 = ORIENTED_EDGE ( 'NONE', *, *, #24, .T. ) ;
#291 = AXIS2_PLACEMENT_3D ( 'NONE', #259, #347, #81 ) ;
#292 = DIRECTION ( 'NONE',  ( -1.000000000000000000, 0.000000000000000000, 0.000000000000000000 ) ) ;
#293 = ORIENTED_EDGE ( 'NONE', *, *, #199, .T. ) ;
#294 = DIRECTION ( 'NONE',  ( 1.000000000000000000, 0.000000000000000000, 0.000000000000000000 ) ) ;
#295 = EDGE_CURVE ( 'NONE', #120, #245, #317, .T. ) ;
#296 = EDGE_LOOP ( 'NONE', ( #325, #272, #95, #362 ) ) ;
#297 = PRODUCT_DEFINITION ( 'NEZNÁMÝ', '', #111, #339 ) ;
#298 = DIRECTION ( 'NONE',  ( 1.000000000000000000, 0.000000000000000000, 0.000000000000000000 ) ) ;
#299 = CARTESIAN_POINT ( 'NONE',  ( 0.000000000000000000, 0.000000000000000000, 3.300000000000025135 ) ) ;
#300 = AXIS2_PLACEMENT_3D ( 'NONE', #89, #141, #298 ) ;
#301 = EDGE_LOOP ( 'NONE', ( #211, #352 ) ) ;
#302 = AXIS2_PLACEMENT_3D ( 'NONE', #125, #215, #74 ) ;
#303 = VERTEX_POINT ( 'NONE', #231 ) ;
#304 = ORIENTED_EDGE ( 'NONE', *, *, #249, .T. ) ;
#305 = ORIENTED_EDGE ( 'NONE', *, *, #335, .F. ) ;
#306 = VERTEX_POINT ( 'NONE', #32 ) ;
#307 = ADVANCED_FACE ( 'NONE', ( #351 ), #69, .F. ) ;
#308 = EDGE_CURVE ( 'NONE', #334, #247, #2, .T. ) ;
#309 = EDGE_LOOP ( 'NONE', ( #178, #233 ) ) ;
#310 = FACE_OUTER_BOUND ( 'NONE', #145, .T. ) ;
#311 = APPROVAL_PERSON_ORGANIZATION ( #348, #66, #323 ) ;
#312 = LINE ( 'NONE', #134, #360 ) ;
#313 = PERSON_AND_ORGANIZATION ( #4, #177 ) ;
#314 = DIRECTION ( 'NONE',  ( 0.000000000000000000, 0.000000000000000000, -1.000000000000000000 ) ) ;
#315 = APPROVAL_STATUS ( 'not_yet_approved' ) ;
#316 = CARTESIAN_POINT ( 'NONE',  ( 0.000000000000000000, 0.000000000000000000, 453.0000000000000000 ) ) ;
#317 = CIRCLE ( 'NONE', #36, 1.600000000000000089 ) ;
#318 = AXIS2_PLACEMENT_3D ( 'NONE', #299, #116, #324 ) ;
#319 = CARTESIAN_POINT ( 'NONE',  ( 1.600000000000000089, 1.959434878635764737E-16, 453.0000000000000000 ) ) ;
#320 = APPROVAL_DATE_TIME ( #103, #66 ) ;
#321 = EDGE_CURVE ( 'NONE', #188, #209, #158, .T. ) ;
#322 = DIRECTION ( 'NONE',  ( -0.000000000000000000, -0.000000000000000000, -1.000000000000000000 ) ) ;
#323 = APPROVAL_ROLE ( '' ) ;
#324 = DIRECTION ( 'NONE',  ( 1.000000000000000000, 0.000000000000000000, 0.000000000000000000 ) ) ;
#325 = ORIENTED_EDGE ( 'NONE', *, *, #35, .F. ) ;
#326 = ORIENTED_EDGE ( 'NONE', *, *, #88, .F. ) ;
#327 = CARTESIAN_POINT ( 'NONE',  ( 0.000000000000000000, 0.000000000000000000, 453.0000000000000000 ) ) ;
#328 = CARTESIAN_POINT ( 'NONE',  ( 0.000000000000000000, 0.000000000000000000, 453.0000000000000000 ) ) ;
#329 = AXIS2_PLACEMENT_3D ( 'NONE', #3, #202, #139 ) ;
#330 = EDGE_LOOP ( 'NONE', ( #156, #367 ) ) ;
#331 = AXIS2_PLACEMENT_3D ( 'NONE', #147, #271, #274 ) ;
#332 = VERTEX_POINT ( 'NONE', #94 ) ;
#333 = PERSON_AND_ORGANIZATION ( #4, #177 ) ;
#334 = VERTEX_POINT ( 'NONE', #37 ) ;
#335 = EDGE_CURVE ( 'NONE', #303, #332, #33, .T. ) ;
#336 = ORIENTED_EDGE ( 'NONE', *, *, #375, .T. ) ;
#337 = AXIS2_PLACEMENT_3D ( 'NONE', #328, #144, #61 ) ;
#338 = ORIENTED_EDGE ( 'NONE', *, *, #321, .F. ) ;
#339 = DESIGN_CONTEXT ( 'detailed design', #42, 'design' ) ;
#340 = DIRECTION ( 'NONE',  ( 1.000000000000000000, 0.000000000000000000, -0.000000000000000000 ) ) ;
#341 = CYLINDRICAL_SURFACE ( 'NONE', #26, 2.500000000000000000 ) ;
#342 = CIRCLE ( 'NONE', #150, 1.600000000000000089 ) ;
#343 = CARTESIAN_POINT ( 'NONE',  ( -1.600000000000000089, 0.000000000000000000, 453.0000000000000000 ) ) ;
#344 = DATE_TIME_ROLE ( 'classification_date' ) ;
#345 = DIRECTION ( 'NONE',  ( 0.000000000000000000, -1.000000000000000000, 0.000000000000000000 ) ) ;
#346 = SHAPE_DEFINITION_REPRESENTATION ( #10, #187 ) ;
#347 = DIRECTION ( 'NONE',  ( 0.000000000000000000, 0.000000000000000000, 1.000000000000000000 ) ) ;
#348 = PERSON_AND_ORGANIZATION ( #4, #177 ) ;
#349 = ADVANCED_FACE ( 'NONE', ( #355 ), #379, .F. ) ;
#350 = FACE_OUTER_BOUND ( 'NONE', #239, .T. ) ;
#351 = FACE_OUTER_BOUND ( 'NONE', #183, .T. ) ;
#352 = ORIENTED_EDGE ( 'NONE', *, *, #104, .F. ) ;
#353 = ADVANCED_FACE ( 'NONE', ( #350 ), #30, .T. ) ;
#354 = CARTESIAN_POINT ( 'NONE',  ( 0.000000000000000000, 0.000000000000000000, 453.0000000000000000 ) ) ;
#355 = FACE_OUTER_BOUND ( 'NONE', #273, .T. ) ;
#356 = DIRECTION ( 'NONE',  ( 0.000000000000000000, 0.000000000000000000, 1.000000000000000000 ) ) ;
#357 = ORIENTED_EDGE ( 'NONE', *, *, #99, .F. ) ;
#358 = CARTESIAN_POINT ( 'NONE',  ( 0.000000000000000000, 0.000000000000000000, 0.000000000000000000 ) ) ;
#359 = ADVANCED_FACE ( 'NONE', ( #204 ), #93, .T. ) ;
#360 = VECTOR ( 'NONE', #129, 1000.000000000000000 ) ;
#361 = SECURITY_CLASSIFICATION ( '', '', #258 ) ;
#362 = ORIENTED_EDGE ( 'NONE', *, *, #92, .T. ) ;
#363 = CC_DESIGN_APPROVAL ( #197, ( #361 ) ) ;
#364 = EDGE_LOOP ( 'NONE', ( #206, #290, #304, #100 ) ) ;
#365 = EDGE_CURVE ( 'NONE', #303, #38, #118, .T. ) ;
#366 = VERTEX_POINT ( 'NONE', #169 ) ;
#367 = ORIENTED_EDGE ( 'NONE', *, *, #281, .T. ) ;
#368 = ORIENTED_EDGE ( 'NONE', *, *, #308, .F. ) ;
#369 = DIRECTION ( 'NONE',  ( 1.000000000000000000, 0.000000000000000000, 0.000000000000000000 ) ) ;
#370 = CALENDAR_DATE ( 2022, 8, 7 ) ;
#371 = DIRECTION ( 'NONE',  ( 1.000000000000000000, 0.000000000000000000, 0.000000000000000000 ) ) ;
#372 = DIRECTION ( 'NONE',  ( -1.000000000000000000, 0.000000000000000000, 0.000000000000000000 ) ) ;
#373 = DATE_AND_TIME ( #221, #269 ) ;
#374 = ADVANCED_FACE ( 'NONE', ( #378 ), #60, .F. ) ;
#375 = EDGE_CURVE ( 'NONE', #65, #306, #207, .T. ) ;
#376 = FACE_BOUND ( 'NONE', #180, .T. ) ;
#377 = APPROVAL_STATUS ( 'not_yet_approved' ) ;
#378 = FACE_OUTER_BOUND ( 'NONE', #364, .T. ) ;
#379 = TOROIDAL_SURFACE ( 'NONE', #318, 2.799999999999999822, 0.2999999999999999889 ) ;
#380 = DIRECTION ( 'NONE',  ( 0.000000000000000000, 0.000000000000000000, 1.000000000000000000 ) ) ;
#381 = CARTESIAN_POINT ( 'NONE',  ( 0.000000000000000000, 0.000000000000000000, 3.000000000000000000 ) ) ;
ENDSEC;
END-ISO-10303-21;
