ISO-10303-21;
HEADER;
FILE_DESCRIPTION (( 'STEP AP203' ),
    '1' );
FILE_NAME ('6554.STEP',
    '2022-07-08T15:46:08',
    ( '' ),
    ( '' ),
    'SwSTEP 2.0',
    'SolidWorks 2019',
    '' );
FILE_SCHEMA (( 'CONFIG_CONTROL_DESIGN' ));
ENDSEC;

DATA;
#1 = CARTESIAN_POINT ( 'NONE',  ( -5.000000000000000000, 0.000000000000000000, 3.000000000000000000 ) ) ;
#2 = LOCAL_TIME ( 17, 46, 8.000000000000000000, #380 ) ;
#3 = DIRECTION ( 'NONE',  ( 0.000000000000000000, 0.000000000000000000, -1.000000000000000000 ) ) ;
#4 = FACE_OUTER_BOUND ( 'NONE', #183, .T. ) ;
#5 = CARTESIAN_POINT ( 'NONE',  ( -5.000000000000000000, 0.000000000000000000, 3.000000000000000000 ) ) ;
#6 = CARTESIAN_POINT ( 'NONE',  ( 0.000000000000000000, 0.000000000000000000, 3.299999999999997158 ) ) ;
#7 = CARTESIAN_POINT ( 'NONE',  ( 1.500000000000000222, 1.836970198721030181E-16, 78.00000000000000000 ) ) ;
#8 = ORIENTED_EDGE ( 'NONE', *, *, #283, .F. ) ;
#9 = PLANE ( 'NONE',  #169 ) ;
#10 = ORIENTED_EDGE ( 'NONE', *, *, #311, .T. ) ;
#11 = AXIS2_PLACEMENT_3D ( 'NONE', #340, #155, #338 ) ;
#12 = COORDINATED_UNIVERSAL_TIME_OFFSET ( 1, 0, .AHEAD. ) ;
#13 = EDGE_LOOP ( 'NONE', ( #144, #335, #97, #271 ) ) ;
#14 = PERSON_AND_ORGANIZATION_ROLE ( 'creator' ) ;
#15 = ORIENTED_EDGE ( 'NONE', *, *, #318, .F. ) ;
#16 = FACE_OUTER_BOUND ( 'NONE', #241, .T. ) ;
#17 = PRODUCT_DEFINITION ( 'NEZNÁMÝ', '', #80, #54 ) ;
#18 =( GEOMETRIC_REPRESENTATION_CONTEXT ( 3 ) GLOBAL_UNCERTAINTY_ASSIGNED_CONTEXT ( ( #285 ) ) GLOBAL_UNIT_ASSIGNED_CONTEXT ( ( #336, #71, #188 ) ) REPRESENTATION_CONTEXT ( 'NONE', 'WORKASPACE' ) );
#19 = CYLINDRICAL_SURFACE ( 'NONE', #157, 2.500000000000000000 ) ;
#20 = EDGE_CURVE ( 'NONE', #150, #279, #70, .T. ) ;
#21 = PLANE ( 'NONE',  #120 ) ;
#22 = DIRECTION ( 'NONE',  ( 1.000000000000000000, 0.000000000000000000, 0.000000000000000000 ) ) ;
#23 = AXIS2_PLACEMENT_3D ( 'NONE', #381, #219, #22 ) ;
#24 = CALENDAR_DATE ( 2022, 8, 7 ) ;
#25 = DIRECTION ( 'NONE',  ( 0.000000000000000000, 0.000000000000000000, 1.000000000000000000 ) ) ;
#26 = EDGE_CURVE ( 'NONE', #38, #150, #49, .T. ) ;
#27 = PERSON_AND_ORGANIZATION ( #256, #177 ) ;
#28 = LOCAL_TIME ( 17, 46, 8.000000000000000000, #317 ) ;
#29 = DIRECTION ( 'NONE',  ( 1.000000000000000000, 0.000000000000000000, 0.000000000000000000 ) ) ;
#30 = EDGE_CURVE ( 'NONE', #279, #150, #48, .T. ) ;
#31 = VECTOR ( 'NONE', #272, 1000.000000000000000 ) ;
#32 = CARTESIAN_POINT ( 'NONE',  ( -2.500000000000000000, 0.000000000000000000, 78.00000000000000000 ) ) ;
#33 = DIRECTION ( 'NONE',  ( 1.000000000000000000, 0.000000000000000000, 0.000000000000000000 ) ) ;
#34 = DIRECTION ( 'NONE',  ( -1.000000000000000000, 0.000000000000000000, 0.000000000000000000 ) ) ;
#35 = CC_DESIGN_APPROVAL ( #160, ( #80 ) ) ;
#36 = ORIENTED_EDGE ( 'NONE', *, *, #77, .F. ) ;
#37 = DIRECTION ( 'NONE',  ( -0.000000000000000000, -0.000000000000000000, -1.000000000000000000 ) ) ;
#38 = VERTEX_POINT ( 'NONE', #200 ) ;
#39 = DIRECTION ( 'NONE',  ( -0.000000000000000000, -0.000000000000000000, -1.000000000000000000 ) ) ;
#40 = ORIENTED_EDGE ( 'NONE', *, *, #370, .T. ) ;
#41 = CARTESIAN_POINT ( 'NONE',  ( 2.500000000000000000, 3.061616997868383141E-16, 78.00000000000000000 ) ) ;
#42 = EDGE_LOOP ( 'NONE', ( #326, #246, #101, #303 ) ) ;
#43 = AXIS2_PLACEMENT_3D ( 'NONE', #284, #25, #135 ) ;
#44 = CIRCLE ( 'NONE', #56, 0.2999999999999999334 ) ;
#45 = CARTESIAN_POINT ( 'NONE',  ( 0.000000000000000000, 0.000000000000000000, 0.000000000000000000 ) ) ;
#46 = CALENDAR_DATE ( 2022, 8, 7 ) ;
#47 = CARTESIAN_POINT ( 'NONE',  ( 0.000000000000000000, 0.000000000000000000, 78.00000000000000000 ) ) ;
#48 = CIRCLE ( 'NONE', #237, 5.000000000000000000 ) ;
#49 = LINE ( 'NONE', #187, #362 ) ;
#50 = FACE_OUTER_BOUND ( 'NONE', #295, .T. ) ;
#51 = PERSON_AND_ORGANIZATION ( #256, #177 ) ;
#52 = DIRECTION ( 'NONE',  ( 0.000000000000000000, 0.000000000000000000, 1.000000000000000000 ) ) ;
#53 = CIRCLE ( 'NONE', #147, 0.2999999999999999334 ) ;
#54 = DESIGN_CONTEXT ( 'detailed design', #270, 'design' ) ;
#55 = EDGE_CURVE ( 'NONE', #369, #212, #53, .T. ) ;
#56 = AXIS2_PLACEMENT_3D ( 'NONE', #142, #231, #140 ) ;
#57 = EDGE_CURVE ( 'NONE', #93, #249, #78, .T. ) ;
#58 = AXIS2_PLACEMENT_3D ( 'NONE', #47, #52, #223 ) ;
#59 = CARTESIAN_POINT ( 'NONE',  ( 5.000000000000000000, 6.123233995736766282E-16, 0.000000000000000000 ) ) ;
#60 = CC_DESIGN_PERSON_AND_ORGANIZATION_ASSIGNMENT ( #274, #14, ( #17 ) ) ;
#61 = CYLINDRICAL_SURFACE ( 'NONE', #226, 5.000000000000000000 ) ;
#62 = CC_DESIGN_SECURITY_CLASSIFICATION ( #296, ( #80 ) ) ;
#63 = FACE_BOUND ( 'NONE', #65, .T. ) ;
#64 = DIRECTION ( 'NONE',  ( 1.000000000000000000, 0.000000000000000000, 0.000000000000000000 ) ) ;
#65 = EDGE_LOOP ( 'NONE', ( #299, #87 ) ) ;
#66 = CYLINDRICAL_SURFACE ( 'NONE', #312, 2.500000000000000000 ) ;
#67 = CARTESIAN_POINT ( 'NONE',  ( 1.500000000000000222, 1.836970198721030181E-16, 78.00000000000000000 ) ) ;
#68 = ORIENTED_EDGE ( 'NONE', *, *, #283, .T. ) ;
#69 = DIRECTION ( 'NONE',  ( -1.000000000000000000, 0.000000000000000000, 0.000000000000000000 ) ) ;
#70 = CIRCLE ( 'NONE', #162, 5.000000000000000000 ) ;
#71 =( NAMED_UNIT ( * ) PLANE_ANGLE_UNIT ( ) SI_UNIT ( $, .RADIAN. ) );
#72 = ORIENTED_EDGE ( 'NONE', *, *, #103, .F. ) ;
#73 = AXIS2_PLACEMENT_3D ( 'NONE', #90, #355, #173 ) ;
#74 = DIRECTION ( 'NONE',  ( -1.000000000000000000, 1.224646799147353207E-16, 0.000000000000000000 ) ) ;
#75 = PERSON_AND_ORGANIZATION_ROLE ( 'design_owner' ) ;
#76 = ORIENTED_EDGE ( 'NONE', *, *, #20, .F. ) ;
#77 = EDGE_CURVE ( 'NONE', #217, #123, #288, .T. ) ;
#78 = CIRCLE ( 'NONE', #268, 2.500000000000000000 ) ;
#79 = ORIENTED_EDGE ( 'NONE', *, *, #57, .F. ) ;
#80 = PRODUCT_DEFINITION_FORMATION_WITH_SPECIFIED_SOURCE ( 'LIBOVOLNÝ', '', #325, .NOT_KNOWN. ) ;
#81 = ORIENTED_EDGE ( 'NONE', *, *, #57, .T. ) ;
#82 = DATE_AND_TIME ( #24, #2 ) ;
#83 = PERSON_AND_ORGANIZATION_ROLE ( 'creator' ) ;
#84 = APPROVAL ( #151, 'NEURÈENÝ' ) ;
#85 = ADVANCED_FACE ( 'NONE', ( #277, #107 ), #21, .T. ) ;
#86 = APPROVAL_ROLE ( '' ) ;
#87 = ORIENTED_EDGE ( 'NONE', *, *, #257, .F. ) ;
#88 = DIRECTION ( 'NONE',  ( 0.000000000000000000, 0.000000000000000000, 1.000000000000000000 ) ) ;
#89 = ADVANCED_FACE ( 'NONE', ( #50 ), #341, .F. ) ;
#90 = CARTESIAN_POINT ( 'NONE',  ( 0.000000000000000000, 0.000000000000000000, 78.00000000000000000 ) ) ;
#91 = CIRCLE ( 'NONE', #136, 2.500000000000000000 ) ;
#92 = CARTESIAN_POINT ( 'NONE',  ( -2.799999999999999822, 3.429011037612589276E-16, 2.999999999999998668 ) ) ;
#93 = VERTEX_POINT ( 'NONE', #221 ) ;
#94 = CARTESIAN_POINT ( 'NONE',  ( 0.000000000000000000, 0.000000000000000000, 3.000000000000000000 ) ) ;
#95 = EDGE_LOOP ( 'NONE', ( #185, #323 ) ) ;
#96 = DIRECTION ( 'NONE',  ( -0.000000000000000000, -0.000000000000000000, -1.000000000000000000 ) ) ;
#97 = ORIENTED_EDGE ( 'NONE', *, *, #171, .F. ) ;
#98 = DIRECTION ( 'NONE',  ( -0.000000000000000000, -0.000000000000000000, -1.000000000000000000 ) ) ;
#99 = CC_DESIGN_DATE_AND_TIME_ASSIGNMENT ( #132, #224, ( #296 ) ) ;
#100 = APPROVAL_DATE_TIME ( #368, #84 ) ;
#101 = ORIENTED_EDGE ( 'NONE', *, *, #20, .T. ) ;
#102 = DIRECTION ( 'NONE',  ( 1.000000000000000000, 0.000000000000000000, 0.000000000000000000 ) ) ;
#103 = EDGE_CURVE ( 'NONE', #123, #146, #319, .T. ) ;
#104 = ORIENTED_EDGE ( 'NONE', *, *, #235, .T. ) ;
#105 = AXIS2_PLACEMENT_3D ( 'NONE', #116, #96, #145 ) ;
#106 = DIRECTION ( 'NONE',  ( 0.000000000000000000, 0.000000000000000000, 1.000000000000000000 ) ) ;
#107 = FACE_OUTER_BOUND ( 'NONE', #337, .T. ) ;
#108 = CARTESIAN_POINT ( 'NONE',  ( -1.500000000000000222, 0.000000000000000000, 78.00000000000000000 ) ) ;
#109 = APPROVAL_PERSON_ORGANIZATION ( #137, #332, #86 ) ;
#110 = DIRECTION ( 'NONE',  ( 1.224646799147353207E-16, 1.000000000000000000, -0.000000000000000000 ) ) ;
#111 = PERSON_AND_ORGANIZATION_ROLE ( 'classification_officer' ) ;
#112 = CC_DESIGN_PERSON_AND_ORGANIZATION_ASSIGNMENT ( #316, #83, ( #80 ) ) ;
#113 = CARTESIAN_POINT ( 'NONE',  ( 0.000000000000000000, 0.000000000000000000, 3.000000000000000000 ) ) ;
#114 = DIRECTION ( 'NONE',  ( -1.000000000000000000, 0.000000000000000000, 0.000000000000000000 ) ) ;
#115 = EDGE_CURVE ( 'NONE', #38, #139, #182, .T. ) ;
#116 = CARTESIAN_POINT ( 'NONE',  ( 0.000000000000000000, 0.000000000000000000, 0.000000000000000000 ) ) ;
#117 = DIRECTION ( 'NONE',  ( -1.000000000000000000, 0.000000000000000000, 0.000000000000000000 ) ) ;
#118 = ORIENTED_EDGE ( 'NONE', *, *, #318, .T. ) ;
#119 = CARTESIAN_POINT ( 'NONE',  ( 0.000000000000000000, 0.000000000000000000, 0.000000000000000000 ) ) ;
#120 = AXIS2_PLACEMENT_3D ( 'NONE', #131, #106, #346 ) ;
#121 = EDGE_LOOP ( 'NONE', ( #367, #76 ) ) ;
#122 = CC_DESIGN_DATE_AND_TIME_ASSIGNMENT ( #163, #220, ( #17 ) ) ;
#123 = VERTEX_POINT ( 'NONE', #108 ) ;
#124 = DIRECTION ( 'NONE',  ( 1.000000000000000000, 0.000000000000000000, -0.000000000000000000 ) ) ;
#125 = ORIENTED_EDGE ( 'NONE', *, *, #252, .T. ) ;
#126 = COORDINATED_UNIVERSAL_TIME_OFFSET ( 1, 0, .AHEAD. ) ;
#127 = ORIENTED_EDGE ( 'NONE', *, *, #115, .T. ) ;
#128 = ORIENTED_EDGE ( 'NONE', *, *, #26, .F. ) ;
#129 = CIRCLE ( 'NONE', #11, 2.500000000000000000 ) ;
#130 = EDGE_CURVE ( 'NONE', #369, #152, #229, .T. ) ;
#131 = CARTESIAN_POINT ( 'NONE',  ( 0.000000000000000000, 0.000000000000000000, 3.000000000000000000 ) ) ;
#132 = DATE_AND_TIME ( #343, #28 ) ;
#133 = EDGE_CURVE ( 'NONE', #123, #217, #344, .T. ) ;
#134 = CARTESIAN_POINT ( 'NONE',  ( 0.000000000000000000, 0.000000000000000000, 3.299999999999997158 ) ) ;
#135 = DIRECTION ( 'NONE',  ( 1.000000000000000000, 0.000000000000000000, 0.000000000000000000 ) ) ;
#136 = AXIS2_PLACEMENT_3D ( 'NONE', #6, #320, #33 ) ;
#137 = PERSON_AND_ORGANIZATION ( #256, #177 ) ;
#138 = LOCAL_TIME ( 17, 46, 8.000000000000000000, #314 ) ;
#139 = VERTEX_POINT ( 'NONE', #1 ) ;
#140 = DIRECTION ( 'NONE',  ( 0.000000000000000000, 0.000000000000000000, -1.000000000000000000 ) ) ;
#141 = FACE_OUTER_BOUND ( 'NONE', #209, .T. ) ;
#142 = CARTESIAN_POINT ( 'NONE',  ( 2.799999999999999822, 0.000000000000000000, 3.299999999999997158 ) ) ;
#143 = TOROIDAL_SURFACE ( 'NONE', #356, 2.799999999999999822, 0.2999999999999999889 ) ;
#144 = ORIENTED_EDGE ( 'NONE', *, *, #130, .F. ) ;
#145 = DIRECTION ( 'NONE',  ( 1.000000000000000000, 0.000000000000000000, 0.000000000000000000 ) ) ;
#146 = VERTEX_POINT ( 'NONE', #254 ) ;
#147 = AXIS2_PLACEMENT_3D ( 'NONE', #313, #110, #74 ) ;
#148 = ORIENTED_EDGE ( 'NONE', *, *, #164, .F. ) ;
#149 = DIRECTION ( 'NONE',  ( 0.000000000000000000, 0.000000000000000000, 1.000000000000000000 ) ) ;
#150 = VERTEX_POINT ( 'NONE', #59 ) ;
#151 = APPROVAL_STATUS ( 'not_yet_approved' ) ;
#152 = VERTEX_POINT ( 'NONE', #168 ) ;
#153 = MECHANICAL_CONTEXT ( 'NONE', #175, 'mechanical' ) ;
#154 = EDGE_LOOP ( 'NONE', ( #244, #81 ) ) ;
#155 = DIRECTION ( 'NONE',  ( 0.000000000000000000, 0.000000000000000000, 1.000000000000000000 ) ) ;
#156 = DIRECTION ( 'NONE',  ( 0.000000000000000000, 0.000000000000000000, 1.000000000000000000 ) ) ;
#157 = AXIS2_PLACEMENT_3D ( 'NONE', #310, #98, #69 ) ;
#158 = DIRECTION ( 'NONE',  ( 1.000000000000000000, 0.000000000000000000, 0.000000000000000000 ) ) ;
#159 = DATE_AND_TIME ( #287, #138 ) ;
#160 = APPROVAL ( #199, 'NEURÈENÝ' ) ;
#161 = DIRECTION ( 'NONE',  ( 0.000000000000000000, 0.000000000000000000, 1.000000000000000000 ) ) ;
#162 = AXIS2_PLACEMENT_3D ( 'NONE', #339, #156, #251 ) ;
#163 = DATE_AND_TIME ( #46, #198 ) ;
#164 = EDGE_CURVE ( 'NONE', #212, #267, #253, .T. ) ;
#165 = AXIS2_PLACEMENT_3D ( 'NONE', #113, #88, #202 ) ;
#166 = ADVANCED_FACE ( 'NONE', ( #353 ), #298, .F. ) ;
#167 = AXIS2_PLACEMENT_3D ( 'NONE', #250, #379, #158 ) ;
#168 = CARTESIAN_POINT ( 'NONE',  ( 2.500000000000000000, 3.061616997868383141E-16, 3.299999999999997158 ) ) ;
#169 = AXIS2_PLACEMENT_3D ( 'NONE', #247, #149, #124 ) ;
#170 = CARTESIAN_POINT ( 'NONE',  ( 0.000000000000000000, 0.000000000000000000, 3.000000000000000000 ) ) ;
#171 = EDGE_CURVE ( 'NONE', #267, #212, #203, .T. ) ;
#172 = LINE ( 'NONE', #67, #357 ) ;
#173 = DIRECTION ( 'NONE',  ( -1.000000000000000000, 0.000000000000000000, 0.000000000000000000 ) ) ;
#174 = VERTEX_POINT ( 'NONE', #228 ) ;
#175 = APPLICATION_CONTEXT ( 'configuration controlled 3d designs of mechanical parts and assemblies' ) ;
#176 = CYLINDRICAL_SURFACE ( 'NONE', #240, 5.000000000000000000 ) ;
#177 = ORGANIZATION ( 'NEURÈENÝ', 'NEURÈENÝ', '' ) ;
#178 = ORIENTED_EDGE ( 'NONE', *, *, #361, .T. ) ;
#179 = FACE_OUTER_BOUND ( 'NONE', #206, .T. ) ;
#180 = ORIENTED_EDGE ( 'NONE', *, *, #30, .T. ) ;
#181 = DIRECTION ( 'NONE',  ( 0.000000000000000000, 0.000000000000000000, 1.000000000000000000 ) ) ;
#182 = CIRCLE ( 'NONE', #23, 5.000000000000000000 ) ;
#183 = EDGE_LOOP ( 'NONE', ( #128, #273, #104, #180 ) ) ;
#184 = APPROVAL_PERSON_ORGANIZATION ( #51, #160, #197 ) ;
#185 = ORIENTED_EDGE ( 'NONE', *, *, #171, .T. ) ;
#186 = FACE_OUTER_BOUND ( 'NONE', #154, .T. ) ;
#187 = CARTESIAN_POINT ( 'NONE',  ( 5.000000000000000000, 6.123233995736766282E-16, 3.000000000000000000 ) ) ;
#188 =( NAMED_UNIT ( * ) SI_UNIT ( $, .STERADIAN. ) SOLID_ANGLE_UNIT ( ) );
#189 = CARTESIAN_POINT ( 'NONE',  ( 0.000000000000000000, 0.000000000000000000, 0.000000000000000000 ) ) ;
#190 = ADVANCED_FACE ( 'NONE', ( #4 ), #176, .T. ) ;
#191 = DIRECTION ( 'NONE',  ( 0.000000000000000000, 0.000000000000000000, 1.000000000000000000 ) ) ;
#192 = ORIENTED_EDGE ( 'NONE', *, *, #133, .F. ) ;
#193 = AXIS2_PLACEMENT_3D ( 'NONE', #260, #291, #208 ) ;
#194 = DIRECTION ( 'NONE',  ( 1.000000000000000000, 0.000000000000000000, 0.000000000000000000 ) ) ;
#195 = PERSON_AND_ORGANIZATION ( #256, #177 ) ;
#196 = ADVANCED_FACE ( 'NONE', ( #141 ), #66, .T. ) ;
#197 = APPROVAL_ROLE ( '' ) ;
#198 = LOCAL_TIME ( 17, 46, 8.000000000000000000, #126 ) ;
#199 = APPROVAL_STATUS ( 'not_yet_approved' ) ;
#200 = CARTESIAN_POINT ( 'NONE',  ( 5.000000000000000000, 6.123233995736766282E-16, 3.000000000000000000 ) ) ;
#201 = VECTOR ( 'NONE', #345, 1000.000000000000000 ) ;
#202 = DIRECTION ( 'NONE',  ( 1.000000000000000000, 0.000000000000000000, 0.000000000000000000 ) ) ;
#203 = CIRCLE ( 'NONE', #263, 2.799999999999999822 ) ;
#204 = CARTESIAN_POINT ( 'NONE',  ( 0.000000000000000000, 0.000000000000000000, 0.000000000000000000 ) ) ;
#205 = DIRECTION ( 'NONE',  ( -0.000000000000000000, -0.000000000000000000, -1.000000000000000000 ) ) ;
#206 = EDGE_LOOP ( 'NONE', ( #213, #68, #315, #72 ) ) ;
#207 = CLOSED_SHELL ( 'NONE', ( #293, #354, #196, #327, #190, #85, #242, #352, #348, #89, #166 ) ) ;
#208 = DIRECTION ( 'NONE',  ( 1.000000000000000000, 0.000000000000000000, 0.000000000000000000 ) ) ;
#209 = EDGE_LOOP ( 'NONE', ( #79, #40, #118, #306 ) ) ;
#210 = CARTESIAN_POINT ( 'NONE',  ( -5.000000000000000000, 0.000000000000000000, 0.000000000000000000 ) ) ;
#211 = PERSON_AND_ORGANIZATION ( #256, #177 ) ;
#212 = VERTEX_POINT ( 'NONE', #92 ) ;
#213 = ORIENTED_EDGE ( 'NONE', *, *, #133, .T. ) ;
#214 = PERSON_AND_ORGANIZATION ( #256, #177 ) ;
#215 = LOCAL_TIME ( 17, 46, 8.000000000000000000, #12 ) ;
#216 = ORIENTED_EDGE ( 'NONE', *, *, #370, .F. ) ;
#217 = VERTEX_POINT ( 'NONE', #7 ) ;
#218 = LINE ( 'NONE', #41, #31 ) ;
#219 = DIRECTION ( 'NONE',  ( 0.000000000000000000, 0.000000000000000000, 1.000000000000000000 ) ) ;
#220 = DATE_TIME_ROLE ( 'creation_date' ) ;
#221 = CARTESIAN_POINT ( 'NONE',  ( 2.500000000000000000, 3.061616997868383141E-16, 78.00000000000000000 ) ) ;
#222 = APPROVAL_PERSON_ORGANIZATION ( #211, #84, #308 ) ;
#223 = DIRECTION ( 'NONE',  ( 1.000000000000000000, 0.000000000000000000, 0.000000000000000000 ) ) ;
#224 = DATE_TIME_ROLE ( 'classification_date' ) ;
#225 = APPROVAL_STATUS ( 'not_yet_approved' ) ;
#226 = AXIS2_PLACEMENT_3D ( 'NONE', #170, #205, #322 ) ;
#227 = PERSON_AND_ORGANIZATION_ROLE ( 'design_supplier' ) ;
#228 = CARTESIAN_POINT ( 'NONE',  ( 1.500000000000000222, 1.836970198721030181E-16, 0.000000000000000000 ) ) ;
#229 = CIRCLE ( 'NONE', #282, 2.500000000000000000 ) ;
#230 = PRODUCT_RELATED_PRODUCT_CATEGORY ( 'detail', '', ( #325 ) ) ;
#231 = DIRECTION ( 'NONE',  ( 0.000000000000000000, -1.000000000000000000, 0.000000000000000000 ) ) ;
#232 = AXIS2_PLACEMENT_3D ( 'NONE', #119, #262, #234 ) ;
#233 = CARTESIAN_POINT ( 'NONE',  ( 0.000000000000000000, 0.000000000000000000, 3.000000000000000000 ) ) ;
#234 = DIRECTION ( 'NONE',  ( 1.000000000000000000, 0.000000000000000000, -0.000000000000000000 ) ) ;
#235 = EDGE_CURVE ( 'NONE', #139, #279, #324, .T. ) ;
#236 = ORIENTED_EDGE ( 'NONE', *, *, #103, .T. ) ;
#237 = AXIS2_PLACEMENT_3D ( 'NONE', #189, #281, #289 ) ;
#238 = DIRECTION ( 'NONE',  ( -0.000000000000000000, -0.000000000000000000, -1.000000000000000000 ) ) ;
#239 = DIRECTION ( 'NONE',  ( -0.000000000000000000, -0.000000000000000000, -1.000000000000000000 ) ) ;
#240 = AXIS2_PLACEMENT_3D ( 'NONE', #233, #39, #114 ) ;
#241 = EDGE_LOOP ( 'NONE', ( #216, #333, #178, #330 ) ) ;
#242 = ADVANCED_FACE ( 'NONE', ( #63, #329 ), #321, .F. ) ;
#243 = CALENDAR_DATE ( 2022, 8, 7 ) ;
#244 = ORIENTED_EDGE ( 'NONE', *, *, #378, .T. ) ;
#245 = CARTESIAN_POINT ( 'NONE',  ( 0.000000000000000000, 0.000000000000000000, 3.299999999999997158 ) ) ;
#246 = ORIENTED_EDGE ( 'NONE', *, *, #26, .T. ) ;
#247 = CARTESIAN_POINT ( 'NONE',  ( 0.000000000000000000, 0.000000000000000000, 78.00000000000000000 ) ) ;
#248 = VECTOR ( 'NONE', #239, 1000.000000000000000 ) ;
#249 = VERTEX_POINT ( 'NONE', #32 ) ;
#250 = CARTESIAN_POINT ( 'NONE',  ( 0.000000000000000000, 0.000000000000000000, 3.299999999999997158 ) ) ;
#251 = DIRECTION ( 'NONE',  ( 1.000000000000000000, 0.000000000000000000, 0.000000000000000000 ) ) ;
#252 = EDGE_CURVE ( 'NONE', #152, #267, #44, .T. ) ;
#253 = CIRCLE ( 'NONE', #193, 2.799999999999999822 ) ;
#254 = CARTESIAN_POINT ( 'NONE',  ( -1.500000000000000222, 0.000000000000000000, 0.000000000000000000 ) ) ;
#255 = CIRCLE ( 'NONE', #165, 5.000000000000000000 ) ;
#256 = PERSON ( 'NEURÈENÝ', 'NEURÈENÝ', 'NEURÈENÝ', ('NEURÈENÝ'), ('NEURÈENÝ'), ('NEURÈENÝ') ) ;
#257 = EDGE_CURVE ( 'NONE', #174, #146, #286, .T. ) ;
#258 = AXIS2_PLACEMENT_3D ( 'NONE', #45, #191, #102 ) ;
#259 = DIRECTION ( 'NONE',  ( -0.000000000000000000, -0.000000000000000000, -1.000000000000000000 ) ) ;
#260 = CARTESIAN_POINT ( 'NONE',  ( 0.000000000000000000, 0.000000000000000000, 3.000000000000000000 ) ) ;
#261 = EDGE_CURVE ( 'NONE', #146, #174, #290, .T. ) ;
#262 = DIRECTION ( 'NONE',  ( 0.000000000000000000, 0.000000000000000000, 1.000000000000000000 ) ) ;
#263 = AXIS2_PLACEMENT_3D ( 'NONE', #94, #266, #64 ) ;
#264 = CARTESIAN_POINT ( 'NONE',  ( 0.000000000000000000, 0.000000000000000000, 78.00000000000000000 ) ) ;
#265 = PRODUCT_DEFINITION_SHAPE ( 'NONE', 'NONE',  #17 ) ;
#266 = DIRECTION ( 'NONE',  ( -0.000000000000000000, -0.000000000000000000, -1.000000000000000000 ) ) ;
#267 = VERTEX_POINT ( 'NONE', #364 ) ;
#268 = AXIS2_PLACEMENT_3D ( 'NONE', #307, #309, #194 ) ;
#269 = APPLICATION_PROTOCOL_DEFINITION ( 'international standard', 'config_control_design', 1994, #175 ) ;
#270 = APPLICATION_CONTEXT ( 'configuration controlled 3d designs of mechanical parts and assemblies' ) ;
#271 = ORIENTED_EDGE ( 'NONE', *, *, #252, .F. ) ;
#272 = DIRECTION ( 'NONE',  ( -0.000000000000000000, -0.000000000000000000, -1.000000000000000000 ) ) ;
#273 = ORIENTED_EDGE ( 'NONE', *, *, #311, .F. ) ;
#274 = PERSON_AND_ORGANIZATION ( #256, #177 ) ;
#275 = ORIENTED_EDGE ( 'NONE', *, *, #261, .T. ) ;
#276 = LINE ( 'NONE', #371, #248 ) ;
#277 = FACE_BOUND ( 'NONE', #95, .T. ) ;
#278 = AXIS2_PLACEMENT_3D ( 'NONE', #264, #300, #34 ) ;
#279 = VERTEX_POINT ( 'NONE', #210 ) ;
#280 = SECURITY_CLASSIFICATION_LEVEL ( 'unclassified' ) ;
#281 = DIRECTION ( 'NONE',  ( 0.000000000000000000, 0.000000000000000000, 1.000000000000000000 ) ) ;
#282 = AXIS2_PLACEMENT_3D ( 'NONE', #134, #161, #29 ) ;
#283 = EDGE_CURVE ( 'NONE', #217, #174, #172, .T. ) ;
#284 = CARTESIAN_POINT ( 'NONE',  ( 0.000000000000000000, 0.000000000000000000, 78.00000000000000000 ) ) ;
#285 = UNCERTAINTY_MEASURE_WITH_UNIT (LENGTH_MEASURE( 1.000000000000000082E-05 ), #336, 'distance_accuracy_value', 'NONE');
#286 = CIRCLE ( 'NONE', #328, 1.500000000000000222 ) ;
#287 = CALENDAR_DATE ( 2022, 8, 7 ) ;
#288 = CIRCLE ( 'NONE', #58, 1.500000000000000222 ) ;
#289 = DIRECTION ( 'NONE',  ( 1.000000000000000000, 0.000000000000000000, 0.000000000000000000 ) ) ;
#290 = CIRCLE ( 'NONE', #105, 1.500000000000000222 ) ;
#291 = DIRECTION ( 'NONE',  ( -0.000000000000000000, -0.000000000000000000, -1.000000000000000000 ) ) ;
#292 = CYLINDRICAL_SURFACE ( 'NONE', #278, 1.500000000000000222 ) ;
#293 = ADVANCED_FACE ( 'NONE', ( #179 ), #292, .F. ) ;
#294 = CARTESIAN_POINT ( 'NONE',  ( 0.000000000000000000, 0.000000000000000000, 78.00000000000000000 ) ) ;
#295 = EDGE_LOOP ( 'NONE', ( #301, #15, #125, #148 ) ) ;
#296 = SECURITY_CLASSIFICATION ( '', '', #280 ) ;
#297 = CC_DESIGN_PERSON_AND_ORGANIZATION_ASSIGNMENT ( #27, #111, ( #296 ) ) ;
#298 = CYLINDRICAL_SURFACE ( 'NONE', #73, 1.500000000000000222 ) ;
#299 = ORIENTED_EDGE ( 'NONE', *, *, #261, .F. ) ;
#300 = DIRECTION ( 'NONE',  ( 0.000000000000000000, 0.000000000000000000, -1.000000000000000000 ) ) ;
#301 = ORIENTED_EDGE ( 'NONE', *, *, #55, .F. ) ;
#302 = CARTESIAN_POINT ( 'NONE',  ( -2.500000000000000000, 0.000000000000000000, 3.299999999999997158 ) ) ;
#303 = ORIENTED_EDGE ( 'NONE', *, *, #235, .F. ) ;
#304 = APPLICATION_PROTOCOL_DEFINITION ( 'international standard', 'config_control_design', 1994, #270 ) ;
#305 = VECTOR ( 'NONE', #259, 1000.000000000000000 ) ;
#306 = ORIENTED_EDGE ( 'NONE', *, *, #361, .F. ) ;
#307 = CARTESIAN_POINT ( 'NONE',  ( 0.000000000000000000, 0.000000000000000000, 78.00000000000000000 ) ) ;
#308 = APPROVAL_ROLE ( '' ) ;
#309 = DIRECTION ( 'NONE',  ( 0.000000000000000000, 0.000000000000000000, 1.000000000000000000 ) ) ;
#310 = CARTESIAN_POINT ( 'NONE',  ( 0.000000000000000000, 0.000000000000000000, 78.00000000000000000 ) ) ;
#311 = EDGE_CURVE ( 'NONE', #139, #38, #255, .T. ) ;
#312 = AXIS2_PLACEMENT_3D ( 'NONE', #294, #238, #117 ) ;
#313 = CARTESIAN_POINT ( 'NONE',  ( -2.799999999999999822, 3.429011037612588783E-16, 3.299999999999997158 ) ) ;
#314 = COORDINATED_UNIVERSAL_TIME_OFFSET ( 1, 0, .AHEAD. ) ;
#315 = ORIENTED_EDGE ( 'NONE', *, *, #257, .T. ) ;
#316 = PERSON_AND_ORGANIZATION ( #256, #177 ) ;
#317 = COORDINATED_UNIVERSAL_TIME_OFFSET ( 1, 0, .AHEAD. ) ;
#318 = EDGE_CURVE ( 'NONE', #152, #369, #91, .T. ) ;
#319 = LINE ( 'NONE', #377, #201 ) ;
#320 = DIRECTION ( 'NONE',  ( 0.000000000000000000, 0.000000000000000000, 1.000000000000000000 ) ) ;
#321 = PLANE ( 'NONE',  #232 ) ;
#322 = DIRECTION ( 'NONE',  ( -1.000000000000000000, 0.000000000000000000, 0.000000000000000000 ) ) ;
#323 = ORIENTED_EDGE ( 'NONE', *, *, #164, .T. ) ;
#324 = LINE ( 'NONE', #5, #305 ) ;
#325 = PRODUCT ( '6554', '6554', '', ( #153 ) ) ;
#326 = ORIENTED_EDGE ( 'NONE', *, *, #115, .F. ) ;
#327 = ADVANCED_FACE ( 'NONE', ( #360 ), #61, .T. ) ;
#328 = AXIS2_PLACEMENT_3D ( 'NONE', #204, #37, #358 ) ;
#329 = FACE_OUTER_BOUND ( 'NONE', #121, .T. ) ;
#330 = ORIENTED_EDGE ( 'NONE', *, *, #130, .T. ) ;
#331 = FACE_BOUND ( 'NONE', #365, .T. ) ;
#332 = APPROVAL ( #225, 'NEURÈENÝ' ) ;
#333 = ORIENTED_EDGE ( 'NONE', *, *, #378, .F. ) ;
#334 = DIRECTION ( 'NONE',  ( 1.000000000000000000, 0.000000000000000000, 0.000000000000000000 ) ) ;
#335 = ORIENTED_EDGE ( 'NONE', *, *, #55, .T. ) ;
#336 =( LENGTH_UNIT ( ) NAMED_UNIT ( * ) SI_UNIT ( .MILLI., .METRE. ) );
#337 = EDGE_LOOP ( 'NONE', ( #10, #127 ) ) ;
#338 = DIRECTION ( 'NONE',  ( 1.000000000000000000, 0.000000000000000000, 0.000000000000000000 ) ) ;
#339 = CARTESIAN_POINT ( 'NONE',  ( 0.000000000000000000, 0.000000000000000000, 0.000000000000000000 ) ) ;
#340 = CARTESIAN_POINT ( 'NONE',  ( 0.000000000000000000, 0.000000000000000000, 78.00000000000000000 ) ) ;
#341 = TOROIDAL_SURFACE ( 'NONE', #167, 2.799999999999999822, 0.2999999999999999889 ) ;
#342 = EDGE_LOOP ( 'NONE', ( #8, #363, #236, #275 ) ) ;
#343 = CALENDAR_DATE ( 2022, 8, 7 ) ;
#344 = CIRCLE ( 'NONE', #43, 1.500000000000000222 ) ;
#345 = DIRECTION ( 'NONE',  ( 0.000000000000000000, 0.000000000000000000, -1.000000000000000000 ) ) ;
#346 = DIRECTION ( 'NONE',  ( 1.000000000000000000, 0.000000000000000000, -0.000000000000000000 ) ) ;
#347 = SHAPE_DEFINITION_REPRESENTATION ( #265, #366 ) ;
#348 = ADVANCED_FACE ( 'NONE', ( #331, #186 ), #9, .T. ) ;
#349 = APPROVAL_DATE_TIME ( #82, #332 ) ;
#350 = CC_DESIGN_APPROVAL ( #332, ( #296 ) ) ;
#351 = APPROVAL_DATE_TIME ( #159, #160 ) ;
#352 = ADVANCED_FACE ( 'NONE', ( #16 ), #19, .T. ) ;
#353 = FACE_OUTER_BOUND ( 'NONE', #342, .T. ) ;
#354 = ADVANCED_FACE ( 'NONE', ( #375 ), #143, .F. ) ;
#355 = DIRECTION ( 'NONE',  ( 0.000000000000000000, 0.000000000000000000, -1.000000000000000000 ) ) ;
#356 = AXIS2_PLACEMENT_3D ( 'NONE', #245, #181, #334 ) ;
#357 = VECTOR ( 'NONE', #3, 1000.000000000000000 ) ;
#358 = DIRECTION ( 'NONE',  ( 1.000000000000000000, 0.000000000000000000, 0.000000000000000000 ) ) ;
#359 = CC_DESIGN_PERSON_AND_ORGANIZATION_ASSIGNMENT ( #214, #75, ( #325 ) ) ;
#360 = FACE_OUTER_BOUND ( 'NONE', #42, .T. ) ;
#361 = EDGE_CURVE ( 'NONE', #249, #369, #276, .T. ) ;
#362 = VECTOR ( 'NONE', #373, 1000.000000000000000 ) ;
#363 = ORIENTED_EDGE ( 'NONE', *, *, #77, .T. ) ;
#364 = CARTESIAN_POINT ( 'NONE',  ( 2.799999999999999822, 0.000000000000000000, 2.999999999999998668 ) ) ;
#365 = EDGE_LOOP ( 'NONE', ( #192, #36 ) ) ;
#366 = ADVANCED_BREP_SHAPE_REPRESENTATION ( '6554', ( #372, #258 ), #18 ) ;
#367 = ORIENTED_EDGE ( 'NONE', *, *, #30, .F. ) ;
#368 = DATE_AND_TIME ( #243, #215 ) ;
#369 = VERTEX_POINT ( 'NONE', #302 ) ;
#370 = EDGE_CURVE ( 'NONE', #93, #152, #218, .T. ) ;
#371 = CARTESIAN_POINT ( 'NONE',  ( -2.500000000000000000, 0.000000000000000000, 78.00000000000000000 ) ) ;
#372 = MANIFOLD_SOLID_BREP ( 'Odebrat vysunutím3', #207 ) ;
#373 = DIRECTION ( 'NONE',  ( -0.000000000000000000, -0.000000000000000000, -1.000000000000000000 ) ) ;
#374 = CC_DESIGN_APPROVAL ( #84, ( #17 ) ) ;
#375 = FACE_OUTER_BOUND ( 'NONE', #13, .T. ) ;
#376 = CC_DESIGN_PERSON_AND_ORGANIZATION_ASSIGNMENT ( #195, #227, ( #80 ) ) ;
#377 = CARTESIAN_POINT ( 'NONE',  ( -1.500000000000000222, 0.000000000000000000, 78.00000000000000000 ) ) ;
#378 = EDGE_CURVE ( 'NONE', #249, #93, #129, .T. ) ;
#379 = DIRECTION ( 'NONE',  ( 0.000000000000000000, 0.000000000000000000, 1.000000000000000000 ) ) ;
#380 = COORDINATED_UNIVERSAL_TIME_OFFSET ( 1, 0, .AHEAD. ) ;
#381 = CARTESIAN_POINT ( 'NONE',  ( 0.000000000000000000, 0.000000000000000000, 3.000000000000000000 ) ) ;
ENDSEC;
END-ISO-10303-21;
