ISO-10303-21;
HEADER;
FILE_DESCRIPTION (( 'STEP AP203' ),
    '1' );
FILE_NAME ('341d.STEP',
    '2022-07-08T15:16:53',
    ( '' ),
    ( '' ),
    'SwSTEP 2.0',
    'SolidWorks 2019',
    '' );
FILE_SCHEMA (( 'CONFIG_CONTROL_DESIGN' ));
ENDSEC;

DATA;
#1 = CC_DESIGN_PERSON_AND_ORGANIZATION_ASSIGNMENT ( #110, #337, ( #92 ) ) ;
#2 = ORIENTED_EDGE ( 'NONE', *, *, #381, .T. ) ;
#3 = FACE_OUTER_BOUND ( 'NONE', #85, .T. ) ;
#4 = VERTEX_POINT ( 'NONE', #222 ) ;
#5 = PERSON_AND_ORGANIZATION ( #366, #191 ) ;
#6 = ORIENTED_EDGE ( 'NONE', *, *, #290, .T. ) ;
#7 = CIRCLE ( 'NONE', #32, 8.000000000000000000 ) ;
#8 = APPROVAL ( #125, 'NEURÈENÝ' ) ;
#9 = DIRECTION ( 'NONE',  ( 1.000000000000000000, 0.000000000000000000, 0.000000000000000000 ) ) ;
#10 = CARTESIAN_POINT ( 'NONE',  ( 0.000000000000000000, 0.000000000000000000, 5.500000000000005329 ) ) ;
#11 = ORIENTED_EDGE ( 'NONE', *, *, #131, .T. ) ;
#12 = LOCAL_TIME ( 17, 16, 53.00000000000000000, #53 ) ;
#13 = CARTESIAN_POINT ( 'NONE',  ( 0.000000000000000000, 0.000000000000000000, 180.0000000000000000 ) ) ;
#14 = VECTOR ( 'NONE', #193, 1000.000000000000000 ) ;
#15 = FACE_BOUND ( 'NONE', #285, .T. ) ;
#16 = DIRECTION ( 'NONE',  ( -0.000000000000000000, -0.000000000000000000, -1.000000000000000000 ) ) ;
#17 = CARTESIAN_POINT ( 'NONE',  ( -2.500000000000000000, 0.000000000000000000, 180.0000000000000000 ) ) ;
#18 = CIRCLE ( 'NONE', #320, 8.000000000000000000 ) ;
#19 = ADVANCED_FACE ( 'NONE', ( #132, #309 ), #281, .T. ) ;
#20 = ORIENTED_EDGE ( 'NONE', *, *, #189, .T. ) ;
#21 = FACE_OUTER_BOUND ( 'NONE', #217, .T. ) ;
#22 = DIRECTION ( 'NONE',  ( -0.000000000000000000, -0.000000000000000000, -1.000000000000000000 ) ) ;
#23 = ADVANCED_FACE ( 'NONE', ( #15, #42 ), #96, .F. ) ;
#24 = CIRCLE ( 'NONE', #111, 2.500000000000000000 ) ;
#25 = CARTESIAN_POINT ( 'NONE',  ( 0.000000000000000000, 0.000000000000000000, 180.0000000000000000 ) ) ;
#26 = DIRECTION ( 'NONE',  ( 1.000000000000000000, 0.000000000000000000, 0.000000000000000000 ) ) ;
#27 = PERSON_AND_ORGANIZATION_ROLE ( 'design_owner' ) ;
#28 = ADVANCED_FACE ( 'NONE', ( #252 ), #160, .F. ) ;
#29 = DIRECTION ( 'NONE',  ( -0.000000000000000000, -0.000000000000000000, -1.000000000000000000 ) ) ;
#30 = AXIS2_PLACEMENT_3D ( 'NONE', #66, #255, #206 ) ;
#31 = CC_DESIGN_PERSON_AND_ORGANIZATION_ASSIGNMENT ( #269, #259, ( #167 ) ) ;
#32 = AXIS2_PLACEMENT_3D ( 'NONE', #242, #114, #209 ) ;
#33 = DIRECTION ( 'NONE',  ( 1.000000000000000000, 0.000000000000000000, 0.000000000000000000 ) ) ;
#34 = CARTESIAN_POINT ( 'NONE',  ( 0.000000000000000000, 0.000000000000000000, 5.500000000000005329 ) ) ;
#35 = ORIENTED_EDGE ( 'NONE', *, *, #145, .F. ) ;
#36 = ADVANCED_FACE ( 'NONE', ( #374 ), #69, .T. ) ;
#37 = VERTEX_POINT ( 'NONE', #73 ) ;
#38 = ORIENTED_EDGE ( 'NONE', *, *, #221, .T. ) ;
#39 = UNCERTAINTY_MEASURE_WITH_UNIT (LENGTH_MEASURE( 1.000000000000000082E-05 ), #89, 'distance_accuracy_value', 'NONE');
#40 = ADVANCED_FACE ( 'NONE', ( #369 ), #72, .T. ) ;
#41 = ORIENTED_EDGE ( 'NONE', *, *, #65, .F. ) ;
#42 = FACE_OUTER_BOUND ( 'NONE', #94, .T. ) ;
#43 = TOROIDAL_SURFACE ( 'NONE', #257, 5.500000000000000000, 0.5000000000000000000 ) ;
#44 = COORDINATED_UNIVERSAL_TIME_OFFSET ( 1, 0, .AHEAD. ) ;
#45 = ORIENTED_EDGE ( 'NONE', *, *, #90, .F. ) ;
#46 = DIRECTION ( 'NONE',  ( 0.000000000000000000, 0.000000000000000000, 1.000000000000000000 ) ) ;
#47 = CARTESIAN_POINT ( 'NONE',  ( 0.000000000000000000, 0.000000000000000000, 5.000000000000000000 ) ) ;
#48 = LOCAL_TIME ( 17, 16, 53.00000000000000000, #149 ) ;
#49 = AXIS2_PLACEMENT_3D ( 'NONE', #173, #51, #76 ) ;
#50 = DIRECTION ( 'NONE',  ( -1.000000000000000000, 0.000000000000000000, 0.000000000000000000 ) ) ;
#51 = DIRECTION ( 'NONE',  ( 0.000000000000000000, -1.000000000000000000, 0.000000000000000000 ) ) ;
#52 = DIRECTION ( 'NONE',  ( -0.000000000000000000, -0.000000000000000000, -1.000000000000000000 ) ) ;
#53 = COORDINATED_UNIVERSAL_TIME_OFFSET ( 1, 0, .AHEAD. ) ;
#54 = AXIS2_PLACEMENT_3D ( 'NONE', #93, #355, #331 ) ;
#55 = DIRECTION ( 'NONE',  ( 1.000000000000000000, 0.000000000000000000, 0.000000000000000000 ) ) ;
#56 = CALENDAR_DATE ( 2022, 8, 7 ) ;
#57 = DIRECTION ( 'NONE',  ( 0.000000000000000000, 0.000000000000000000, 1.000000000000000000 ) ) ;
#58 = EDGE_LOOP ( 'NONE', ( #63, #155, #276, #360 ) ) ;
#59 = CARTESIAN_POINT ( 'NONE',  ( 0.000000000000000000, 0.000000000000000000, 5.500000000000005329 ) ) ;
#60 = ORIENTED_EDGE ( 'NONE', *, *, #90, .T. ) ;
#61 = CC_DESIGN_DATE_AND_TIME_ASSIGNMENT ( #152, #277, ( #143 ) ) ;
#62 = DIRECTION ( 'NONE',  ( 0.000000000000000000, 0.000000000000000000, 1.000000000000000000 ) ) ;
#63 = ORIENTED_EDGE ( 'NONE', *, *, #282, .T. ) ;
#64 = ORIENTED_EDGE ( 'NONE', *, *, #201, .T. ) ;
#65 = EDGE_CURVE ( 'NONE', #187, #37, #165, .T. ) ;
#66 = CARTESIAN_POINT ( 'NONE',  ( 0.000000000000000000, 0.000000000000000000, 0.000000000000000000 ) ) ;
#67 = APPROVAL ( #80, 'NEURÈENÝ' ) ;
#68 = ORIENTED_EDGE ( 'NONE', *, *, #254, .F. ) ;
#69 = CYLINDRICAL_SURFACE ( 'NONE', #376, 5.000000000000000000 ) ;
#70 = CIRCLE ( 'NONE', #197, 8.000000000000000000 ) ;
#71 = CARTESIAN_POINT ( 'NONE',  ( 8.000000000000000000, 9.797174393178825657E-16, 5.000000000000000000 ) ) ;
#72 = CYLINDRICAL_SURFACE ( 'NONE', #264, 8.000000000000000000 ) ;
#73 = CARTESIAN_POINT ( 'NONE',  ( 5.000000000000000000, 6.123233995736766282E-16, 5.500000000000005329 ) ) ;
#74 = CIRCLE ( 'NONE', #158, 5.000000000000000000 ) ;
#75 = PLANE ( 'NONE',  #351 ) ;
#76 = DIRECTION ( 'NONE',  ( 0.000000000000000000, 0.000000000000000000, -1.000000000000000000 ) ) ;
#77 = CARTESIAN_POINT ( 'NONE',  ( -8.000000000000000000, 0.000000000000000000, 5.000000000000000000 ) ) ;
#78 = CIRCLE ( 'NONE', #100, 5.500000000000000000 ) ;
#79 = DIRECTION ( 'NONE',  ( 0.000000000000000000, 0.000000000000000000, -1.000000000000000000 ) ) ;
#80 = APPROVAL_STATUS ( 'not_yet_approved' ) ;
#81 = CARTESIAN_POINT ( 'NONE',  ( 0.000000000000000000, 0.000000000000000000, 0.000000000000000000 ) ) ;
#82 = ORIENTED_EDGE ( 'NONE', *, *, #286, .F. ) ;
#83 = APPROVAL_ROLE ( '' ) ;
#84 = EDGE_CURVE ( 'NONE', #332, #216, #24, .T. ) ;
#85 = EDGE_LOOP ( 'NONE', ( #237, #178, #11, #91 ) ) ;
#86 = DIRECTION ( 'NONE',  ( 0.000000000000000000, 0.000000000000000000, 1.000000000000000000 ) ) ;
#87 = VERTEX_POINT ( 'NONE', #249 ) ;
#88 = APPROVAL_DATE_TIME ( #298, #8 ) ;
#89 =( LENGTH_UNIT ( ) NAMED_UNIT ( * ) SI_UNIT ( .MILLI., .METRE. ) );
#90 = EDGE_CURVE ( 'NONE', #129, #37, #215, .T. ) ;
#91 = ORIENTED_EDGE ( 'NONE', *, *, #243, .F. ) ;
#92 = PRODUCT_DEFINITION_FORMATION_WITH_SPECIFIED_SOURCE ( 'LIBOVOLNÝ', '', #305, .NOT_KNOWN. ) ;
#93 = CARTESIAN_POINT ( 'NONE',  ( 0.000000000000000000, 0.000000000000000000, 180.0000000000000000 ) ) ;
#94 = EDGE_LOOP ( 'NONE', ( #338, #68 ) ) ;
#95 = APPROVAL ( #235, 'NEURÈENÝ' ) ;
#96 = PLANE ( 'NONE',  #186 ) ;
#97 = CALENDAR_DATE ( 2022, 8, 7 ) ;
#98 = DIRECTION ( 'NONE',  ( 1.000000000000000000, 0.000000000000000000, 0.000000000000000000 ) ) ;
#99 = DIRECTION ( 'NONE',  ( 0.000000000000000000, 0.000000000000000000, 1.000000000000000000 ) ) ;
#100 = AXIS2_PLACEMENT_3D ( 'NONE', #109, #225, #55 ) ;
#101 = CYLINDRICAL_SURFACE ( 'NONE', #279, 8.000000000000000000 ) ;
#102 = EDGE_LOOP ( 'NONE', ( #184, #82, #38, #354 ) ) ;
#103 = CARTESIAN_POINT ( 'NONE',  ( 2.500000000000000000, 3.061616997868382648E-16, 180.0000000000000000 ) ) ;
#104 = AXIS2_PLACEMENT_3D ( 'NONE', #205, #105, #318 ) ;
#105 = DIRECTION ( 'NONE',  ( 0.000000000000000000, 0.000000000000000000, 1.000000000000000000 ) ) ;
#106 = APPROVAL_DATE_TIME ( #137, #95 ) ;
#107 = DIRECTION ( 'NONE',  ( -1.000000000000000000, 0.000000000000000000, 0.000000000000000000 ) ) ;
#108 = EDGE_CURVE ( 'NONE', #87, #329, #340, .T. ) ;
#109 = CARTESIAN_POINT ( 'NONE',  ( 0.000000000000000000, 0.000000000000000000, 5.000000000000000000 ) ) ;
#110 = PERSON_AND_ORGANIZATION ( #366, #191 ) ;
#111 = AXIS2_PLACEMENT_3D ( 'NONE', #247, #128, #98 ) ;
#112 = LOCAL_TIME ( 17, 16, 53.00000000000000000, #139 ) ;
#113 = CARTESIAN_POINT ( 'NONE',  ( 0.000000000000000000, 0.000000000000000000, 180.0000000000000000 ) ) ;
#114 = DIRECTION ( 'NONE',  ( 0.000000000000000000, 0.000000000000000000, 1.000000000000000000 ) ) ;
#115 = ORIENTED_EDGE ( 'NONE', *, *, #84, .F. ) ;
#116 = EDGE_CURVE ( 'NONE', #300, #216, #162, .T. ) ;
#117 = APPLICATION_PROTOCOL_DEFINITION ( 'international standard', 'config_control_design', 1994, #246 ) ;
#118 = CARTESIAN_POINT ( 'NONE',  ( 0.000000000000000000, 0.000000000000000000, 5.000000000000000000 ) ) ;
#119 = VECTOR ( 'NONE', #16, 1000.000000000000000 ) ;
#120 = DIRECTION ( 'NONE',  ( 1.000000000000000000, 0.000000000000000000, 0.000000000000000000 ) ) ;
#121 = ORIENTED_EDGE ( 'NONE', *, *, #372, .T. ) ;
#122 = ADVANCED_FACE ( 'NONE', ( #373 ), #101, .T. ) ;
#123 = EDGE_LOOP ( 'NONE', ( #181, #342, #272, #196 ) ) ;
#124 = FACE_OUTER_BOUND ( 'NONE', #147, .T. ) ;
#125 = APPROVAL_STATUS ( 'not_yet_approved' ) ;
#126 = DIRECTION ( 'NONE',  ( -0.000000000000000000, -0.000000000000000000, -1.000000000000000000 ) ) ;
#127 = DIRECTION ( 'NONE',  ( -1.000000000000000000, 0.000000000000000000, 0.000000000000000000 ) ) ;
#128 = DIRECTION ( 'NONE',  ( -0.000000000000000000, -0.000000000000000000, -1.000000000000000000 ) ) ;
#129 = VERTEX_POINT ( 'NONE', #379 ) ;
#130 = CIRCLE ( 'NONE', #49, 0.5000000000000004441 ) ;
#131 = EDGE_CURVE ( 'NONE', #37, #190, #130, .T. ) ;
#132 = FACE_BOUND ( 'NONE', #363, .T. ) ;
#133 = ADVANCED_BREP_SHAPE_REPRESENTATION ( '341d', ( #200, #30 ), #141 ) ;
#134 = LINE ( 'NONE', #229, #289 ) ;
#135 = AXIS2_PLACEMENT_3D ( 'NONE', #59, #322, #328 ) ;
#136 = CARTESIAN_POINT ( 'NONE',  ( -8.000000000000000000, 0.000000000000000000, 5.000000000000000000 ) ) ;
#137 = DATE_AND_TIME ( #56, #195 ) ;
#138 = LINE ( 'NONE', #136, #142 ) ;
#139 = COORDINATED_UNIVERSAL_TIME_OFFSET ( 1, 0, .AHEAD. ) ;
#140 = DIRECTION ( 'NONE',  ( 1.224646799147353207E-16, 1.000000000000000000, -0.000000000000000000 ) ) ;
#141 =( GEOMETRIC_REPRESENTATION_CONTEXT ( 3 ) GLOBAL_UNCERTAINTY_ASSIGNED_CONTEXT ( ( #39 ) ) GLOBAL_UNIT_ASSIGNED_CONTEXT ( ( #89, #144, #154 ) ) REPRESENTATION_CONTEXT ( 'NONE', 'WORKASPACE' ) );
#142 = VECTOR ( 'NONE', #260, 1000.000000000000000 ) ;
#143 = SECURITY_CLASSIFICATION ( '', '', #367 ) ;
#144 =( NAMED_UNIT ( * ) PLANE_ANGLE_UNIT ( ) SI_UNIT ( $, .RADIAN. ) );
#145 = EDGE_CURVE ( 'NONE', #212, #187, #339, .T. ) ;
#146 = DIRECTION ( 'NONE',  ( 0.000000000000000000, 0.000000000000000000, 1.000000000000000000 ) ) ;
#147 = EDGE_LOOP ( 'NONE', ( #45, #210, #265, #315 ) ) ;
#148 = ORIENTED_EDGE ( 'NONE', *, *, #116, .T. ) ;
#149 = COORDINATED_UNIVERSAL_TIME_OFFSET ( 1, 0, .AHEAD. ) ;
#150 = AXIS2_PLACEMENT_3D ( 'NONE', #359, #57, #275 ) ;
#151 = PRODUCT_DEFINITION_SHAPE ( 'NONE', 'NONE',  #167 ) ;
#152 = DATE_AND_TIME ( #97, #48 ) ;
#153 = ADVANCED_FACE ( 'NONE', ( #319, #21 ), #75, .T. ) ;
#154 =( NAMED_UNIT ( * ) SI_UNIT ( $, .STERADIAN. ) SOLID_ANGLE_UNIT ( ) );
#155 = ORIENTED_EDGE ( 'NONE', *, *, #268, .T. ) ;
#156 = CARTESIAN_POINT ( 'NONE',  ( 0.000000000000000000, 0.000000000000000000, 180.0000000000000000 ) ) ;
#157 = CC_DESIGN_APPROVAL ( #67, ( #92 ) ) ;
#158 = AXIS2_PLACEMENT_3D ( 'NONE', #34, #86, #174 ) ;
#159 = ADVANCED_FACE ( 'NONE', ( #171 ), #378, .T. ) ;
#160 = CYLINDRICAL_SURFACE ( 'NONE', #271, 2.500000000000000000 ) ;
#161 = DIRECTION ( 'NONE',  ( 0.000000000000000000, 0.000000000000000000, 1.000000000000000000 ) ) ;
#162 = LINE ( 'NONE', #17, #303 ) ;
#163 = EDGE_CURVE ( 'NONE', #239, #300, #314, .T. ) ;
#164 = LOCAL_TIME ( 17, 16, 53.00000000000000000, #44 ) ;
#165 = LINE ( 'NONE', #192, #119 ) ;
#166 = AXIS2_PLACEMENT_3D ( 'NONE', #156, #161, #218 ) ;
#167 = PRODUCT_DEFINITION ( 'NEZNÁMÝ', '', #92, #304 ) ;
#168 = DIRECTION ( 'NONE',  ( 0.000000000000000000, 0.000000000000000000, 1.000000000000000000 ) ) ;
#169 = DIRECTION ( 'NONE',  ( 1.000000000000000000, 0.000000000000000000, 0.000000000000000000 ) ) ;
#170 = AXIS2_PLACEMENT_3D ( 'NONE', #317, #168, #169 ) ;
#171 = FACE_OUTER_BOUND ( 'NONE', #335, .T. ) ;
#172 = DATE_AND_TIME ( #207, #112 ) ;
#173 = CARTESIAN_POINT ( 'NONE',  ( 5.500000000000000000, 0.000000000000000000, 5.500000000000005329 ) ) ;
#174 = DIRECTION ( 'NONE',  ( 1.000000000000000000, 0.000000000000000000, 0.000000000000000000 ) ) ;
#175 = CLOSED_SHELL ( 'NONE', ( #28, #302, #36, #40, #122, #153, #23, #159, #19, #348, #353 ) ) ;
#176 = CC_DESIGN_PERSON_AND_ORGANIZATION_ASSIGNMENT ( #301, #358, ( #143 ) ) ;
#177 = DIRECTION ( 'NONE',  ( 1.000000000000000000, 0.000000000000000000, 0.000000000000000000 ) ) ;
#178 = ORIENTED_EDGE ( 'NONE', *, *, #324, .F. ) ;
#179 = DATE_TIME_ROLE ( 'creation_date' ) ;
#180 = CARTESIAN_POINT ( 'NONE',  ( 0.000000000000000000, 0.000000000000000000, 5.000000000000000000 ) ) ;
#181 = ORIENTED_EDGE ( 'NONE', *, *, #201, .F. ) ;
#182 = APPROVAL_ROLE ( '' ) ;
#183 = DIRECTION ( 'NONE',  ( 1.000000000000000000, 0.000000000000000000, 0.000000000000000000 ) ) ;
#184 = ORIENTED_EDGE ( 'NONE', *, *, #108, .F. ) ;
#185 = AXIS2_PLACEMENT_3D ( 'NONE', #258, #52, #107 ) ;
#186 = AXIS2_PLACEMENT_3D ( 'NONE', #278, #46, #224 ) ;
#187 = VERTEX_POINT ( 'NONE', #287 ) ;
#188 = ORIENTED_EDGE ( 'NONE', *, *, #254, .T. ) ;
#189 = EDGE_CURVE ( 'NONE', #212, #129, #288, .T. ) ;
#190 = VERTEX_POINT ( 'NONE', #226 ) ;
#191 = ORGANIZATION ( 'NEURÈENÝ', 'NEURÈENÝ', '' ) ;
#192 = CARTESIAN_POINT ( 'NONE',  ( 5.000000000000000000, 6.123233995736766282E-16, 180.0000000000000000 ) ) ;
#193 = DIRECTION ( 'NONE',  ( -0.000000000000000000, -0.000000000000000000, -1.000000000000000000 ) ) ;
#194 = VERTEX_POINT ( 'NONE', #77 ) ;
#195 = LOCAL_TIME ( 17, 16, 53.00000000000000000, #347 ) ;
#196 = ORIENTED_EDGE ( 'NONE', *, *, #189, .F. ) ;
#197 = AXIS2_PLACEMENT_3D ( 'NONE', #321, #345, #377 ) ;
#198 = CC_DESIGN_APPROVAL ( #8, ( #143 ) ) ;
#199 = DIRECTION ( 'NONE',  ( 0.000000000000000000, 0.000000000000000000, 1.000000000000000000 ) ) ;
#200 = MANIFOLD_SOLID_BREP ( 'Odebrat vysunutím3', #175 ) ;
#201 = EDGE_CURVE ( 'NONE', #187, #212, #357, .T. ) ;
#202 = APPROVAL_ROLE ( '' ) ;
#203 = CIRCLE ( 'NONE', #284, 5.500000000000000000 ) ;
#204 = CALENDAR_DATE ( 2022, 8, 7 ) ;
#205 = CARTESIAN_POINT ( 'NONE',  ( 0.000000000000000000, 0.000000000000000000, 180.0000000000000000 ) ) ;
#206 = DIRECTION ( 'NONE',  ( 1.000000000000000000, 0.000000000000000000, 0.000000000000000000 ) ) ;
#207 = CALENDAR_DATE ( 2022, 8, 7 ) ;
#208 = CIRCLE ( 'NONE', #352, 0.5000000000000004441 ) ;
#209 = DIRECTION ( 'NONE',  ( 1.000000000000000000, 0.000000000000000000, 0.000000000000000000 ) ) ;
#210 = ORIENTED_EDGE ( 'NONE', *, *, #274, .T. ) ;
#211 = CARTESIAN_POINT ( 'NONE',  ( 2.500000000000000000, 3.061616997868382648E-16, 0.000000000000000000 ) ) ;
#212 = VERTEX_POINT ( 'NONE', #346 ) ;
#213 = ORIENTED_EDGE ( 'NONE', *, *, #221, .F. ) ;
#214 = PERSON_AND_ORGANIZATION ( #366, #191 ) ;
#215 = CIRCLE ( 'NONE', #334, 5.000000000000000000 ) ;
#216 = VERTEX_POINT ( 'NONE', #375 ) ;
#217 = EDGE_LOOP ( 'NONE', ( #306, #6 ) ) ;
#218 = DIRECTION ( 'NONE',  ( 1.000000000000000000, 0.000000000000000000, -0.000000000000000000 ) ) ;
#219 = CIRCLE ( 'NONE', #371, 2.500000000000000000 ) ;
#220 = DIRECTION ( 'NONE',  ( 1.000000000000000000, 0.000000000000000000, 0.000000000000000000 ) ) ;
#221 = EDGE_CURVE ( 'NONE', #194, #4, #138, .T. ) ;
#222 = CARTESIAN_POINT ( 'NONE',  ( -8.000000000000000000, 0.000000000000000000, 0.000000000000000000 ) ) ;
#223 = PRODUCT_RELATED_PRODUCT_CATEGORY ( 'detail', '', ( #305 ) ) ;
#224 = DIRECTION ( 'NONE',  ( 1.000000000000000000, 0.000000000000000000, -0.000000000000000000 ) ) ;
#225 = DIRECTION ( 'NONE',  ( -0.000000000000000000, -0.000000000000000000, -1.000000000000000000 ) ) ;
#226 = CARTESIAN_POINT ( 'NONE',  ( 5.500000000000000000, 0.000000000000000000, 5.000000000000002665 ) ) ;
#227 = PERSON_AND_ORGANIZATION ( #366, #191 ) ;
#228 = CARTESIAN_POINT ( 'NONE',  ( 0.000000000000000000, 0.000000000000000000, 5.000000000000000000 ) ) ;
#229 = CARTESIAN_POINT ( 'NONE',  ( 2.500000000000000000, 3.061616997868382648E-16, 180.0000000000000000 ) ) ;
#230 = TOROIDAL_SURFACE ( 'NONE', #135, 5.500000000000000000, 0.5000000000000000000 ) ;
#231 = CC_DESIGN_SECURITY_CLASSIFICATION ( #143, ( #92 ) ) ;
#232 = CC_DESIGN_PERSON_AND_ORGANIZATION_ASSIGNMENT ( #323, #27, ( #305 ) ) ;
#233 = CARTESIAN_POINT ( 'NONE',  ( -2.500000000000000000, 0.000000000000000000, 180.0000000000000000 ) ) ;
#234 = EDGE_LOOP ( 'NONE', ( #270, #241, #148, #121 ) ) ;
#235 = APPROVAL_STATUS ( 'not_yet_approved' ) ;
#236 = CYLINDRICAL_SURFACE ( 'NONE', #54, 2.500000000000000000 ) ;
#237 = ORIENTED_EDGE ( 'NONE', *, *, #274, .F. ) ;
#238 = AXIS2_PLACEMENT_3D ( 'NONE', #25, #199, #26 ) ;
#239 = VERTEX_POINT ( 'NONE', #103 ) ;
#240 = CALENDAR_DATE ( 2022, 8, 7 ) ;
#241 = ORIENTED_EDGE ( 'NONE', *, *, #163, .T. ) ;
#242 = CARTESIAN_POINT ( 'NONE',  ( 0.000000000000000000, 0.000000000000000000, 5.000000000000000000 ) ) ;
#243 = EDGE_CURVE ( 'NONE', #297, #190, #78, .T. ) ;
#244 = APPROVAL_PERSON_ORGANIZATION ( #227, #67, #202 ) ;
#245 = CIRCLE ( 'NONE', #150, 8.000000000000000000 ) ;
#246 = APPLICATION_CONTEXT ( 'configuration controlled 3d designs of mechanical parts and assemblies' ) ;
#247 = CARTESIAN_POINT ( 'NONE',  ( 0.000000000000000000, 0.000000000000000000, 0.000000000000000000 ) ) ;
#248 = DIRECTION ( 'NONE',  ( -0.000000000000000000, -0.000000000000000000, -1.000000000000000000 ) ) ;
#249 = CARTESIAN_POINT ( 'NONE',  ( 8.000000000000000000, 9.797174393178825657E-16, 5.000000000000000000 ) ) ;
#250 = VECTOR ( 'NONE', #29, 1000.000000000000000 ) ;
#251 = DIRECTION ( 'NONE',  ( 0.000000000000000000, 0.000000000000000000, -1.000000000000000000 ) ) ;
#252 = FACE_OUTER_BOUND ( 'NONE', #58, .T. ) ;
#253 = DIRECTION ( 'NONE',  ( 1.000000000000000000, 0.000000000000000000, -0.000000000000000000 ) ) ;
#254 = EDGE_CURVE ( 'NONE', #329, #4, #70, .T. ) ;
#255 = DIRECTION ( 'NONE',  ( 0.000000000000000000, 0.000000000000000000, 1.000000000000000000 ) ) ;
#256 = CARTESIAN_POINT ( 'NONE',  ( -5.500000000000000000, 6.735557395310442023E-16, 5.500000000000005329 ) ) ;
#257 = AXIS2_PLACEMENT_3D ( 'NONE', #10, #292, #183 ) ;
#258 = CARTESIAN_POINT ( 'NONE',  ( 0.000000000000000000, 0.000000000000000000, 180.0000000000000000 ) ) ;
#259 = PERSON_AND_ORGANIZATION_ROLE ( 'creator' ) ;
#260 = DIRECTION ( 'NONE',  ( -0.000000000000000000, -0.000000000000000000, -1.000000000000000000 ) ) ;
#261 = DATE_AND_TIME ( #204, #12 ) ;
#262 = APPROVAL_PERSON_ORGANIZATION ( #214, #8, #182 ) ;
#263 = DIRECTION ( 'NONE',  ( -1.000000000000000000, 1.224646799147351482E-16, 0.000000000000000000 ) ) ;
#264 = AXIS2_PLACEMENT_3D ( 'NONE', #47, #126, #311 ) ;
#265 = ORIENTED_EDGE ( 'NONE', *, *, #381, .F. ) ;
#266 = FACE_OUTER_BOUND ( 'NONE', #234, .T. ) ;
#267 = EDGE_LOOP ( 'NONE', ( #356, #64 ) ) ;
#268 = EDGE_CURVE ( 'NONE', #239, #332, #134, .T. ) ;
#269 = PERSON_AND_ORGANIZATION ( #366, #191 ) ;
#270 = ORIENTED_EDGE ( 'NONE', *, *, #268, .F. ) ;
#271 = AXIS2_PLACEMENT_3D ( 'NONE', #312, #280, #127 ) ;
#272 = ORIENTED_EDGE ( 'NONE', *, *, #324, .T. ) ;
#273 = PERSON_AND_ORGANIZATION_ROLE ( 'design_supplier' ) ;
#274 = EDGE_CURVE ( 'NONE', #129, #297, #208, .T. ) ;
#275 = DIRECTION ( 'NONE',  ( 1.000000000000000000, 0.000000000000000000, 0.000000000000000000 ) ) ;
#276 = ORIENTED_EDGE ( 'NONE', *, *, #84, .T. ) ;
#277 = DATE_TIME_ROLE ( 'classification_date' ) ;
#278 = CARTESIAN_POINT ( 'NONE',  ( 0.000000000000000000, 0.000000000000000000, 0.000000000000000000 ) ) ;
#279 = AXIS2_PLACEMENT_3D ( 'NONE', #341, #22, #50 ) ;
#280 = DIRECTION ( 'NONE',  ( 0.000000000000000000, 0.000000000000000000, -1.000000000000000000 ) ) ;
#281 = PLANE ( 'NONE',  #166 ) ;
#282 = EDGE_CURVE ( 'NONE', #300, #239, #327, .T. ) ;
#283 = ORIENTED_EDGE ( 'NONE', *, *, #372, .F. ) ;
#284 = AXIS2_PLACEMENT_3D ( 'NONE', #180, #296, #9 ) ;
#285 = EDGE_LOOP ( 'NONE', ( #283, #115 ) ) ;
#286 = EDGE_CURVE ( 'NONE', #194, #87, #18, .T. ) ;
#287 = CARTESIAN_POINT ( 'NONE',  ( 5.000000000000000000, 6.123233995736766282E-16, 180.0000000000000000 ) ) ;
#288 = LINE ( 'NONE', #291, #250 ) ;
#289 = VECTOR ( 'NONE', #79, 1000.000000000000000 ) ;
#290 = EDGE_CURVE ( 'NONE', #87, #194, #7, .T. ) ;
#291 = CARTESIAN_POINT ( 'NONE',  ( -5.000000000000000000, 0.000000000000000000, 180.0000000000000000 ) ) ;
#292 = DIRECTION ( 'NONE',  ( 0.000000000000000000, 0.000000000000000000, 1.000000000000000000 ) ) ;
#293 = MECHANICAL_CONTEXT ( 'NONE', #308, 'mechanical' ) ;
#294 = CARTESIAN_POINT ( 'NONE',  ( -5.500000000000000000, 6.735557395310442023E-16, 5.000000000000002665 ) ) ;
#295 = EDGE_LOOP ( 'NONE', ( #310, #333, #188, #213 ) ) ;
#296 = DIRECTION ( 'NONE',  ( -0.000000000000000000, -0.000000000000000000, -1.000000000000000000 ) ) ;
#297 = VERTEX_POINT ( 'NONE', #294 ) ;
#298 = DATE_AND_TIME ( #240, #164 ) ;
#299 = DIRECTION ( 'NONE',  ( -0.000000000000000000, -0.000000000000000000, -1.000000000000000000 ) ) ;
#300 = VERTEX_POINT ( 'NONE', #233 ) ;
#301 = PERSON_AND_ORGANIZATION ( #366, #191 ) ;
#302 = ADVANCED_FACE ( 'NONE', ( #124 ), #230, .F. ) ;
#303 = VECTOR ( 'NONE', #251, 1000.000000000000000 ) ;
#304 = DESIGN_CONTEXT ( 'detailed design', #246, 'design' ) ;
#305 = PRODUCT ( '341d', '341d', '', ( #293 ) ) ;
#306 = ORIENTED_EDGE ( 'NONE', *, *, #286, .T. ) ;
#307 = ORIENTED_EDGE ( 'NONE', *, *, #243, .T. ) ;
#308 = APPLICATION_CONTEXT ( 'configuration controlled 3d designs of mechanical parts and assemblies' ) ;
#309 = FACE_OUTER_BOUND ( 'NONE', #267, .T. ) ;
#310 = ORIENTED_EDGE ( 'NONE', *, *, #290, .F. ) ;
#311 = DIRECTION ( 'NONE',  ( -1.000000000000000000, 0.000000000000000000, 0.000000000000000000 ) ) ;
#312 = CARTESIAN_POINT ( 'NONE',  ( 0.000000000000000000, 0.000000000000000000, 180.0000000000000000 ) ) ;
#313 = EDGE_CURVE ( 'NONE', #4, #329, #245, .T. ) ;
#314 = CIRCLE ( 'NONE', #238, 2.500000000000000000 ) ;
#315 = ORIENTED_EDGE ( 'NONE', *, *, #131, .F. ) ;
#316 = CC_DESIGN_PERSON_AND_ORGANIZATION_ASSIGNMENT ( #5, #273, ( #92 ) ) ;
#317 = CARTESIAN_POINT ( 'NONE',  ( 0.000000000000000000, 0.000000000000000000, 180.0000000000000000 ) ) ;
#318 = DIRECTION ( 'NONE',  ( 1.000000000000000000, 0.000000000000000000, 0.000000000000000000 ) ) ;
#319 = FACE_BOUND ( 'NONE', #361, .T. ) ;
#320 = AXIS2_PLACEMENT_3D ( 'NONE', #118, #146, #120 ) ;
#321 = CARTESIAN_POINT ( 'NONE',  ( 0.000000000000000000, 0.000000000000000000, 0.000000000000000000 ) ) ;
#322 = DIRECTION ( 'NONE',  ( 0.000000000000000000, 0.000000000000000000, 1.000000000000000000 ) ) ;
#323 = PERSON_AND_ORGANIZATION ( #366, #191 ) ;
#324 = EDGE_CURVE ( 'NONE', #37, #129, #74, .T. ) ;
#325 = CC_DESIGN_APPROVAL ( #95, ( #167 ) ) ;
#326 = ORIENTED_EDGE ( 'NONE', *, *, #163, .F. ) ;
#327 = CIRCLE ( 'NONE', #344, 2.500000000000000000 ) ;
#328 = DIRECTION ( 'NONE',  ( 1.000000000000000000, 0.000000000000000000, 0.000000000000000000 ) ) ;
#329 = VERTEX_POINT ( 'NONE', #362 ) ;
#330 = SHAPE_DEFINITION_REPRESENTATION ( #151, #133 ) ;
#331 = DIRECTION ( 'NONE',  ( -1.000000000000000000, 0.000000000000000000, 0.000000000000000000 ) ) ;
#332 = VERTEX_POINT ( 'NONE', #211 ) ;
#333 = ORIENTED_EDGE ( 'NONE', *, *, #108, .T. ) ;
#334 = AXIS2_PLACEMENT_3D ( 'NONE', #365, #99, #220 ) ;
#335 = EDGE_LOOP ( 'NONE', ( #41, #35, #20, #60 ) ) ;
#336 = ORIENTED_EDGE ( 'NONE', *, *, #282, .F. ) ;
#337 = PERSON_AND_ORGANIZATION_ROLE ( 'creator' ) ;
#338 = ORIENTED_EDGE ( 'NONE', *, *, #313, .F. ) ;
#339 = CIRCLE ( 'NONE', #104, 5.000000000000000000 ) ;
#340 = LINE ( 'NONE', #71, #14 ) ;
#341 = CARTESIAN_POINT ( 'NONE',  ( 0.000000000000000000, 0.000000000000000000, 5.000000000000000000 ) ) ;
#342 = ORIENTED_EDGE ( 'NONE', *, *, #65, .T. ) ;
#343 = CC_DESIGN_DATE_AND_TIME_ASSIGNMENT ( #172, #179, ( #167 ) ) ;
#344 = AXIS2_PLACEMENT_3D ( 'NONE', #113, #62, #177 ) ;
#345 = DIRECTION ( 'NONE',  ( 0.000000000000000000, 0.000000000000000000, 1.000000000000000000 ) ) ;
#346 = CARTESIAN_POINT ( 'NONE',  ( -5.000000000000000000, 0.000000000000000000, 180.0000000000000000 ) ) ;
#347 = COORDINATED_UNIVERSAL_TIME_OFFSET ( 1, 0, .AHEAD. ) ;
#348 = ADVANCED_FACE ( 'NONE', ( #3 ), #43, .F. ) ;
#349 = DIRECTION ( 'NONE',  ( 0.000000000000000000, 0.000000000000000000, 1.000000000000000000 ) ) ;
#350 = PERSON_AND_ORGANIZATION ( #366, #191 ) ;
#351 = AXIS2_PLACEMENT_3D ( 'NONE', #228, #349, #253 ) ;
#352 = AXIS2_PLACEMENT_3D ( 'NONE', #256, #140, #263 ) ;
#353 = ADVANCED_FACE ( 'NONE', ( #266 ), #236, .F. ) ;
#354 = ORIENTED_EDGE ( 'NONE', *, *, #313, .T. ) ;
#355 = DIRECTION ( 'NONE',  ( 0.000000000000000000, 0.000000000000000000, -1.000000000000000000 ) ) ;
#356 = ORIENTED_EDGE ( 'NONE', *, *, #145, .T. ) ;
#357 = CIRCLE ( 'NONE', #170, 5.000000000000000000 ) ;
#358 = PERSON_AND_ORGANIZATION_ROLE ( 'classification_officer' ) ;
#359 = CARTESIAN_POINT ( 'NONE',  ( 0.000000000000000000, 0.000000000000000000, 0.000000000000000000 ) ) ;
#360 = ORIENTED_EDGE ( 'NONE', *, *, #116, .F. ) ;
#361 = EDGE_LOOP ( 'NONE', ( #2, #307 ) ) ;
#362 = CARTESIAN_POINT ( 'NONE',  ( 8.000000000000000000, 9.797174393178825657E-16, 0.000000000000000000 ) ) ;
#363 = EDGE_LOOP ( 'NONE', ( #336, #326 ) ) ;
#364 = APPROVAL_PERSON_ORGANIZATION ( #350, #95, #83 ) ;
#365 = CARTESIAN_POINT ( 'NONE',  ( 0.000000000000000000, 0.000000000000000000, 5.500000000000005329 ) ) ;
#366 = PERSON ( 'NEURÈENÝ', 'NEURÈENÝ', 'NEURÈENÝ', ('NEURÈENÝ'), ('NEURÈENÝ'), ('NEURÈENÝ') ) ;
#367 = SECURITY_CLASSIFICATION_LEVEL ( 'unclassified' ) ;
#368 = APPLICATION_PROTOCOL_DEFINITION ( 'international standard', 'config_control_design', 1994, #308 ) ;
#369 = FACE_OUTER_BOUND ( 'NONE', #295, .T. ) ;
#370 = DIRECTION ( 'NONE',  ( -1.000000000000000000, 0.000000000000000000, 0.000000000000000000 ) ) ;
#371 = AXIS2_PLACEMENT_3D ( 'NONE', #81, #299, #33 ) ;
#372 = EDGE_CURVE ( 'NONE', #216, #332, #219, .T. ) ;
#373 = FACE_OUTER_BOUND ( 'NONE', #102, .T. ) ;
#374 = FACE_OUTER_BOUND ( 'NONE', #123, .T. ) ;
#375 = CARTESIAN_POINT ( 'NONE',  ( -2.500000000000000000, 0.000000000000000000, 0.000000000000000000 ) ) ;
#376 = AXIS2_PLACEMENT_3D ( 'NONE', #13, #248, #370 ) ;
#377 = DIRECTION ( 'NONE',  ( 1.000000000000000000, 0.000000000000000000, 0.000000000000000000 ) ) ;
#378 = CYLINDRICAL_SURFACE ( 'NONE', #185, 5.000000000000000000 ) ;
#379 = CARTESIAN_POINT ( 'NONE',  ( -5.000000000000000000, 0.000000000000000000, 5.500000000000005329 ) ) ;
#380 = APPROVAL_DATE_TIME ( #261, #67 ) ;
#381 = EDGE_CURVE ( 'NONE', #190, #297, #203, .T. ) ;
ENDSEC;
END-ISO-10303-21;
