ISO-10303-21;
HEADER;
FILE_DESCRIPTION (( 'STEP AP203' ),
    '1' );
FILE_NAME ('99ad.STEP',
    '2022-07-08T14:34:25',
    ( '' ),
    ( '' ),
    'SwSTEP 2.0',
    'SolidWorks 2019',
    '' );
FILE_SCHEMA (( 'CONFIG_CONTROL_DESIGN' ));
ENDSEC;

DATA;
#1 = DIRECTION ( 'NONE',  ( 0.000000000000000000, 0.000000000000000000, -1.000000000000000000 ) ) ;
#2 = VECTOR ( 'NONE', #1, 1000.000000000000000 ) ;
#3 = LINE ( 'NONE', #293, #2 ) ;
#4 = CARTESIAN_POINT ( 'NONE',  ( 4.099999999999999645, 5.021051876504147385E-16, 282.0000000000000000 ) ) ;
#5 = DIRECTION ( 'NONE',  ( -0.000000000000000000, -0.000000000000000000, -1.000000000000000000 ) ) ;
#6 = ADVANCED_FACE ( 'NONE', ( #80, #103 ), #222, .F. ) ;
#7 = EDGE_LOOP ( 'NONE', ( #213, #38, #332, #83 ) ) ;
#8 = CARTESIAN_POINT ( 'NONE',  ( 0.000000000000000000, 0.000000000000000000, 7.699999999999985079 ) ) ;
#9 = ORIENTED_EDGE ( 'NONE', *, *, #118, .T. ) ;
#10 = FACE_OUTER_BOUND ( 'NONE', #31, .T. ) ;
#11 = EDGE_CURVE ( 'NONE', #205, #180, #378, .T. ) ;
#12 = CARTESIAN_POINT ( 'NONE',  ( 4.099999999999999645, 5.021051876504147385E-16, 0.000000000000000000 ) ) ;
#13 = ORIENTED_EDGE ( 'NONE', *, *, #54, .F. ) ;
#14 = CARTESIAN_POINT ( 'NONE',  ( 0.000000000000000000, 0.000000000000000000, 7.699999999999985079 ) ) ;
#15 = CIRCLE ( 'NONE', #334, 4.099999999999999645 ) ;
#16 = DIRECTION ( 'NONE',  ( -1.000000000000000000, 0.000000000000000000, 0.000000000000000000 ) ) ;
#17 = FACE_OUTER_BOUND ( 'NONE', #268, .T. ) ;
#18 = APPROVAL_ROLE ( '' ) ;
#19 = AXIS2_PLACEMENT_3D ( 'NONE', #316, #108, #134 ) ;
#20 = APPROVAL_PERSON_ORGANIZATION ( #223, #256, #18 ) ;
#21 = TOROIDAL_SURFACE ( 'NONE', #275, 6.700000000000001066, 0.6999999999999999556 ) ;
#22 = DIRECTION ( 'NONE',  ( 0.000000000000000000, 0.000000000000000000, 1.000000000000000000 ) ) ;
#23 = DIRECTION ( 'NONE',  ( 1.000000000000000000, 0.000000000000000000, -0.000000000000000000 ) ) ;
#24 = EDGE_CURVE ( 'NONE', #366, #70, #195, .T. ) ;
#25 = CALENDAR_DATE ( 2022, 8, 7 ) ;
#26 = DIRECTION ( 'NONE',  ( 1.000000000000000000, 0.000000000000000000, 0.000000000000000000 ) ) ;
#27 = CARTESIAN_POINT ( 'NONE',  ( 0.000000000000000000, 0.000000000000000000, 0.000000000000000000 ) ) ;
#28 = DIRECTION ( 'NONE',  ( 1.000000000000000000, 0.000000000000000000, 0.000000000000000000 ) ) ;
#29 = FACE_OUTER_BOUND ( 'NONE', #241, .T. ) ;
#30 = CYLINDRICAL_SURFACE ( 'NONE', #47, 10.00000000000000000 ) ;
#31 = EDGE_LOOP ( 'NONE', ( #61, #9, #63, #239 ) ) ;
#32 = CIRCLE ( 'NONE', #237, 10.00000000000000000 ) ;
#33 = ORGANIZATION ( 'NEURÈENÝ', 'NEURÈENÝ', '' ) ;
#34 = DIRECTION ( 'NONE',  ( 1.000000000000000000, 0.000000000000000000, 0.000000000000000000 ) ) ;
#35 = CC_DESIGN_PERSON_AND_ORGANIZATION_ASSIGNMENT ( #279, #45, ( #175 ) ) ;
#36 = DIRECTION ( 'NONE',  ( -0.000000000000000000, -0.000000000000000000, -1.000000000000000000 ) ) ;
#37 = AXIS2_PLACEMENT_3D ( 'NONE', #198, #322, #89 ) ;
#38 = ORIENTED_EDGE ( 'NONE', *, *, #158, .T. ) ;
#39 = CARTESIAN_POINT ( 'NONE',  ( 0.000000000000000000, 0.000000000000000000, 282.0000000000000000 ) ) ;
#40 = ORIENTED_EDGE ( 'NONE', *, *, #303, .T. ) ;
#41 =( NAMED_UNIT ( * ) PLANE_ANGLE_UNIT ( ) SI_UNIT ( $, .RADIAN. ) );
#42 = AXIS2_PLACEMENT_3D ( 'NONE', #39, #331, #16 ) ;
#43 = PERSON_AND_ORGANIZATION ( #155, #33 ) ;
#44 = ORIENTED_EDGE ( 'NONE', *, *, #99, .F. ) ;
#45 = PERSON_AND_ORGANIZATION_ROLE ( 'design_owner' ) ;
#46 = CARTESIAN_POINT ( 'NONE',  ( 0.000000000000000000, 0.000000000000000000, 7.699999999999985079 ) ) ;
#47 = AXIS2_PLACEMENT_3D ( 'NONE', #325, #229, #141 ) ;
#48 = APPROVAL ( #259, 'NEURÈENÝ' ) ;
#49 = PERSON_AND_ORGANIZATION ( #155, #33 ) ;
#50 = COORDINATED_UNIVERSAL_TIME_OFFSET ( 1, 0, .AHEAD. ) ;
#51 = CARTESIAN_POINT ( 'NONE',  ( 6.700000000000001066, 0.000000000000000000, 6.999999999999992006 ) ) ;
#52 = AXIS2_PLACEMENT_3D ( 'NONE', #154, #22, #75 ) ;
#53 = CARTESIAN_POINT ( 'NONE',  ( 6.000000000000000888, 7.347880794884120722E-16, 7.699999999999985079 ) ) ;
#54 = EDGE_CURVE ( 'NONE', #294, #335, #131, .T. ) ;
#55 = DIRECTION ( 'NONE',  ( -0.000000000000000000, -0.000000000000000000, -1.000000000000000000 ) ) ;
#56 = EDGE_LOOP ( 'NONE', ( #323, #336 ) ) ;
#57 = DIRECTION ( 'NONE',  ( 1.000000000000000000, 0.000000000000000000, 0.000000000000000000 ) ) ;
#58 = ADVANCED_FACE ( 'NONE', ( #17 ), #353, .F. ) ;
#59 = AXIS2_PLACEMENT_3D ( 'NONE', #120, #36, #95 ) ;
#60 = CARTESIAN_POINT ( 'NONE',  ( 0.000000000000000000, 0.000000000000000000, 0.000000000000000000 ) ) ;
#61 = ORIENTED_EDGE ( 'NONE', *, *, #230, .T. ) ;
#62 = MANIFOLD_SOLID_BREP ( 'Odebrat vysunutím3', #136 ) ;
#63 = ORIENTED_EDGE ( 'NONE', *, *, #24, .T. ) ;
#64 = FACE_OUTER_BOUND ( 'NONE', #66, .T. ) ;
#65 = EDGE_CURVE ( 'NONE', #329, #368, #187, .T. ) ;
#66 = EDGE_LOOP ( 'NONE', ( #272, #209, #121, #127 ) ) ;
#67 = CARTESIAN_POINT ( 'NONE',  ( 0.000000000000000000, 0.000000000000000000, 7.000000000000000000 ) ) ;
#68 = ORIENTED_EDGE ( 'NONE', *, *, #225, .T. ) ;
#69 = DIRECTION ( 'NONE',  ( 0.000000000000000000, 0.000000000000000000, 1.000000000000000000 ) ) ;
#70 = VERTEX_POINT ( 'NONE', #107 ) ;
#71 = CARTESIAN_POINT ( 'NONE',  ( 0.000000000000000000, 0.000000000000000000, 7.699999999999985079 ) ) ;
#72 = EDGE_CURVE ( 'NONE', #166, #347, #224, .T. ) ;
#73 = AXIS2_PLACEMENT_3D ( 'NONE', #144, #319, #115 ) ;
#74 = ORIENTED_EDGE ( 'NONE', *, *, #140, .T. ) ;
#75 = DIRECTION ( 'NONE',  ( 1.000000000000000000, 0.000000000000000000, 0.000000000000000000 ) ) ;
#76 = APPROVAL_STATUS ( 'not_yet_approved' ) ;
#77 = EDGE_LOOP ( 'NONE', ( #302, #44, #215, #74 ) ) ;
#78 = MECHANICAL_CONTEXT ( 'NONE', #135, 'mechanical' ) ;
#79 = AXIS2_PLACEMENT_3D ( 'NONE', #260, #55, #291 ) ;
#80 = FACE_BOUND ( 'NONE', #249, .T. ) ;
#81 = PRODUCT_DEFINITION_FORMATION_WITH_SPECIFIED_SOURCE ( 'LIBOVOLNÝ', '', #175, .NOT_KNOWN. ) ;
#82 = DATE_AND_TIME ( #25, #269 ) ;
#83 = ORIENTED_EDGE ( 'NONE', *, *, #250, .F. ) ;
#84 = DIRECTION ( 'NONE',  ( -1.000000000000000000, 1.224646799147353454E-16, 0.000000000000000000 ) ) ;
#85 = CIRCLE ( 'NONE', #37, 6.000000000000000888 ) ;
#86 = CARTESIAN_POINT ( 'NONE',  ( 0.000000000000000000, 0.000000000000000000, 282.0000000000000000 ) ) ;
#87 = DIRECTION ( 'NONE',  ( -0.000000000000000000, -0.000000000000000000, -1.000000000000000000 ) ) ;
#88 = ORIENTED_EDGE ( 'NONE', *, *, #250, .T. ) ;
#89 = DIRECTION ( 'NONE',  ( 1.000000000000000000, 0.000000000000000000, 0.000000000000000000 ) ) ;
#90 = AXIS2_PLACEMENT_3D ( 'NONE', #369, #267, #276 ) ;
#91 = CARTESIAN_POINT ( 'NONE',  ( 0.000000000000000000, 0.000000000000000000, 282.0000000000000000 ) ) ;
#92 = DESIGN_CONTEXT ( 'detailed design', #345, 'design' ) ;
#93 = DIRECTION ( 'NONE',  ( 1.000000000000000000, 0.000000000000000000, 0.000000000000000000 ) ) ;
#94 = ORIENTED_EDGE ( 'NONE', *, *, #219, .T. ) ;
#95 = DIRECTION ( 'NONE',  ( -1.000000000000000000, 0.000000000000000000, 0.000000000000000000 ) ) ;
#96 = AXIS2_PLACEMENT_3D ( 'NONE', #381, #232, #84 ) ;
#97 = EDGE_LOOP ( 'NONE', ( #193, #145, #288, #13 ) ) ;
#98 = PLANE ( 'NONE',  #189 ) ;
#99 = EDGE_CURVE ( 'NONE', #166, #380, #32, .T. ) ;
#100 = FACE_OUTER_BOUND ( 'NONE', #56, .T. ) ;
#101 = CALENDAR_DATE ( 2022, 8, 7 ) ;
#102 = APPROVAL_PERSON_ORGANIZATION ( #132, #48, #251 ) ;
#103 = FACE_OUTER_BOUND ( 'NONE', #217, .T. ) ;
#104 = COORDINATED_UNIVERSAL_TIME_OFFSET ( 1, 0, .AHEAD. ) ;
#105 = DIRECTION ( 'NONE',  ( -0.000000000000000000, -0.000000000000000000, -1.000000000000000000 ) ) ;
#106 = SHAPE_DEFINITION_REPRESENTATION ( #300, #328 ) ;
#107 = CARTESIAN_POINT ( 'NONE',  ( -4.099999999999999645, 0.000000000000000000, 0.000000000000000000 ) ) ;
#108 = DIRECTION ( 'NONE',  ( -0.000000000000000000, -0.000000000000000000, -1.000000000000000000 ) ) ;
#109 = SECURITY_CLASSIFICATION ( '', '', #314 ) ;
#110 = CC_DESIGN_DATE_AND_TIME_ASSIGNMENT ( #156, #375, ( #109 ) ) ;
#111 = CARTESIAN_POINT ( 'NONE',  ( 0.000000000000000000, 0.000000000000000000, 7.000000000000000000 ) ) ;
#112 = CARTESIAN_POINT ( 'NONE',  ( 0.000000000000000000, 0.000000000000000000, 0.000000000000000000 ) ) ;
#113 = AXIS2_PLACEMENT_3D ( 'NONE', #112, #355, #116 ) ;
#114 = EDGE_CURVE ( 'NONE', #380, #166, #341, .T. ) ;
#115 = DIRECTION ( 'NONE',  ( 1.000000000000000000, 0.000000000000000000, 0.000000000000000000 ) ) ;
#116 = DIRECTION ( 'NONE',  ( 1.000000000000000000, 0.000000000000000000, 0.000000000000000000 ) ) ;
#117 = CARTESIAN_POINT ( 'NONE',  ( 0.000000000000000000, 0.000000000000000000, 282.0000000000000000 ) ) ;
#118 = EDGE_CURVE ( 'NONE', #329, #366, #359, .T. ) ;
#119 = DIRECTION ( 'NONE',  ( 0.000000000000000000, 0.000000000000000000, 1.000000000000000000 ) ) ;
#120 = CARTESIAN_POINT ( 'NONE',  ( 0.000000000000000000, 0.000000000000000000, 7.000000000000000000 ) ) ;
#121 = ORIENTED_EDGE ( 'NONE', *, *, #149, .T. ) ;
#122 = LOCAL_TIME ( 16, 34, 25.00000000000000000, #165 ) ;
#123 = FACE_OUTER_BOUND ( 'NONE', #77, .T. ) ;
#124 = ADVANCED_FACE ( 'NONE', ( #201 ), #295, .T. ) ;
#125 = ORIENTED_EDGE ( 'NONE', *, *, #65, .F. ) ;
#126 = CARTESIAN_POINT ( 'NONE',  ( -6.000000000000000888, 0.000000000000000000, 7.699999999999985079 ) ) ;
#127 = ORIENTED_EDGE ( 'NONE', *, *, #236, .T. ) ;
#128 = PERSON_AND_ORGANIZATION ( #155, #33 ) ;
#129 = CALENDAR_DATE ( 2022, 8, 7 ) ;
#130 = AXIS2_PLACEMENT_3D ( 'NONE', #117, #333, #179 ) ;
#131 = LINE ( 'NONE', #310, #306 ) ;
#132 = PERSON_AND_ORGANIZATION ( #155, #33 ) ;
#133 = DIRECTION ( 'NONE',  ( -0.000000000000000000, -0.000000000000000000, -1.000000000000000000 ) ) ;
#134 = DIRECTION ( 'NONE',  ( 1.000000000000000000, 0.000000000000000000, 0.000000000000000000 ) ) ;
#135 = APPLICATION_CONTEXT ( 'configuration controlled 3d designs of mechanical parts and assemblies' ) ;
#136 = CLOSED_SHELL ( 'NONE', ( #374, #297, #124, #137, #321, #377, #6, #270, #147, #58, #330 ) ) ;
#137 = ADVANCED_FACE ( 'NONE', ( #235 ), #30, .T. ) ;
#138 = PLANE ( 'NONE',  #181 ) ;
#139 = CARTESIAN_POINT ( 'NONE',  ( -10.00000000000000000, 0.000000000000000000, 7.000000000000000000 ) ) ;
#140 = EDGE_CURVE ( 'NONE', #347, #148, #233, .T. ) ;
#141 = DIRECTION ( 'NONE',  ( -1.000000000000000000, 0.000000000000000000, 0.000000000000000000 ) ) ;
#142 = AXIS2_PLACEMENT_3D ( 'NONE', #14, #69, #93 ) ;
#143 = CARTESIAN_POINT ( 'NONE',  ( 6.700000000000001066, 0.000000000000000000, 7.699999999999985079 ) ) ;
#144 = CARTESIAN_POINT ( 'NONE',  ( 0.000000000000000000, 0.000000000000000000, 0.000000000000000000 ) ) ;
#145 = ORIENTED_EDGE ( 'NONE', *, *, #190, .T. ) ;
#146 = DIRECTION ( 'NONE',  ( -0.000000000000000000, -0.000000000000000000, -1.000000000000000000 ) ) ;
#147 = ADVANCED_FACE ( 'NONE', ( #351, #29 ), #138, .T. ) ;
#148 = VERTEX_POINT ( 'NONE', #234 ) ;
#149 = EDGE_CURVE ( 'NONE', #368, #70, #3, .T. ) ;
#150 = CYLINDRICAL_SURFACE ( 'NONE', #59, 10.00000000000000000 ) ;
#151 = ORIENTED_EDGE ( 'NONE', *, *, #164, .T. ) ;
#152 = APPROVAL_PERSON_ORGANIZATION ( #216, #208, #162 ) ;
#153 = DIRECTION ( 'NONE',  ( 1.000000000000000000, 0.000000000000000000, 0.000000000000000000 ) ) ;
#154 = CARTESIAN_POINT ( 'NONE',  ( 0.000000000000000000, 0.000000000000000000, 0.000000000000000000 ) ) ;
#155 = PERSON ( 'NEURÈENÝ', 'NEURÈENÝ', 'NEURÈENÝ', ('NEURÈENÝ'), ('NEURÈENÝ'), ('NEURÈENÝ') ) ;
#156 = DATE_AND_TIME ( #129, #324 ) ;
#157 = ORIENTED_EDGE ( 'NONE', *, *, #236, .F. ) ;
#158 = EDGE_CURVE ( 'NONE', #335, #180, #172, .T. ) ;
#159 = AXIS2_PLACEMENT_3D ( 'NONE', #192, #105, #280 ) ;
#160 = AXIS2_PLACEMENT_3D ( 'NONE', #143, #264, #207 ) ;
#161 = ORIENTED_EDGE ( 'NONE', *, *, #140, .F. ) ;
#162 = APPROVAL_ROLE ( '' ) ;
#163 = DIRECTION ( 'NONE',  ( -0.000000000000000000, -0.000000000000000000, -1.000000000000000000 ) ) ;
#164 = EDGE_CURVE ( 'NONE', #148, #347, #168, .T. ) ;
#165 = COORDINATED_UNIVERSAL_TIME_OFFSET ( 1, 0, .AHEAD. ) ;
#166 = VERTEX_POINT ( 'NONE', #139 ) ;
#167 = DIRECTION ( 'NONE',  ( -0.000000000000000000, -0.000000000000000000, -1.000000000000000000 ) ) ;
#168 = CIRCLE ( 'NONE', #73, 10.00000000000000000 ) ;
#169 = DIRECTION ( 'NONE',  ( 0.000000000000000000, 0.000000000000000000, 1.000000000000000000 ) ) ;
#170 = VERTEX_POINT ( 'NONE', #356 ) ;
#171 = DIRECTION ( 'NONE',  ( 0.000000000000000000, 0.000000000000000000, 1.000000000000000000 ) ) ;
#172 = CIRCLE ( 'NONE', #96, 0.7000000000000000666 ) ;
#173 = DIRECTION ( 'NONE',  ( 0.000000000000000000, 0.000000000000000000, 1.000000000000000000 ) ) ;
#174 = CC_DESIGN_PERSON_AND_ORGANIZATION_ASSIGNMENT ( #49, #284, ( #81 ) ) ;
#175 = PRODUCT ( '99ad', '99ad', '', ( #78 ) ) ;
#176 = FACE_OUTER_BOUND ( 'NONE', #7, .T. ) ;
#177 = VECTOR ( 'NONE', #163, 1000.000000000000000 ) ;
#178 = AXIS2_PLACEMENT_3D ( 'NONE', #240, #146, #271 ) ;
#179 = DIRECTION ( 'NONE',  ( -1.000000000000000000, 0.000000000000000000, 0.000000000000000000 ) ) ;
#180 = VERTEX_POINT ( 'NONE', #265 ) ;
#181 = AXIS2_PLACEMENT_3D ( 'NONE', #86, #173, #262 ) ;
#182 = PERSON_AND_ORGANIZATION_ROLE ( 'creator' ) ;
#183 = EDGE_CURVE ( 'NONE', #380, #148, #290, .T. ) ;
#184 = ORIENTED_EDGE ( 'NONE', *, *, #303, .F. ) ;
#185 = DATE_AND_TIME ( #307, #231 ) ;
#186 = VERTEX_POINT ( 'NONE', #53 ) ;
#187 = CIRCLE ( 'NONE', #218, 4.099999999999999645 ) ;
#188 = COORDINATED_UNIVERSAL_TIME_OFFSET ( 1, 0, .AHEAD. ) ;
#189 = AXIS2_PLACEMENT_3D ( 'NONE', #67, #327, #238 ) ;
#190 = EDGE_CURVE ( 'NONE', #170, #186, #357, .T. ) ;
#191 = CALENDAR_DATE ( 2022, 8, 7 ) ;
#192 = CARTESIAN_POINT ( 'NONE',  ( 0.000000000000000000, 0.000000000000000000, 0.000000000000000000 ) ) ;
#193 = ORIENTED_EDGE ( 'NONE', *, *, #219, .F. ) ;
#194 = PRODUCT_DEFINITION ( 'NEZNÁMÝ', '', #81, #92 ) ;
#195 = CIRCLE ( 'NONE', #159, 4.099999999999999645 ) ;
#196 = DIRECTION ( 'NONE',  ( 0.000000000000000000, 0.000000000000000000, -1.000000000000000000 ) ) ;
#197 = CIRCLE ( 'NONE', #90, 6.000000000000000888 ) ;
#198 = CARTESIAN_POINT ( 'NONE',  ( 0.000000000000000000, 0.000000000000000000, 282.0000000000000000 ) ) ;
#199 = DIRECTION ( 'NONE',  ( -0.000000000000000000, -0.000000000000000000, -1.000000000000000000 ) ) ;
#200 = ORIENTED_EDGE ( 'NONE', *, *, #158, .F. ) ;
#201 = FACE_OUTER_BOUND ( 'NONE', #97, .T. ) ;
#202 = CC_DESIGN_SECURITY_CLASSIFICATION ( #109, ( #81 ) ) ;
#203 = CC_DESIGN_PERSON_AND_ORGANIZATION_ASSIGNMENT ( #43, #309, ( #81 ) ) ;
#204 = CARTESIAN_POINT ( 'NONE',  ( 10.00000000000000000, 1.224646799147353256E-15, 7.000000000000000000 ) ) ;
#205 = VERTEX_POINT ( 'NONE', #51 ) ;
#206 = ORIENTED_EDGE ( 'NONE', *, *, #183, .T. ) ;
#207 = DIRECTION ( 'NONE',  ( 0.000000000000000000, 0.000000000000000000, -1.000000000000000000 ) ) ;
#208 = APPROVAL ( #76, 'NEURÈENÝ' ) ;
#209 = ORIENTED_EDGE ( 'NONE', *, *, #65, .T. ) ;
#210 = AXIS2_PLACEMENT_3D ( 'NONE', #46, #282, #313 ) ;
#211 = CIRCLE ( 'NONE', #160, 0.7000000000000000666 ) ;
#212 = APPLICATION_PROTOCOL_DEFINITION ( 'international standard', 'config_control_design', 1994, #135 ) ;
#213 = ORIENTED_EDGE ( 'NONE', *, *, #315, .F. ) ;
#214 = DIRECTION ( 'NONE',  ( 0.000000000000000000, 0.000000000000000000, 1.000000000000000000 ) ) ;
#215 = ORIENTED_EDGE ( 'NONE', *, *, #72, .T. ) ;
#216 = PERSON_AND_ORGANIZATION ( #155, #33 ) ;
#217 = EDGE_LOOP ( 'NONE', ( #161, #258 ) ) ;
#218 = AXIS2_PLACEMENT_3D ( 'NONE', #255, #257, #376 ) ;
#219 = EDGE_CURVE ( 'NONE', #170, #294, #85, .T. ) ;
#220 =( GEOMETRIC_REPRESENTATION_CONTEXT ( 3 ) GLOBAL_UNCERTAINTY_ASSIGNED_CONTEXT ( ( #247 ) ) GLOBAL_UNIT_ASSIGNED_CONTEXT ( ( #360, #41, #363 ) ) REPRESENTATION_CONTEXT ( 'NONE', 'WORKASPACE' ) );
#221 = APPROVAL_DATE_TIME ( #281, #208 ) ;
#222 = PLANE ( 'NONE',  #364 ) ;
#223 = PERSON_AND_ORGANIZATION ( #155, #33 ) ;
#224 = LINE ( 'NONE', #228, #177 ) ;
#225 = EDGE_CURVE ( 'NONE', #180, #205, #311, .T. ) ;
#226 = DATE_AND_TIME ( #191, #122 ) ;
#227 = CIRCLE ( 'NONE', #142, 6.000000000000000888 ) ;
#228 = CARTESIAN_POINT ( 'NONE',  ( -10.00000000000000000, 0.000000000000000000, 7.000000000000000000 ) ) ;
#229 = DIRECTION ( 'NONE',  ( -0.000000000000000000, -0.000000000000000000, -1.000000000000000000 ) ) ;
#230 = EDGE_CURVE ( 'NONE', #368, #329, #15, .T. ) ;
#231 = LOCAL_TIME ( 16, 34, 25.00000000000000000, #104 ) ;
#232 = DIRECTION ( 'NONE',  ( 1.224646799147353207E-16, 1.000000000000000000, -0.000000000000000000 ) ) ;
#233 = CIRCLE ( 'NONE', #113, 10.00000000000000000 ) ;
#234 = CARTESIAN_POINT ( 'NONE',  ( 10.00000000000000000, 1.224646799147353256E-15, 0.000000000000000000 ) ) ;
#235 = FACE_OUTER_BOUND ( 'NONE', #352, .T. ) ;
#236 = EDGE_CURVE ( 'NONE', #70, #366, #318, .T. ) ;
#237 = AXIS2_PLACEMENT_3D ( 'NONE', #372, #343, #26 ) ;
#238 = DIRECTION ( 'NONE',  ( 1.000000000000000000, 0.000000000000000000, -0.000000000000000000 ) ) ;
#239 = ORIENTED_EDGE ( 'NONE', *, *, #149, .F. ) ;
#240 = CARTESIAN_POINT ( 'NONE',  ( 0.000000000000000000, 0.000000000000000000, 282.0000000000000000 ) ) ;
#241 = EDGE_LOOP ( 'NONE', ( #40, #94 ) ) ;
#242 = CARTESIAN_POINT ( 'NONE',  ( 4.099999999999999645, 5.021051876504147385E-16, 282.0000000000000000 ) ) ;
#243 = ORIENTED_EDGE ( 'NONE', *, *, #54, .T. ) ;
#244 = CC_DESIGN_APPROVAL ( #256, ( #194 ) ) ;
#245 = CARTESIAN_POINT ( 'NONE',  ( -4.099999999999999645, 0.000000000000000000, 282.0000000000000000 ) ) ;
#246 = ORIENTED_EDGE ( 'NONE', *, *, #24, .F. ) ;
#247 = UNCERTAINTY_MEASURE_WITH_UNIT (LENGTH_MEASURE( 1.000000000000000082E-05 ), #360, 'distance_accuracy_value', 'NONE');
#248 = FACE_BOUND ( 'NONE', #370, .T. ) ;
#249 = EDGE_LOOP ( 'NONE', ( #157, #246 ) ) ;
#250 = EDGE_CURVE ( 'NONE', #186, #205, #211, .T. ) ;
#251 = APPROVAL_ROLE ( '' ) ;
#252 = ORIENTED_EDGE ( 'NONE', *, *, #225, .F. ) ;
#253 = AXIS2_PLACEMENT_3D ( 'NONE', #8, #214, #301 ) ;
#254 = PERSON_AND_ORGANIZATION_ROLE ( 'classification_officer' ) ;
#255 = CARTESIAN_POINT ( 'NONE',  ( 0.000000000000000000, 0.000000000000000000, 282.0000000000000000 ) ) ;
#256 = APPROVAL ( #349, 'NEURÈENÝ' ) ;
#257 = DIRECTION ( 'NONE',  ( 0.000000000000000000, 0.000000000000000000, 1.000000000000000000 ) ) ;
#258 = ORIENTED_EDGE ( 'NONE', *, *, #164, .F. ) ;
#259 = APPROVAL_STATUS ( 'not_yet_approved' ) ;
#260 = CARTESIAN_POINT ( 'NONE',  ( 0.000000000000000000, 0.000000000000000000, 282.0000000000000000 ) ) ;
#261 = CARTESIAN_POINT ( 'NONE',  ( 6.000000000000000888, 7.347880794884120722E-16, 282.0000000000000000 ) ) ;
#262 = DIRECTION ( 'NONE',  ( 1.000000000000000000, 0.000000000000000000, -0.000000000000000000 ) ) ;
#263 = CC_DESIGN_PERSON_AND_ORGANIZATION_ASSIGNMENT ( #346, #254, ( #109 ) ) ;
#264 = DIRECTION ( 'NONE',  ( 0.000000000000000000, -1.000000000000000000, 0.000000000000000000 ) ) ;
#265 = CARTESIAN_POINT ( 'NONE',  ( -6.700000000000001066, 8.205133554287267548E-16, 6.999999999999992006 ) ) ;
#266 = ORIENTED_EDGE ( 'NONE', *, *, #190, .F. ) ;
#267 = DIRECTION ( 'NONE',  ( 0.000000000000000000, 0.000000000000000000, 1.000000000000000000 ) ) ;
#268 = EDGE_LOOP ( 'NONE', ( #200, #274, #88, #252 ) ) ;
#269 = LOCAL_TIME ( 16, 34, 25.00000000000000000, #50 ) ;
#270 = ADVANCED_FACE ( 'NONE', ( #338 ), #273, .T. ) ;
#271 = DIRECTION ( 'NONE',  ( -1.000000000000000000, 0.000000000000000000, 0.000000000000000000 ) ) ;
#272 = ORIENTED_EDGE ( 'NONE', *, *, #118, .F. ) ;
#273 = CYLINDRICAL_SURFACE ( 'NONE', #178, 6.000000000000000888 ) ;
#274 = ORIENTED_EDGE ( 'NONE', *, *, #337, .F. ) ;
#275 = AXIS2_PLACEMENT_3D ( 'NONE', #71, #119, #153 ) ;
#276 = DIRECTION ( 'NONE',  ( 1.000000000000000000, 0.000000000000000000, 0.000000000000000000 ) ) ;
#277 = CC_DESIGN_DATE_AND_TIME_ASSIGNMENT ( #185, #285, ( #194 ) ) ;
#278 = EDGE_LOOP ( 'NONE', ( #305, #125 ) ) ;
#279 = PERSON_AND_ORGANIZATION ( #155, #33 ) ;
#280 = DIRECTION ( 'NONE',  ( 1.000000000000000000, 0.000000000000000000, 0.000000000000000000 ) ) ;
#281 = DATE_AND_TIME ( #101, #379 ) ;
#282 = DIRECTION ( 'NONE',  ( 0.000000000000000000, 0.000000000000000000, 1.000000000000000000 ) ) ;
#283 = AXIS2_PLACEMENT_3D ( 'NONE', #60, #167, #28 ) ;
#284 = PERSON_AND_ORGANIZATION_ROLE ( 'design_supplier' ) ;
#285 = DATE_TIME_ROLE ( 'creation_date' ) ;
#286 = DIRECTION ( 'NONE',  ( 0.000000000000000000, 0.000000000000000000, 1.000000000000000000 ) ) ;
#287 = COORDINATED_UNIVERSAL_TIME_OFFSET ( 1, 0, .AHEAD. ) ;
#288 = ORIENTED_EDGE ( 'NONE', *, *, #337, .T. ) ;
#289 = CIRCLE ( 'NONE', #253, 6.000000000000000888 ) ;
#290 = LINE ( 'NONE', #204, #342 ) ;
#291 = DIRECTION ( 'NONE',  ( -1.000000000000000000, 0.000000000000000000, 0.000000000000000000 ) ) ;
#292 = DIRECTION ( 'NONE',  ( 1.000000000000000000, 0.000000000000000000, 0.000000000000000000 ) ) ;
#293 = CARTESIAN_POINT ( 'NONE',  ( -4.099999999999999645, 0.000000000000000000, 282.0000000000000000 ) ) ;
#294 = VERTEX_POINT ( 'NONE', #362 ) ;
#295 = CYLINDRICAL_SURFACE ( 'NONE', #79, 6.000000000000000888 ) ;
#296 = CYLINDRICAL_SURFACE ( 'NONE', #42, 4.099999999999999645 ) ;
#297 = ADVANCED_FACE ( 'NONE', ( #176 ), #21, .F. ) ;
#298 = AXIS2_PLACEMENT_3D ( 'NONE', #320, #5, #57 ) ;
#299 = CARTESIAN_POINT ( 'NONE',  ( -10.00000000000000000, 0.000000000000000000, 0.000000000000000000 ) ) ;
#300 = PRODUCT_DEFINITION_SHAPE ( 'NONE', 'NONE',  #194 ) ;
#301 = DIRECTION ( 'NONE',  ( 1.000000000000000000, 0.000000000000000000, 0.000000000000000000 ) ) ;
#302 = ORIENTED_EDGE ( 'NONE', *, *, #183, .F. ) ;
#303 = EDGE_CURVE ( 'NONE', #294, #170, #197, .T. ) ;
#304 = CARTESIAN_POINT ( 'NONE',  ( 10.00000000000000000, 1.224646799147353256E-15, 7.000000000000000000 ) ) ;
#305 = ORIENTED_EDGE ( 'NONE', *, *, #230, .F. ) ;
#306 = VECTOR ( 'NONE', #133, 1000.000000000000000 ) ;
#307 = CALENDAR_DATE ( 2022, 8, 7 ) ;
#308 = ORIENTED_EDGE ( 'NONE', *, *, #72, .F. ) ;
#309 = PERSON_AND_ORGANIZATION_ROLE ( 'creator' ) ;
#310 = CARTESIAN_POINT ( 'NONE',  ( -6.000000000000000888, 0.000000000000000000, 282.0000000000000000 ) ) ;
#311 = CIRCLE ( 'NONE', #298, 6.700000000000001066 ) ;
#312 = APPROVAL_DATE_TIME ( #82, #256 ) ;
#313 = DIRECTION ( 'NONE',  ( 1.000000000000000000, 0.000000000000000000, 0.000000000000000000 ) ) ;
#314 = SECURITY_CLASSIFICATION_LEVEL ( 'unclassified' ) ;
#315 = EDGE_CURVE ( 'NONE', #335, #186, #227, .T. ) ;
#316 = CARTESIAN_POINT ( 'NONE',  ( 0.000000000000000000, 0.000000000000000000, 7.000000000000000000 ) ) ;
#317 = AXIS2_PLACEMENT_3D ( 'NONE', #111, #169, #292 ) ;
#318 = CIRCLE ( 'NONE', #283, 4.099999999999999645 ) ;
#319 = DIRECTION ( 'NONE',  ( 0.000000000000000000, 0.000000000000000000, 1.000000000000000000 ) ) ;
#320 = CARTESIAN_POINT ( 'NONE',  ( 0.000000000000000000, 0.000000000000000000, 7.000000000000000000 ) ) ;
#321 = ADVANCED_FACE ( 'NONE', ( #123 ), #150, .T. ) ;
#322 = DIRECTION ( 'NONE',  ( 0.000000000000000000, 0.000000000000000000, 1.000000000000000000 ) ) ;
#323 = ORIENTED_EDGE ( 'NONE', *, *, #99, .T. ) ;
#324 = LOCAL_TIME ( 16, 34, 25.00000000000000000, #287 ) ;
#325 = CARTESIAN_POINT ( 'NONE',  ( 0.000000000000000000, 0.000000000000000000, 7.000000000000000000 ) ) ;
#326 = ORIENTED_EDGE ( 'NONE', *, *, #11, .T. ) ;
#327 = DIRECTION ( 'NONE',  ( 0.000000000000000000, 0.000000000000000000, 1.000000000000000000 ) ) ;
#328 = ADVANCED_BREP_SHAPE_REPRESENTATION ( '99ad', ( #62, #52 ), #220 ) ;
#329 = VERTEX_POINT ( 'NONE', #242 ) ;
#330 = ADVANCED_FACE ( 'NONE', ( #64 ), #296, .F. ) ;
#331 = DIRECTION ( 'NONE',  ( 0.000000000000000000, 0.000000000000000000, -1.000000000000000000 ) ) ;
#332 = ORIENTED_EDGE ( 'NONE', *, *, #11, .F. ) ;
#333 = DIRECTION ( 'NONE',  ( 0.000000000000000000, 0.000000000000000000, -1.000000000000000000 ) ) ;
#334 = AXIS2_PLACEMENT_3D ( 'NONE', #91, #171, #34 ) ;
#335 = VERTEX_POINT ( 'NONE', #126 ) ;
#336 = ORIENTED_EDGE ( 'NONE', *, *, #114, .T. ) ;
#337 = EDGE_CURVE ( 'NONE', #186, #335, #289, .T. ) ;
#338 = FACE_OUTER_BOUND ( 'NONE', #361, .T. ) ;
#339 = ORIENTED_EDGE ( 'NONE', *, *, #315, .T. ) ;
#340 = ORIENTED_EDGE ( 'NONE', *, *, #114, .F. ) ;
#341 = CIRCLE ( 'NONE', #317, 10.00000000000000000 ) ;
#342 = VECTOR ( 'NONE', #87, 1000.000000000000000 ) ;
#343 = DIRECTION ( 'NONE',  ( 0.000000000000000000, 0.000000000000000000, 1.000000000000000000 ) ) ;
#344 = APPROVAL_DATE_TIME ( #226, #48 ) ;
#345 = APPLICATION_CONTEXT ( 'configuration controlled 3d designs of mechanical parts and assemblies' ) ;
#346 = PERSON_AND_ORGANIZATION ( #155, #33 ) ;
#347 = VERTEX_POINT ( 'NONE', #299 ) ;
#348 = CC_DESIGN_APPROVAL ( #48, ( #81 ) ) ;
#349 = APPROVAL_STATUS ( 'not_yet_approved' ) ;
#350 = CC_DESIGN_PERSON_AND_ORGANIZATION_ASSIGNMENT ( #128, #182, ( #194 ) ) ;
#351 = FACE_BOUND ( 'NONE', #278, .T. ) ;
#352 = EDGE_LOOP ( 'NONE', ( #340, #206, #151, #308 ) ) ;
#353 = TOROIDAL_SURFACE ( 'NONE', #210, 6.700000000000001066, 0.6999999999999999556 ) ;
#354 = VECTOR ( 'NONE', #199, 1000.000000000000000 ) ;
#355 = DIRECTION ( 'NONE',  ( 0.000000000000000000, 0.000000000000000000, 1.000000000000000000 ) ) ;
#356 = CARTESIAN_POINT ( 'NONE',  ( 6.000000000000000888, 7.347880794884120722E-16, 282.0000000000000000 ) ) ;
#357 = LINE ( 'NONE', #261, #354 ) ;
#358 = VECTOR ( 'NONE', #196, 1000.000000000000000 ) ;
#359 = LINE ( 'NONE', #4, #358 ) ;
#360 =( LENGTH_UNIT ( ) NAMED_UNIT ( * ) SI_UNIT ( .MILLI., .METRE. ) );
#361 = EDGE_LOOP ( 'NONE', ( #266, #184, #243, #339 ) ) ;
#362 = CARTESIAN_POINT ( 'NONE',  ( -6.000000000000000888, 0.000000000000000000, 282.0000000000000000 ) ) ;
#363 =( NAMED_UNIT ( * ) SI_UNIT ( $, .STERADIAN. ) SOLID_ANGLE_UNIT ( ) );
#364 = AXIS2_PLACEMENT_3D ( 'NONE', #27, #286, #23 ) ;
#365 = PRODUCT_RELATED_PRODUCT_CATEGORY ( 'detail', '', ( #175 ) ) ;
#366 = VERTEX_POINT ( 'NONE', #12 ) ;
#367 = CYLINDRICAL_SURFACE ( 'NONE', #130, 4.099999999999999645 ) ;
#368 = VERTEX_POINT ( 'NONE', #245 ) ;
#369 = CARTESIAN_POINT ( 'NONE',  ( 0.000000000000000000, 0.000000000000000000, 282.0000000000000000 ) ) ;
#370 = EDGE_LOOP ( 'NONE', ( #326, #68 ) ) ;
#371 = APPLICATION_PROTOCOL_DEFINITION ( 'international standard', 'config_control_design', 1994, #345 ) ;
#372 = CARTESIAN_POINT ( 'NONE',  ( 0.000000000000000000, 0.000000000000000000, 7.000000000000000000 ) ) ;
#373 = CC_DESIGN_APPROVAL ( #208, ( #109 ) ) ;
#374 = ADVANCED_FACE ( 'NONE', ( #10 ), #367, .F. ) ;
#375 = DATE_TIME_ROLE ( 'classification_date' ) ;
#376 = DIRECTION ( 'NONE',  ( 1.000000000000000000, 0.000000000000000000, 0.000000000000000000 ) ) ;
#377 = ADVANCED_FACE ( 'NONE', ( #248, #100 ), #98, .T. ) ;
#378 = CIRCLE ( 'NONE', #19, 6.700000000000001066 ) ;
#379 = LOCAL_TIME ( 16, 34, 25.00000000000000000, #188 ) ;
#380 = VERTEX_POINT ( 'NONE', #304 ) ;
#381 = CARTESIAN_POINT ( 'NONE',  ( -6.700000000000001066, 8.205133554287267548E-16, 7.699999999999985079 ) ) ;
ENDSEC;
END-ISO-10303-21;
