ISO-10303-21;
HEADER;
FILE_DESCRIPTION (( 'STEP AP203' ),
    '1' );
FILE_NAME ('5dc2.STEP',
    '2022-07-08T14:31:54',
    ( '' ),
    ( '' ),
    'SwSTEP 2.0',
    'SolidWorks 2019',
    '' );
FILE_SCHEMA (( 'CONFIG_CONTROL_DESIGN' ));
ENDSEC;

DATA;
#1 = SHAPE_DEFINITION_REPRESENTATION ( #78, #255 ) ;
#2 = EDGE_CURVE ( 'NONE', #77, #50, #108, .T. ) ;
#3 = DIRECTION ( 'NONE',  ( -0.000000000000000000, -0.000000000000000000, -1.000000000000000000 ) ) ;
#4 = DIRECTION ( 'NONE',  ( 0.000000000000000000, 0.000000000000000000, 1.000000000000000000 ) ) ;
#5 = CARTESIAN_POINT ( 'NONE',  ( 0.000000000000000000, 0.000000000000000000, 7.699999999999998401 ) ) ;
#6 = FACE_OUTER_BOUND ( 'NONE', #282, .T. ) ;
#7 = DIRECTION ( 'NONE',  ( 1.000000000000000000, 0.000000000000000000, 0.000000000000000000 ) ) ;
#8 = ORIENTED_EDGE ( 'NONE', *, *, #368, .F. ) ;
#9 = CLOSED_SHELL ( 'NONE', ( #335, #208, #129, #245, #192, #280, #85, #221, #250, #146, #285 ) ) ;
#10 = EDGE_CURVE ( 'NONE', #342, #166, #315, .T. ) ;
#11 = FACE_OUTER_BOUND ( 'NONE', #131, .T. ) ;
#12 = DIRECTION ( 'NONE',  ( 1.000000000000000000, 0.000000000000000000, -0.000000000000000000 ) ) ;
#13 = CARTESIAN_POINT ( 'NONE',  ( 0.000000000000000000, 0.000000000000000000, 107.0000000000000142 ) ) ;
#14 = DIRECTION ( 'NONE',  ( 1.000000000000000000, 0.000000000000000000, 0.000000000000000000 ) ) ;
#15 = ORIENTED_EDGE ( 'NONE', *, *, #154, .T. ) ;
#16 = EDGE_CURVE ( 'NONE', #376, #276, #62, .T. ) ;
#17 = APPROVAL_DATE_TIME ( #349, #172 ) ;
#18 = ORIENTED_EDGE ( 'NONE', *, *, #101, .T. ) ;
#19 = COORDINATED_UNIVERSAL_TIME_OFFSET ( 1, 0, .AHEAD. ) ;
#20 = MECHANICAL_CONTEXT ( 'NONE', #45, 'mechanical' ) ;
#21 = EDGE_CURVE ( 'NONE', #197, #144, #333, .T. ) ;
#22 = ORIENTED_EDGE ( 'NONE', *, *, #305, .F. ) ;
#23 =( NAMED_UNIT ( * ) SI_UNIT ( $, .STERADIAN. ) SOLID_ANGLE_UNIT ( ) );
#24 = SECURITY_CLASSIFICATION ( '', '', #259 ) ;
#25 = EDGE_LOOP ( 'NONE', ( #22, #8, #142, #346 ) ) ;
#26 = DIRECTION ( 'NONE',  ( 0.000000000000000000, 0.000000000000000000, -1.000000000000000000 ) ) ;
#27 = CC_DESIGN_DATE_AND_TIME_ASSIGNMENT ( #191, #237, ( #24 ) ) ;
#28 = CARTESIAN_POINT ( 'NONE',  ( 0.000000000000000000, 0.000000000000000000, 0.000000000000000000 ) ) ;
#29 = AXIS2_PLACEMENT_3D ( 'NONE', #273, #336, #38 ) ;
#30 = CARTESIAN_POINT ( 'NONE',  ( -6.000000000000000888, 0.000000000000000000, 107.0000000000000142 ) ) ;
#31 = CARTESIAN_POINT ( 'NONE',  ( 6.000000000000000888, 7.347880794884120722E-16, 107.0000000000000142 ) ) ;
#32 = EDGE_CURVE ( 'NONE', #350, #198, #66, .T. ) ;
#33 = VECTOR ( 'NONE', #26, 1000.000000000000000 ) ;
#34 = PERSON_AND_ORGANIZATION ( #98, #178 ) ;
#35 = DIRECTION ( 'NONE',  ( -1.000000000000000000, 0.000000000000000000, 0.000000000000000000 ) ) ;
#36 = CC_DESIGN_APPROVAL ( #274, ( #97 ) ) ;
#37 = DIRECTION ( 'NONE',  ( -0.000000000000000000, -0.000000000000000000, -1.000000000000000000 ) ) ;
#38 = DIRECTION ( 'NONE',  ( -1.000000000000000000, 0.000000000000000000, 0.000000000000000000 ) ) ;
#39 = VERTEX_POINT ( 'NONE', #124 ) ;
#40 = VECTOR ( 'NONE', #295, 1000.000000000000000 ) ;
#41 = PLANE ( 'NONE',  #42 ) ;
#42 = AXIS2_PLACEMENT_3D ( 'NONE', #343, #185, #106 ) ;
#43 = LOCAL_TIME ( 16, 31, 54.00000000000000000, #19 ) ;
#44 = FACE_BOUND ( 'NONE', #72, .T. ) ;
#45 = APPLICATION_CONTEXT ( 'configuration controlled 3d designs of mechanical parts and assemblies' ) ;
#46 = ORIENTED_EDGE ( 'NONE', *, *, #10, .F. ) ;
#47 = CARTESIAN_POINT ( 'NONE',  ( 0.000000000000000000, 0.000000000000000000, 7.699999999999998401 ) ) ;
#48 = ORIENTED_EDGE ( 'NONE', *, *, #21, .T. ) ;
#49 = EDGE_CURVE ( 'NONE', #197, #77, #348, .T. ) ;
#50 = VERTEX_POINT ( 'NONE', #152 ) ;
#51 = PERSON_AND_ORGANIZATION_ROLE ( 'design_owner' ) ;
#52 = ORIENTED_EDGE ( 'NONE', *, *, #125, .F. ) ;
#53 = EDGE_CURVE ( 'NONE', #77, #197, #110, .T. ) ;
#54 = DATE_AND_TIME ( #79, #182 ) ;
#55 = PERSON_AND_ORGANIZATION ( #98, #178 ) ;
#56 = CALENDAR_DATE ( 2022, 8, 7 ) ;
#57 = ORIENTED_EDGE ( 'NONE', *, *, #154, .F. ) ;
#58 = FACE_OUTER_BOUND ( 'NONE', #375, .T. ) ;
#59 = EDGE_CURVE ( 'NONE', #246, #317, #84, .T. ) ;
#60 = APPROVAL_STATUS ( 'not_yet_approved' ) ;
#61 = CARTESIAN_POINT ( 'NONE',  ( -10.00000000000000000, 0.000000000000000000, 0.000000000000000000 ) ) ;
#62 = CIRCLE ( 'NONE', #243, 6.700000000000001066 ) ;
#63 = MANIFOLD_SOLID_BREP ( 'Odebrat vysunutím3', #9 ) ;
#64 = FACE_OUTER_BOUND ( 'NONE', #25, .T. ) ;
#65 = CARTESIAN_POINT ( 'NONE',  ( 10.00000000000000000, 1.224646799147353256E-15, 7.000000000000000000 ) ) ;
#66 = LINE ( 'NONE', #327, #33 ) ;
#67 = FACE_OUTER_BOUND ( 'NONE', #190, .T. ) ;
#68 = CYLINDRICAL_SURFACE ( 'NONE', #227, 10.00000000000000000 ) ;
#69 = DIRECTION ( 'NONE',  ( 0.000000000000000000, 0.000000000000000000, -1.000000000000000000 ) ) ;
#70 = EDGE_LOOP ( 'NONE', ( #57, #290, #217, #18 ) ) ;
#71 = DIRECTION ( 'NONE',  ( 0.000000000000000000, 0.000000000000000000, 1.000000000000000000 ) ) ;
#72 = EDGE_LOOP ( 'NONE', ( #261, #186 ) ) ;
#73 = VECTOR ( 'NONE', #361, 1000.000000000000000 ) ;
#74 = CARTESIAN_POINT ( 'NONE',  ( 0.000000000000000000, 0.000000000000000000, 7.000000000000000000 ) ) ;
#75 = PERSON_AND_ORGANIZATION_ROLE ( 'creator' ) ;
#76 = DIRECTION ( 'NONE',  ( 0.000000000000000000, 0.000000000000000000, 1.000000000000000000 ) ) ;
#77 = VERTEX_POINT ( 'NONE', #30 ) ;
#78 = PRODUCT_DEFINITION_SHAPE ( 'NONE', 'NONE',  #120 ) ;
#79 = CALENDAR_DATE ( 2022, 8, 7 ) ;
#80 = ORIENTED_EDGE ( 'NONE', *, *, #373, .F. ) ;
#81 = EDGE_LOOP ( 'NONE', ( #231, #202 ) ) ;
#82 = CARTESIAN_POINT ( 'NONE',  ( 6.700000000000001066, 0.000000000000000000, 7.699999999999998401 ) ) ;
#83 = ORIENTED_EDGE ( 'NONE', *, *, #21, .F. ) ;
#84 = CIRCLE ( 'NONE', #329, 10.00000000000000000 ) ;
#85 = ADVANCED_FACE ( 'NONE', ( #93, #6 ), #210, .F. ) ;
#86 = VERTEX_POINT ( 'NONE', #122 ) ;
#87 = CIRCLE ( 'NONE', #214, 4.250000000000000000 ) ;
#88 = CARTESIAN_POINT ( 'NONE',  ( 0.000000000000000000, 0.000000000000000000, 107.0000000000000142 ) ) ;
#89 = CARTESIAN_POINT ( 'NONE',  ( 0.000000000000000000, 0.000000000000000000, 107.0000000000000142 ) ) ;
#90 = CIRCLE ( 'NONE', #323, 4.250000000000000000 ) ;
#91 = DIRECTION ( 'NONE',  ( 0.000000000000000000, 0.000000000000000000, 1.000000000000000000 ) ) ;
#92 = DIRECTION ( 'NONE',  ( 1.000000000000000000, 0.000000000000000000, -0.000000000000000000 ) ) ;
#93 = FACE_BOUND ( 'NONE', #253, .T. ) ;
#94 = DIRECTION ( 'NONE',  ( 1.000000000000000000, 0.000000000000000000, 0.000000000000000000 ) ) ;
#95 = CC_DESIGN_PERSON_AND_ORGANIZATION_ASSIGNMENT ( #115, #345, ( #24 ) ) ;
#96 = CIRCLE ( 'NONE', #293, 4.250000000000000000 ) ;
#97 = PRODUCT_DEFINITION_FORMATION_WITH_SPECIFIED_SOURCE ( 'LIBOVOLNÝ', '', #320, .NOT_KNOWN. ) ;
#98 = PERSON ( 'NEURÈENÝ', 'NEURÈENÝ', 'NEURÈENÝ', ('NEURÈENÝ'), ('NEURÈENÝ'), ('NEURÈENÝ') ) ;
#99 = FACE_OUTER_BOUND ( 'NONE', #283, .T. ) ;
#100 = CARTESIAN_POINT ( 'NONE',  ( 4.250000000000000000, 5.204748896376249713E-16, 0.000000000000000000 ) ) ;
#101 = EDGE_CURVE ( 'NONE', #166, #342, #301, .T. ) ;
#102 = APPLICATION_CONTEXT ( 'configuration controlled 3d designs of mechanical parts and assemblies' ) ;
#103 = AXIS2_PLACEMENT_3D ( 'NONE', #270, #145, #119 ) ;
#104 = DIRECTION ( 'NONE',  ( -1.000000000000000000, 1.224646799147353454E-16, 0.000000000000000000 ) ) ;
#105 = EDGE_LOOP ( 'NONE', ( #287, #325, #157, #135 ) ) ;
#106 = DIRECTION ( 'NONE',  ( 1.000000000000000000, 0.000000000000000000, -0.000000000000000000 ) ) ;
#107 = EDGE_LOOP ( 'NONE', ( #354, #15, #380, #164 ) ) ;
#108 = LINE ( 'NONE', #224, #296 ) ;
#109 = COORDINATED_UNIVERSAL_TIME_OFFSET ( 1, 0, .AHEAD. ) ;
#110 = CIRCLE ( 'NONE', #358, 6.000000000000000888 ) ;
#111 = ORIENTED_EDGE ( 'NONE', *, *, #2, .F. ) ;
#112 = CIRCLE ( 'NONE', #331, 6.000000000000000888 ) ;
#113 = CIRCLE ( 'NONE', #271, 0.7000000000000000666 ) ;
#114 = EDGE_LOOP ( 'NONE', ( #313, #355 ) ) ;
#115 = PERSON_AND_ORGANIZATION ( #98, #178 ) ;
#116 = ORIENTED_EDGE ( 'NONE', *, *, #2, .T. ) ;
#117 = LINE ( 'NONE', #175, #73 ) ;
#118 = VECTOR ( 'NONE', #37, 1000.000000000000000 ) ;
#119 = DIRECTION ( 'NONE',  ( 1.000000000000000000, 0.000000000000000000, 0.000000000000000000 ) ) ;
#120 = PRODUCT_DEFINITION ( 'NEZNÁMÝ', '', #97, #370 ) ;
#121 = DIRECTION ( 'NONE',  ( 0.000000000000000000, 0.000000000000000000, 1.000000000000000000 ) ) ;
#122 = CARTESIAN_POINT ( 'NONE',  ( -4.250000000000000000, 0.000000000000000000, 0.000000000000000000 ) ) ;
#123 = AXIS2_PLACEMENT_3D ( 'NONE', #183, #127, #372 ) ;
#124 = CARTESIAN_POINT ( 'NONE',  ( -4.250000000000000000, 0.000000000000000000, 107.0000000000000142 ) ) ;
#125 = EDGE_CURVE ( 'NONE', #86, #198, #90, .T. ) ;
#126 = DIRECTION ( 'NONE',  ( -0.000000000000000000, -0.000000000000000000, -1.000000000000000000 ) ) ;
#127 = DIRECTION ( 'NONE',  ( 0.000000000000000000, 0.000000000000000000, 1.000000000000000000 ) ) ;
#128 = CARTESIAN_POINT ( 'NONE',  ( 0.000000000000000000, 0.000000000000000000, 107.0000000000000142 ) ) ;
#129 = ADVANCED_FACE ( 'NONE', ( #58 ), #357, .T. ) ;
#130 = CARTESIAN_POINT ( 'NONE',  ( 0.000000000000000000, 0.000000000000000000, 7.000000000000000000 ) ) ;
#131 = EDGE_LOOP ( 'NONE', ( #170, #374 ) ) ;
#132 = DIRECTION ( 'NONE',  ( 1.000000000000000000, 0.000000000000000000, 0.000000000000000000 ) ) ;
#133 = ORIENTED_EDGE ( 'NONE', *, *, #309, .T. ) ;
#134 = PERSON_AND_ORGANIZATION ( #98, #178 ) ;
#135 = ORIENTED_EDGE ( 'NONE', *, *, #125, .T. ) ;
#136 = EDGE_CURVE ( 'NONE', #39, #86, #117, .T. ) ;
#137 = DIRECTION ( 'NONE',  ( 0.000000000000000000, 0.000000000000000000, -1.000000000000000000 ) ) ;
#138 = EDGE_LOOP ( 'NONE', ( #83, #193, #116, #133 ) ) ;
#139 = APPROVAL_STATUS ( 'not_yet_approved' ) ;
#140 = AXIS2_PLACEMENT_3D ( 'NONE', #47, #156, #132 ) ;
#141 = PERSON_AND_ORGANIZATION_ROLE ( 'creator' ) ;
#142 = ORIENTED_EDGE ( 'NONE', *, *, #373, .T. ) ;
#143 = CC_DESIGN_PERSON_AND_ORGANIZATION_ASSIGNMENT ( #260, #51, ( #320 ) ) ;
#144 = VERTEX_POINT ( 'NONE', #235 ) ;
#145 = DIRECTION ( 'NONE',  ( 0.000000000000000000, 0.000000000000000000, 1.000000000000000000 ) ) ;
#146 = ADVANCED_FACE ( 'NONE', ( #64 ), #303, .F. ) ;
#147 = CARTESIAN_POINT ( 'NONE',  ( 0.000000000000000000, 0.000000000000000000, 7.000000000000000000 ) ) ;
#148 = AXIS2_PLACEMENT_3D ( 'NONE', #5, #4, #176 ) ;
#149 = AXIS2_PLACEMENT_3D ( 'NONE', #223, #254, #316 ) ;
#150 = DIRECTION ( 'NONE',  ( 1.000000000000000000, 0.000000000000000000, 0.000000000000000000 ) ) ;
#151 = LINE ( 'NONE', #65, #265 ) ;
#152 = CARTESIAN_POINT ( 'NONE',  ( -6.000000000000000888, 0.000000000000000000, 7.699999999999998401 ) ) ;
#153 = AXIS2_PLACEMENT_3D ( 'NONE', #13, #126, #218 ) ;
#154 = EDGE_CURVE ( 'NONE', #317, #342, #151, .T. ) ;
#155 = CC_DESIGN_APPROVAL ( #159, ( #24 ) ) ;
#156 = DIRECTION ( 'NONE',  ( 0.000000000000000000, 0.000000000000000000, 1.000000000000000000 ) ) ;
#157 = ORIENTED_EDGE ( 'NONE', *, *, #136, .T. ) ;
#158 = AXIS2_PLACEMENT_3D ( 'NONE', #241, #332, #92 ) ;
#159 = APPROVAL ( #60, 'NEURÈENÝ' ) ;
#160 = CARTESIAN_POINT ( 'NONE',  ( 0.000000000000000000, 0.000000000000000000, 107.0000000000000142 ) ) ;
#161 = CIRCLE ( 'NONE', #258, 0.7000000000000000666 ) ;
#162 = DIRECTION ( 'NONE',  ( 0.000000000000000000, 0.000000000000000000, 1.000000000000000000 ) ) ;
#163 = FACE_BOUND ( 'NONE', #114, .T. ) ;
#164 = ORIENTED_EDGE ( 'NONE', *, *, #294, .F. ) ;
#165 = DATE_AND_TIME ( #196, #337 ) ;
#166 = VERTEX_POINT ( 'NONE', #61 ) ;
#167 = CC_DESIGN_PERSON_AND_ORGANIZATION_ASSIGNMENT ( #55, #75, ( #97 ) ) ;
#168 = AXIS2_PLACEMENT_3D ( 'NONE', #275, #281, #14 ) ;
#169 = DIRECTION ( 'NONE',  ( 0.000000000000000000, -1.000000000000000000, 0.000000000000000000 ) ) ;
#170 = ORIENTED_EDGE ( 'NONE', *, *, #59, .T. ) ;
#171 =( NAMED_UNIT ( * ) PLANE_ANGLE_UNIT ( ) SI_UNIT ( $, .RADIAN. ) );
#172 = APPROVAL ( #222, 'NEURÈENÝ' ) ;
#173 = CARTESIAN_POINT ( 'NONE',  ( 6.700000000000001066, 0.000000000000000000, 6.999999999999999112 ) ) ;
#174 = CARTESIAN_POINT ( 'NONE',  ( 6.000000000000000888, 7.347880794884120722E-16, 107.0000000000000142 ) ) ;
#175 = CARTESIAN_POINT ( 'NONE',  ( -4.250000000000000000, 0.000000000000000000, 107.0000000000000142 ) ) ;
#176 = DIRECTION ( 'NONE',  ( 1.000000000000000000, 0.000000000000000000, 0.000000000000000000 ) ) ;
#177 = AXIS2_PLACEMENT_3D ( 'NONE', #306, #71, #94 ) ;
#178 = ORGANIZATION ( 'NEURÈENÝ', 'NEURÈENÝ', '' ) ;
#179 = DIRECTION ( 'NONE',  ( -1.000000000000000000, 0.000000000000000000, 0.000000000000000000 ) ) ;
#180 = DIRECTION ( 'NONE',  ( 0.000000000000000000, 0.000000000000000000, 1.000000000000000000 ) ) ;
#181 = CYLINDRICAL_SURFACE ( 'NONE', #153, 6.000000000000000888 ) ;
#182 = LOCAL_TIME ( 16, 31, 54.00000000000000000, #109 ) ;
#183 = CARTESIAN_POINT ( 'NONE',  ( 0.000000000000000000, 0.000000000000000000, 107.0000000000000142 ) ) ;
#184 = PLANE ( 'NONE',  #233 ) ;
#185 = DIRECTION ( 'NONE',  ( 0.000000000000000000, 0.000000000000000000, 1.000000000000000000 ) ) ;
#186 = ORIENTED_EDGE ( 'NONE', *, *, #226, .T. ) ;
#187 = AXIS2_PLACEMENT_3D ( 'NONE', #128, #69, #242 ) ;
#188 = APPROVAL_PERSON_ORGANIZATION ( #34, #159, #266 ) ;
#189 = DIRECTION ( 'NONE',  ( 0.000000000000000000, 0.000000000000000000, 1.000000000000000000 ) ) ;
#190 = EDGE_LOOP ( 'NONE', ( #378, #252, #319, #219 ) ) ;
#191 = DATE_AND_TIME ( #56, #367 ) ;
#192 = ADVANCED_FACE ( 'NONE', ( #297 ), #299, .T. ) ;
#193 = ORIENTED_EDGE ( 'NONE', *, *, #53, .F. ) ;
#194 = CIRCLE ( 'NONE', #123, 4.250000000000000000 ) ;
#195 = EDGE_CURVE ( 'NONE', #39, #350, #96, .T. ) ;
#196 = CALENDAR_DATE ( 2022, 8, 7 ) ;
#197 = VERTEX_POINT ( 'NONE', #31 ) ;
#198 = VERTEX_POINT ( 'NONE', #100 ) ;
#199 = CIRCLE ( 'NONE', #168, 6.700000000000001066 ) ;
#200 = CALENDAR_DATE ( 2022, 8, 7 ) ;
#201 = CC_DESIGN_APPROVAL ( #172, ( #120 ) ) ;
#202 = ORIENTED_EDGE ( 'NONE', *, *, #49, .T. ) ;
#203 = DIRECTION ( 'NONE',  ( -0.000000000000000000, -0.000000000000000000, -1.000000000000000000 ) ) ;
#204 = AXIS2_PLACEMENT_3D ( 'NONE', #240, #180, #150 ) ;
#205 = DIRECTION ( 'NONE',  ( 1.000000000000000000, 0.000000000000000000, 0.000000000000000000 ) ) ;
#206 = CARTESIAN_POINT ( 'NONE',  ( 0.000000000000000000, 0.000000000000000000, 7.000000000000000000 ) ) ;
#207 =( GEOMETRIC_REPRESENTATION_CONTEXT ( 3 ) GLOBAL_UNCERTAINTY_ASSIGNED_CONTEXT ( ( #288 ) ) GLOBAL_UNIT_ASSIGNED_CONTEXT ( ( #314, #171, #23 ) ) REPRESENTATION_CONTEXT ( 'NONE', 'WORKASPACE' ) );
#208 = ADVANCED_FACE ( 'NONE', ( #99 ), #247, .F. ) ;
#209 = APPROVAL_DATE_TIME ( #263, #159 ) ;
#210 = PLANE ( 'NONE',  #158 ) ;
#211 = DIRECTION ( 'NONE',  ( 1.000000000000000000, 0.000000000000000000, 0.000000000000000000 ) ) ;
#212 = CARTESIAN_POINT ( 'NONE',  ( 0.000000000000000000, 0.000000000000000000, 0.000000000000000000 ) ) ;
#213 = ORIENTED_EDGE ( 'NONE', *, *, #101, .F. ) ;
#214 = AXIS2_PLACEMENT_3D ( 'NONE', #212, #369, #249 ) ;
#215 = CARTESIAN_POINT ( 'NONE',  ( -10.00000000000000000, 0.000000000000000000, 7.000000000000000000 ) ) ;
#216 = FACE_OUTER_BOUND ( 'NONE', #138, .T. ) ;
#217 = ORIENTED_EDGE ( 'NONE', *, *, #294, .T. ) ;
#218 = DIRECTION ( 'NONE',  ( -1.000000000000000000, 0.000000000000000000, 0.000000000000000000 ) ) ;
#219 = ORIENTED_EDGE ( 'NONE', *, *, #136, .F. ) ;
#220 = AXIS2_PLACEMENT_3D ( 'NONE', #147, #267, #179 ) ;
#221 = ADVANCED_FACE ( 'NONE', ( #216 ), #181, .T. ) ;
#222 = APPROVAL_STATUS ( 'not_yet_approved' ) ;
#223 = CARTESIAN_POINT ( 'NONE',  ( 0.000000000000000000, 0.000000000000000000, 0.000000000000000000 ) ) ;
#224 = CARTESIAN_POINT ( 'NONE',  ( -6.000000000000000888, 0.000000000000000000, 107.0000000000000142 ) ) ;
#225 = PERSON_AND_ORGANIZATION ( #98, #178 ) ;
#226 = EDGE_CURVE ( 'NONE', #276, #376, #199, .T. ) ;
#227 = AXIS2_PLACEMENT_3D ( 'NONE', #74, #312, #277 ) ;
#228 = APPROVAL_PERSON_ORGANIZATION ( #225, #172, #286 ) ;
#229 = APPLICATION_PROTOCOL_DEFINITION ( 'international standard', 'config_control_design', 1994, #45 ) ;
#230 = COORDINATED_UNIVERSAL_TIME_OFFSET ( 1, 0, .AHEAD. ) ;
#231 = ORIENTED_EDGE ( 'NONE', *, *, #53, .T. ) ;
#232 = ORIENTED_EDGE ( 'NONE', *, *, #16, .F. ) ;
#233 = AXIS2_PLACEMENT_3D ( 'NONE', #160, #162, #12 ) ;
#234 = CC_DESIGN_DATE_AND_TIME_ASSIGNMENT ( #54, #324, ( #120 ) ) ;
#235 = CARTESIAN_POINT ( 'NONE',  ( 6.000000000000000888, 7.347880794884120722E-16, 7.699999999999998401 ) ) ;
#236 = DIRECTION ( 'NONE',  ( 0.000000000000000000, 0.000000000000000000, 1.000000000000000000 ) ) ;
#237 = DATE_TIME_ROLE ( 'classification_date' ) ;
#238 = DIRECTION ( 'NONE',  ( 1.000000000000000000, 0.000000000000000000, 0.000000000000000000 ) ) ;
#239 = CC_DESIGN_PERSON_AND_ORGANIZATION_ASSIGNMENT ( #134, #141, ( #120 ) ) ;
#240 = CARTESIAN_POINT ( 'NONE',  ( 0.000000000000000000, 0.000000000000000000, 0.000000000000000000 ) ) ;
#241 = CARTESIAN_POINT ( 'NONE',  ( 0.000000000000000000, 0.000000000000000000, 0.000000000000000000 ) ) ;
#242 = DIRECTION ( 'NONE',  ( -1.000000000000000000, 0.000000000000000000, 0.000000000000000000 ) ) ;
#243 = AXIS2_PLACEMENT_3D ( 'NONE', #206, #3, #205 ) ;
#244 = CARTESIAN_POINT ( 'NONE',  ( 10.00000000000000000, 1.224646799147353256E-15, 0.000000000000000000 ) ) ;
#245 = ADVANCED_FACE ( 'NONE', ( #310 ), #68, .T. ) ;
#246 = VERTEX_POINT ( 'NONE', #215 ) ;
#247 = TOROIDAL_SURFACE ( 'NONE', #177, 6.700000000000001066, 0.6999999999999999556 ) ;
#248 = CARTESIAN_POINT ( 'NONE',  ( -10.00000000000000000, 0.000000000000000000, 7.000000000000000000 ) ) ;
#249 = DIRECTION ( 'NONE',  ( 1.000000000000000000, 0.000000000000000000, 0.000000000000000000 ) ) ;
#250 = ADVANCED_FACE ( 'NONE', ( #163, #307 ), #184, .T. ) ;
#251 = CARTESIAN_POINT ( 'NONE',  ( 10.00000000000000000, 1.224646799147353256E-15, 7.000000000000000000 ) ) ;
#252 = ORIENTED_EDGE ( 'NONE', *, *, #32, .T. ) ;
#253 = EDGE_LOOP ( 'NONE', ( #52, #338 ) ) ;
#254 = DIRECTION ( 'NONE',  ( 0.000000000000000000, 0.000000000000000000, 1.000000000000000000 ) ) ;
#255 = ADVANCED_BREP_SHAPE_REPRESENTATION ( '5dc2', ( #63, #149 ), #207 ) ;
#256 = APPROVAL_ROLE ( '' ) ;
#257 = ORIENTED_EDGE ( 'NONE', *, *, #305, .T. ) ;
#258 = AXIS2_PLACEMENT_3D ( 'NONE', #82, #169, #137 ) ;
#259 = SECURITY_CLASSIFICATION_LEVEL ( 'unclassified' ) ;
#260 = PERSON_AND_ORGANIZATION ( #98, #178 ) ;
#261 = ORIENTED_EDGE ( 'NONE', *, *, #16, .T. ) ;
#262 = EDGE_CURVE ( 'NONE', #317, #246, #278, .T. ) ;
#263 = DATE_AND_TIME ( #200, #311 ) ;
#264 = CARTESIAN_POINT ( 'NONE',  ( 0.000000000000000000, 0.000000000000000000, 7.000000000000000000 ) ) ;
#265 = VECTOR ( 'NONE', #203, 1000.000000000000000 ) ;
#266 = APPROVAL_ROLE ( '' ) ;
#267 = DIRECTION ( 'NONE',  ( -0.000000000000000000, -0.000000000000000000, -1.000000000000000000 ) ) ;
#268 = COORDINATED_UNIVERSAL_TIME_OFFSET ( 1, 0, .AHEAD. ) ;
#269 = DIRECTION ( 'NONE',  ( 1.000000000000000000, 0.000000000000000000, 0.000000000000000000 ) ) ;
#270 = CARTESIAN_POINT ( 'NONE',  ( 0.000000000000000000, 0.000000000000000000, 107.0000000000000142 ) ) ;
#271 = AXIS2_PLACEMENT_3D ( 'NONE', #334, #371, #104 ) ;
#272 = CARTESIAN_POINT ( 'NONE',  ( 0.000000000000000000, 0.000000000000000000, 0.000000000000000000 ) ) ;
#273 = CARTESIAN_POINT ( 'NONE',  ( 0.000000000000000000, 0.000000000000000000, 107.0000000000000142 ) ) ;
#274 = APPROVAL ( #139, 'NEURÈENÝ' ) ;
#275 = CARTESIAN_POINT ( 'NONE',  ( 0.000000000000000000, 0.000000000000000000, 7.000000000000000000 ) ) ;
#276 = VERTEX_POINT ( 'NONE', #341 ) ;
#277 = DIRECTION ( 'NONE',  ( -1.000000000000000000, 0.000000000000000000, 0.000000000000000000 ) ) ;
#278 = CIRCLE ( 'NONE', #284, 10.00000000000000000 ) ;
#279 = CYLINDRICAL_SURFACE ( 'NONE', #187, 4.250000000000000000 ) ;
#280 = ADVANCED_FACE ( 'NONE', ( #44, #11 ), #41, .T. ) ;
#281 = DIRECTION ( 'NONE',  ( -0.000000000000000000, -0.000000000000000000, -1.000000000000000000 ) ) ;
#282 = EDGE_LOOP ( 'NONE', ( #213, #46 ) ) ;
#283 = EDGE_LOOP ( 'NONE', ( #308, #257, #232, #80 ) ) ;
#284 = AXIS2_PLACEMENT_3D ( 'NONE', #130, #189, #7 ) ;
#285 = ADVANCED_FACE ( 'NONE', ( #339 ), #279, .F. ) ;
#286 = APPROVAL_ROLE ( '' ) ;
#287 = ORIENTED_EDGE ( 'NONE', *, *, #32, .F. ) ;
#288 = UNCERTAINTY_MEASURE_WITH_UNIT (LENGTH_MEASURE( 1.000000000000000082E-05 ), #314, 'distance_accuracy_value', 'NONE');
#289 = PERSON_AND_ORGANIZATION ( #98, #178 ) ;
#290 = ORIENTED_EDGE ( 'NONE', *, *, #59, .F. ) ;
#291 = PERSON_AND_ORGANIZATION ( #98, #178 ) ;
#292 = ORIENTED_EDGE ( 'NONE', *, *, #368, .T. ) ;
#293 = AXIS2_PLACEMENT_3D ( 'NONE', #89, #121, #238 ) ;
#294 = EDGE_CURVE ( 'NONE', #246, #166, #363, .T. ) ;
#295 = DIRECTION ( 'NONE',  ( -0.000000000000000000, -0.000000000000000000, -1.000000000000000000 ) ) ;
#296 = VECTOR ( 'NONE', #322, 1000.000000000000000 ) ;
#297 = FACE_OUTER_BOUND ( 'NONE', #70, .T. ) ;
#298 = EDGE_CURVE ( 'NONE', #198, #86, #87, .T. ) ;
#299 = CYLINDRICAL_SURFACE ( 'NONE', #220, 10.00000000000000000 ) ;
#300 = DIRECTION ( 'NONE',  ( 0.000000000000000000, 0.000000000000000000, 1.000000000000000000 ) ) ;
#301 = CIRCLE ( 'NONE', #204, 10.00000000000000000 ) ;
#302 = CARTESIAN_POINT ( 'NONE',  ( 0.000000000000000000, 0.000000000000000000, 107.0000000000000142 ) ) ;
#303 = TOROIDAL_SURFACE ( 'NONE', #148, 6.700000000000001066, 0.6999999999999999556 ) ;
#304 = CYLINDRICAL_SURFACE ( 'NONE', #29, 4.250000000000000000 ) ;
#305 = EDGE_CURVE ( 'NONE', #50, #276, #113, .T. ) ;
#306 = CARTESIAN_POINT ( 'NONE',  ( 0.000000000000000000, 0.000000000000000000, 7.699999999999998401 ) ) ;
#307 = FACE_OUTER_BOUND ( 'NONE', #81, .T. ) ;
#308 = ORIENTED_EDGE ( 'NONE', *, *, #309, .F. ) ;
#309 = EDGE_CURVE ( 'NONE', #50, #144, #365, .T. ) ;
#310 = FACE_OUTER_BOUND ( 'NONE', #107, .T. ) ;
#311 = LOCAL_TIME ( 16, 31, 54.00000000000000000, #268 ) ;
#312 = DIRECTION ( 'NONE',  ( -0.000000000000000000, -0.000000000000000000, -1.000000000000000000 ) ) ;
#313 = ORIENTED_EDGE ( 'NONE', *, *, #195, .F. ) ;
#314 =( LENGTH_UNIT ( ) NAMED_UNIT ( * ) SI_UNIT ( .MILLI., .METRE. ) );
#315 = CIRCLE ( 'NONE', #362, 10.00000000000000000 ) ;
#316 = DIRECTION ( 'NONE',  ( 1.000000000000000000, 0.000000000000000000, 0.000000000000000000 ) ) ;
#317 = VERTEX_POINT ( 'NONE', #251 ) ;
#318 = CALENDAR_DATE ( 2022, 8, 7 ) ;
#319 = ORIENTED_EDGE ( 'NONE', *, *, #298, .T. ) ;
#320 = PRODUCT ( '5dc2', '5dc2', '', ( #20 ) ) ;
#321 = APPROVAL_DATE_TIME ( #165, #274 ) ;
#322 = DIRECTION ( 'NONE',  ( -0.000000000000000000, -0.000000000000000000, -1.000000000000000000 ) ) ;
#323 = AXIS2_PLACEMENT_3D ( 'NONE', #28, #359, #381 ) ;
#324 = DATE_TIME_ROLE ( 'creation_date' ) ;
#325 = ORIENTED_EDGE ( 'NONE', *, *, #328, .T. ) ;
#326 = CC_DESIGN_SECURITY_CLASSIFICATION ( #24, ( #97 ) ) ;
#327 = CARTESIAN_POINT ( 'NONE',  ( 4.250000000000000000, 5.204748896376249713E-16, 107.0000000000000142 ) ) ;
#328 = EDGE_CURVE ( 'NONE', #350, #39, #194, .T. ) ;
#329 = AXIS2_PLACEMENT_3D ( 'NONE', #264, #236, #269 ) ;
#330 = DIRECTION ( 'NONE',  ( -0.000000000000000000, -0.000000000000000000, -1.000000000000000000 ) ) ;
#331 = AXIS2_PLACEMENT_3D ( 'NONE', #347, #76, #353 ) ;
#332 = DIRECTION ( 'NONE',  ( 0.000000000000000000, 0.000000000000000000, 1.000000000000000000 ) ) ;
#333 = LINE ( 'NONE', #174, #40 ) ;
#334 = CARTESIAN_POINT ( 'NONE',  ( -6.700000000000001066, 8.205133554287267548E-16, 7.699999999999998401 ) ) ;
#335 = ADVANCED_FACE ( 'NONE', ( #67 ), #304, .F. ) ;
#336 = DIRECTION ( 'NONE',  ( 0.000000000000000000, 0.000000000000000000, -1.000000000000000000 ) ) ;
#337 = LOCAL_TIME ( 16, 31, 54.00000000000000000, #352 ) ;
#338 = ORIENTED_EDGE ( 'NONE', *, *, #298, .F. ) ;
#339 = FACE_OUTER_BOUND ( 'NONE', #105, .T. ) ;
#340 = PRODUCT_RELATED_PRODUCT_CATEGORY ( 'detail', '', ( #320 ) ) ;
#341 = CARTESIAN_POINT ( 'NONE',  ( -6.700000000000001066, 8.205133554287267548E-16, 6.999999999999999112 ) ) ;
#342 = VERTEX_POINT ( 'NONE', #244 ) ;
#343 = CARTESIAN_POINT ( 'NONE',  ( 0.000000000000000000, 0.000000000000000000, 7.000000000000000000 ) ) ;
#344 = APPROVAL_PERSON_ORGANIZATION ( #289, #274, #256 ) ;
#345 = PERSON_AND_ORGANIZATION_ROLE ( 'classification_officer' ) ;
#346 = ORIENTED_EDGE ( 'NONE', *, *, #226, .F. ) ;
#347 = CARTESIAN_POINT ( 'NONE',  ( 0.000000000000000000, 0.000000000000000000, 7.699999999999998401 ) ) ;
#348 = CIRCLE ( 'NONE', #103, 6.000000000000000888 ) ;
#349 = DATE_AND_TIME ( #318, #43 ) ;
#350 = VERTEX_POINT ( 'NONE', #366 ) ;
#351 = AXIS2_PLACEMENT_3D ( 'NONE', #302, #330, #35 ) ;
#352 = COORDINATED_UNIVERSAL_TIME_OFFSET ( 1, 0, .AHEAD. ) ;
#353 = DIRECTION ( 'NONE',  ( 1.000000000000000000, 0.000000000000000000, 0.000000000000000000 ) ) ;
#354 = ORIENTED_EDGE ( 'NONE', *, *, #262, .F. ) ;
#355 = ORIENTED_EDGE ( 'NONE', *, *, #328, .F. ) ;
#356 = CC_DESIGN_PERSON_AND_ORGANIZATION_ASSIGNMENT ( #291, #377, ( #97 ) ) ;
#357 = CYLINDRICAL_SURFACE ( 'NONE', #351, 6.000000000000000888 ) ;
#358 = AXIS2_PLACEMENT_3D ( 'NONE', #88, #300, #211 ) ;
#359 = DIRECTION ( 'NONE',  ( -0.000000000000000000, -0.000000000000000000, -1.000000000000000000 ) ) ;
#360 = DIRECTION ( 'NONE',  ( 1.000000000000000000, 0.000000000000000000, 0.000000000000000000 ) ) ;
#361 = DIRECTION ( 'NONE',  ( 0.000000000000000000, 0.000000000000000000, -1.000000000000000000 ) ) ;
#362 = AXIS2_PLACEMENT_3D ( 'NONE', #272, #91, #360 ) ;
#363 = LINE ( 'NONE', #248, #118 ) ;
#364 = ORIENTED_EDGE ( 'NONE', *, *, #49, .F. ) ;
#365 = CIRCLE ( 'NONE', #140, 6.000000000000000888 ) ;
#366 = CARTESIAN_POINT ( 'NONE',  ( 4.250000000000000000, 5.204748896376249713E-16, 107.0000000000000142 ) ) ;
#367 = LOCAL_TIME ( 16, 31, 54.00000000000000000, #230 ) ;
#368 = EDGE_CURVE ( 'NONE', #144, #50, #112, .T. ) ;
#369 = DIRECTION ( 'NONE',  ( -0.000000000000000000, -0.000000000000000000, -1.000000000000000000 ) ) ;
#370 = DESIGN_CONTEXT ( 'detailed design', #102, 'design' ) ;
#371 = DIRECTION ( 'NONE',  ( 1.224646799147353207E-16, 1.000000000000000000, -0.000000000000000000 ) ) ;
#372 = DIRECTION ( 'NONE',  ( 1.000000000000000000, 0.000000000000000000, 0.000000000000000000 ) ) ;
#373 = EDGE_CURVE ( 'NONE', #144, #376, #161, .T. ) ;
#374 = ORIENTED_EDGE ( 'NONE', *, *, #262, .T. ) ;
#375 = EDGE_LOOP ( 'NONE', ( #364, #48, #292, #111 ) ) ;
#376 = VERTEX_POINT ( 'NONE', #173 ) ;
#377 = PERSON_AND_ORGANIZATION_ROLE ( 'design_supplier' ) ;
#378 = ORIENTED_EDGE ( 'NONE', *, *, #195, .T. ) ;
#379 = APPLICATION_PROTOCOL_DEFINITION ( 'international standard', 'config_control_design', 1994, #102 ) ;
#380 = ORIENTED_EDGE ( 'NONE', *, *, #10, .T. ) ;
#381 = DIRECTION ( 'NONE',  ( 1.000000000000000000, 0.000000000000000000, 0.000000000000000000 ) ) ;
ENDSEC;
END-ISO-10303-21;
