ISO-10303-21;
HEADER;
FILE_DESCRIPTION (( 'STEP AP203' ),
    '1' );
FILE_NAME ('2de5.STEP',
    '2022-06-20T10:25:02',
    ( '' ),
    ( '' ),
    'SwSTEP 2.0',
    'SolidWorks 2019',
    '' );
FILE_SCHEMA (( 'CONFIG_CONTROL_DESIGN' ));
ENDSEC;

DATA;
#1 = DIRECTION ( 'NONE',  ( 0.000000000000000000, -1.000000000000000000, 0.000000000000000000 ) ) ;
#2 = CARTESIAN_POINT ( 'NONE',  ( 1.250000000000000000, 1.530808498934191571E-16, 1.199999999999999956 ) ) ;
#3 = CARTESIAN_POINT ( 'NONE',  ( 0.5500000000000000444, 6.735557395310442516E-17, 1.400000000000012346 ) ) ;
#4 = APPROVAL_PERSON_ORGANIZATION ( #200, #174, #80 ) ;
#5 = DIRECTION ( 'NONE',  ( -1.000000000000000000, 0.000000000000000000, 0.000000000000000000 ) ) ;
#6 = FACE_OUTER_BOUND ( 'NONE', #296, .T. ) ;
#7 = CARTESIAN_POINT ( 'NONE',  ( 0.000000000000000000, 0.000000000000000000, 0.000000000000000000 ) ) ;
#8 = TOROIDAL_SURFACE ( 'NONE', #150, 0.7500000000000000000, 0.2000000000000000111 ) ;
#9 = APPLICATION_CONTEXT ( 'configuration controlled 3d designs of mechanical parts and assemblies' ) ;
#10 = APPLICATION_PROTOCOL_DEFINITION ( 'international standard', 'config_control_design', 1994, #160 ) ;
#11 = CC_DESIGN_DATE_AND_TIME_ASSIGNMENT ( #201, #128, ( #105 ) ) ;
#12 = ORIENTED_EDGE ( 'NONE', *, *, #131, .T. ) ;
#13 = FACE_OUTER_BOUND ( 'NONE', #300, .T. ) ;
#14 = ORIENTED_EDGE ( 'NONE', *, *, #153, .T. ) ;
#15 = VECTOR ( 'NONE', #244, 1000.000000000000000 ) ;
#16 = CYLINDRICAL_SURFACE ( 'NONE', #95, 1.250000000000000000 ) ;
#17 = VECTOR ( 'NONE', #90, 1000.000000000000000 ) ;
#18 = DATE_AND_TIME ( #233, #220 ) ;
#19 = ORIENTED_EDGE ( 'NONE', *, *, #131, .F. ) ;
#20 = ADVANCED_FACE ( 'NONE', ( #13 ), #16, .T. ) ;
#21 = FACE_OUTER_BOUND ( 'NONE', #253, .T. ) ;
#22 = SHAPE_DEFINITION_REPRESENTATION ( #33, #256 ) ;
#23 = LINE ( 'NONE', #113, #229 ) ;
#24 = DIRECTION ( 'NONE',  ( 0.000000000000000000, 0.000000000000000000, 1.000000000000000000 ) ) ;
#25 = CARTESIAN_POINT ( 'NONE',  ( 0.000000000000000000, 0.000000000000000000, 1.400000000000012346 ) ) ;
#26 = APPLICATION_PROTOCOL_DEFINITION ( 'international standard', 'config_control_design', 1994, #9 ) ;
#27 = CC_DESIGN_PERSON_AND_ORGANIZATION_ASSIGNMENT ( #36, #133, ( #56 ) ) ;
#28 = CIRCLE ( 'NONE', #271, 1.250000000000000000 ) ;
#29 = AXIS2_PLACEMENT_3D ( 'NONE', #278, #161, #258 ) ;
#30 = PERSON_AND_ORGANIZATION ( #170, #134 ) ;
#31 = EDGE_CURVE ( 'NONE', #277, #179, #176, .T. ) ;
#32 = LINE ( 'NONE', #121, #15 ) ;
#33 = PRODUCT_DEFINITION_SHAPE ( 'NONE', 'NONE',  #105 ) ;
#34 = ORIENTED_EDGE ( 'NONE', *, *, #31, .F. ) ;
#35 = ORIENTED_EDGE ( 'NONE', *, *, #243, .T. ) ;
#36 = PERSON_AND_ORGANIZATION ( #170, #134 ) ;
#37 = CC_DESIGN_APPROVAL ( #174, ( #105 ) ) ;
#38 = EDGE_LOOP ( 'NONE', ( #236, #307 ) ) ;
#39 = PERSON_AND_ORGANIZATION_ROLE ( 'classification_officer' ) ;
#40 = DESIGN_CONTEXT ( 'detailed design', #160, 'design' ) ;
#41 = DIRECTION ( 'NONE',  ( 0.000000000000000000, 0.000000000000000000, 1.000000000000000000 ) ) ;
#42 = EDGE_CURVE ( 'NONE', #108, #162, #239, .T. ) ;
#43 = CARTESIAN_POINT ( 'NONE',  ( 0.000000000000000000, 0.000000000000000000, 161.2000000000000171 ) ) ;
#44 = DIRECTION ( 'NONE',  ( -0.000000000000000000, -0.000000000000000000, -1.000000000000000000 ) ) ;
#45 = AXIS2_PLACEMENT_3D ( 'NONE', #246, #94, #76 ) ;
#46 = APPROVAL ( #61, 'NEURÈENÝ' ) ;
#47 = CARTESIAN_POINT ( 'NONE',  ( -0.5500000000000000444, 0.000000000000000000, 1.400000000000012346 ) ) ;
#48 = CARTESIAN_POINT ( 'NONE',  ( -0.7500000000000000000, 9.184850993605149670E-17, 1.400000000000012346 ) ) ;
#49 = CARTESIAN_POINT ( 'NONE',  ( -0.5500000000000000444, 0.000000000000000000, 161.2000000000000171 ) ) ;
#50 = DIRECTION ( 'NONE',  ( 0.000000000000000000, 0.000000000000000000, -1.000000000000000000 ) ) ;
#51 = DIRECTION ( 'NONE',  ( 1.000000000000000000, 0.000000000000000000, -0.000000000000000000 ) ) ;
#52 = TOROIDAL_SURFACE ( 'NONE', #139, 0.7500000000000000000, 0.2000000000000000111 ) ;
#53 = APPROVAL ( #295, 'NEURÈENÝ' ) ;
#54 =( NAMED_UNIT ( * ) SI_UNIT ( $, .STERADIAN. ) SOLID_ANGLE_UNIT ( ) );
#55 = VECTOR ( 'NONE', #169, 1000.000000000000000 ) ;
#56 = PRODUCT_DEFINITION_FORMATION_WITH_SPECIFIED_SOURCE ( 'LIBOVOLNÝ', '', #127, .NOT_KNOWN. ) ;
#57 = PLANE ( 'NONE',  #230 ) ;
#58 = ORIENTED_EDGE ( 'NONE', *, *, #31, .T. ) ;
#59 = CLOSED_SHELL ( 'NONE', ( #156, #72, #115, #20, #226, #297, #96, #232, #237 ) ) ;
#60 = ORIENTED_EDGE ( 'NONE', *, *, #67, .F. ) ;
#61 = APPROVAL_STATUS ( 'not_yet_approved' ) ;
#62 = ORIENTED_EDGE ( 'NONE', *, *, #42, .F. ) ;
#63 = EDGE_CURVE ( 'NONE', #102, #190, #221, .T. ) ;
#64 = EDGE_LOOP ( 'NONE', ( #254, #231 ) ) ;
#65 = ORIENTED_EDGE ( 'NONE', *, *, #250, .T. ) ;
#66 = DIRECTION ( 'NONE',  ( 0.000000000000000000, 0.000000000000000000, 1.000000000000000000 ) ) ;
#67 = EDGE_CURVE ( 'NONE', #107, #277, #106, .T. ) ;
#68 = CARTESIAN_POINT ( 'NONE',  ( 0.000000000000000000, 0.000000000000000000, 0.000000000000000000 ) ) ;
#69 = CARTESIAN_POINT ( 'NONE',  ( 0.000000000000000000, 0.000000000000000000, 161.2000000000000171 ) ) ;
#70 = APPROVAL_DATE_TIME ( #188, #46 ) ;
#71 = DIRECTION ( 'NONE',  ( 1.224646799147353207E-16, 1.000000000000000000, -0.000000000000000000 ) ) ;
#72 = ADVANCED_FACE ( 'NONE', ( #21 ), #211, .T. ) ;
#73 = FACE_OUTER_BOUND ( 'NONE', #81, .T. ) ;
#74 = AXIS2_PLACEMENT_3D ( 'NONE', #263, #91, #114 ) ;
#75 =( NAMED_UNIT ( * ) PLANE_ANGLE_UNIT ( ) SI_UNIT ( $, .RADIAN. ) );
#76 = DIRECTION ( 'NONE',  ( 1.000000000000000000, 0.000000000000000000, 0.000000000000000000 ) ) ;
#77 = LOCAL_TIME ( 12, 25, 2.000000000000000000, #186 ) ;
#78 = DIRECTION ( 'NONE',  ( 0.000000000000000000, 0.000000000000000000, 1.000000000000000000 ) ) ;
#79 = AXIS2_PLACEMENT_3D ( 'NONE', #69, #44, #5 ) ;
#80 = APPROVAL_ROLE ( '' ) ;
#81 = EDGE_LOOP ( 'NONE', ( #225, #137 ) ) ;
#82 = APPROVAL_ROLE ( '' ) ;
#83 = VERTEX_POINT ( 'NONE', #47 ) ;
#84 = CIRCLE ( 'NONE', #74, 0.5500000000000000444 ) ;
#85 = ORIENTED_EDGE ( 'NONE', *, *, #250, .F. ) ;
#86 = PERSON_AND_ORGANIZATION ( #170, #134 ) ;
#87 = DIRECTION ( 'NONE',  ( -0.000000000000000000, -0.000000000000000000, -1.000000000000000000 ) ) ;
#88 = CARTESIAN_POINT ( 'NONE',  ( 0.7500000000000000000, 0.000000000000000000, 1.400000000000012346 ) ) ;
#89 = CYLINDRICAL_SURFACE ( 'NONE', #79, 0.5500000000000000444 ) ;
#90 = DIRECTION ( 'NONE',  ( -0.000000000000000000, -0.000000000000000000, -1.000000000000000000 ) ) ;
#91 = DIRECTION ( 'NONE',  ( 0.000000000000000000, 0.000000000000000000, 1.000000000000000000 ) ) ;
#92 = CARTESIAN_POINT ( 'NONE',  ( 0.5500000000000000444, 6.735557395310442516E-17, 161.2000000000000171 ) ) ;
#93 = CIRCLE ( 'NONE', #288, 1.250000000000000000 ) ;
#94 = DIRECTION ( 'NONE',  ( 0.000000000000000000, 0.000000000000000000, 1.000000000000000000 ) ) ;
#95 = AXIS2_PLACEMENT_3D ( 'NONE', #276, #228, #104 ) ;
#96 = ADVANCED_FACE ( 'NONE', ( #6 ), #89, .T. ) ;
#97 = MECHANICAL_CONTEXT ( 'NONE', #9, 'mechanical' ) ;
#98 = MANIFOLD_SOLID_BREP ( 'Zaoblit1', #59 ) ;
#99 = PERSON_AND_ORGANIZATION ( #170, #134 ) ;
#100 = EDGE_LOOP ( 'NONE', ( #157, #259, #34, #60 ) ) ;
#101 = PERSON_AND_ORGANIZATION ( #170, #134 ) ;
#102 = VERTEX_POINT ( 'NONE', #49 ) ;
#103 = UNCERTAINTY_MEASURE_WITH_UNIT (LENGTH_MEASURE( 1.000000000000000082E-05 ), #175, 'distance_accuracy_value', 'NONE');
#104 = DIRECTION ( 'NONE',  ( -1.000000000000000000, 0.000000000000000000, 0.000000000000000000 ) ) ;
#105 = PRODUCT_DEFINITION ( 'NEZNÁMÝ', '', #56, #40 ) ;
#106 = CIRCLE ( 'NONE', #275, 0.2000000000000000944 ) ;
#107 = VERTEX_POINT ( 'NONE', #3 ) ;
#108 = VERTEX_POINT ( 'NONE', #2 ) ;
#109 = SECURITY_CLASSIFICATION ( '', '', #301 ) ;
#110 = CARTESIAN_POINT ( 'NONE',  ( 0.000000000000000000, 0.000000000000000000, 1.199999999999999956 ) ) ;
#111 = LOCAL_TIME ( 12, 25, 2.000000000000000000, #203 ) ;
#112 = EDGE_CURVE ( 'NONE', #190, #102, #84, .T. ) ;
#113 = CARTESIAN_POINT ( 'NONE',  ( 1.250000000000000000, 1.530808498934191571E-16, 1.199999999999999956 ) ) ;
#114 = DIRECTION ( 'NONE',  ( 1.000000000000000000, 0.000000000000000000, 0.000000000000000000 ) ) ;
#115 = ADVANCED_FACE ( 'NONE', ( #142 ), #265, .T. ) ;
#116 = DIRECTION ( 'NONE',  ( 1.000000000000000000, 0.000000000000000000, 0.000000000000000000 ) ) ;
#117 = FACE_OUTER_BOUND ( 'NONE', #202, .T. ) ;
#118 = DIRECTION ( 'NONE',  ( 0.000000000000000000, 0.000000000000000000, 1.000000000000000000 ) ) ;
#119 =( GEOMETRIC_REPRESENTATION_CONTEXT ( 3 ) GLOBAL_UNCERTAINTY_ASSIGNED_CONTEXT ( ( #103 ) ) GLOBAL_UNIT_ASSIGNED_CONTEXT ( ( #175, #75, #54 ) ) REPRESENTATION_CONTEXT ( 'NONE', 'WORKASPACE' ) );
#120 = CIRCLE ( 'NONE', #298, 0.7500000000000000000 ) ;
#121 = CARTESIAN_POINT ( 'NONE',  ( -0.5500000000000000444, 0.000000000000000000, 161.2000000000000171 ) ) ;
#122 = PERSON_AND_ORGANIZATION_ROLE ( 'design_owner' ) ;
#123 = PERSON_AND_ORGANIZATION_ROLE ( 'creator' ) ;
#124 = DIRECTION ( 'NONE',  ( 0.000000000000000000, 0.000000000000000000, 1.000000000000000000 ) ) ;
#125 = DATE_AND_TIME ( #154, #173 ) ;
#126 = ORIENTED_EDGE ( 'NONE', *, *, #112, .F. ) ;
#127 = PRODUCT ( '2de5', '2de5', '', ( #97 ) ) ;
#128 = DATE_TIME_ROLE ( 'creation_date' ) ;
#129 = ORIENTED_EDGE ( 'NONE', *, *, #199, .F. ) ;
#130 = PERSON_AND_ORGANIZATION_ROLE ( 'creator' ) ;
#131 = EDGE_CURVE ( 'NONE', #162, #182, #280, .T. ) ;
#132 = ORIENTED_EDGE ( 'NONE', *, *, #218, .T. ) ;
#133 = PERSON_AND_ORGANIZATION_ROLE ( 'design_supplier' ) ;
#134 = ORGANIZATION ( 'NEURÈENÝ', 'NEURÈENÝ', '' ) ;
#135 = ORIENTED_EDGE ( 'NONE', *, *, #255, .T. ) ;
#136 = ORIENTED_EDGE ( 'NONE', *, *, #63, .F. ) ;
#137 = ORIENTED_EDGE ( 'NONE', *, *, #112, .T. ) ;
#138 = CC_DESIGN_PERSON_AND_ORGANIZATION_ASSIGNMENT ( #86, #39, ( #109 ) ) ;
#139 = AXIS2_PLACEMENT_3D ( 'NONE', #25, #140, #116 ) ;
#140 = DIRECTION ( 'NONE',  ( 0.000000000000000000, 0.000000000000000000, 1.000000000000000000 ) ) ;
#141 = CC_DESIGN_APPROVAL ( #53, ( #56 ) ) ;
#142 = FACE_OUTER_BOUND ( 'NONE', #207, .T. ) ;
#143 = CARTESIAN_POINT ( 'NONE',  ( -1.250000000000000000, 0.000000000000000000, 1.199999999999999956 ) ) ;
#144 = EDGE_CURVE ( 'NONE', #182, #227, #93, .T. ) ;
#145 = FACE_OUTER_BOUND ( 'NONE', #100, .T. ) ;
#146 = PLANE ( 'NONE',  #247 ) ;
#147 = CARTESIAN_POINT ( 'NONE',  ( 0.000000000000000000, 0.000000000000000000, 1.400000000000012346 ) ) ;
#148 = APPROVAL_DATE_TIME ( #177, #53 ) ;
#149 = AXIS2_PLACEMENT_3D ( 'NONE', #260, #241, #285 ) ;
#150 = AXIS2_PLACEMENT_3D ( 'NONE', #147, #268, #270 ) ;
#151 = PERSON_AND_ORGANIZATION ( #170, #134 ) ;
#152 = CARTESIAN_POINT ( 'NONE',  ( 0.000000000000000000, 0.000000000000000000, 161.2000000000000171 ) ) ;
#153 = EDGE_CURVE ( 'NONE', #227, #182, #283, .T. ) ;
#154 = CALENDAR_DATE ( 2022, 20, 6 ) ;
#155 = ORIENTED_EDGE ( 'NONE', *, *, #144, .T. ) ;
#156 = ADVANCED_FACE ( 'NONE', ( #145 ), #52, .F. ) ;
#157 = ORIENTED_EDGE ( 'NONE', *, *, #255, .F. ) ;
#158 = ORIENTED_EDGE ( 'NONE', *, *, #269, .F. ) ;
#159 = APPROVAL_PERSON_ORGANIZATION ( #306, #46, #302 ) ;
#160 = APPLICATION_CONTEXT ( 'configuration controlled 3d designs of mechanical parts and assemblies' ) ;
#161 = DIRECTION ( 'NONE',  ( 0.000000000000000000, 0.000000000000000000, 1.000000000000000000 ) ) ;
#162 = VERTEX_POINT ( 'NONE', #192 ) ;
#163 = CC_DESIGN_PERSON_AND_ORGANIZATION_ASSIGNMENT ( #30, #122, ( #127 ) ) ;
#164 = CIRCLE ( 'NONE', #251, 0.1999999999999999833 ) ;
#165 = FACE_BOUND ( 'NONE', #184, .T. ) ;
#166 = DIRECTION ( 'NONE',  ( -0.000000000000000000, -0.000000000000000000, -1.000000000000000000 ) ) ;
#167 = DIRECTION ( 'NONE',  ( -1.000000000000000000, 1.224646799147353454E-16, 0.000000000000000000 ) ) ;
#168 = CC_DESIGN_SECURITY_CLASSIFICATION ( #109, ( #56 ) ) ;
#169 = DIRECTION ( 'NONE',  ( -0.000000000000000000, -0.000000000000000000, -1.000000000000000000 ) ) ;
#170 = PERSON ( 'NEURÈENÝ', 'NEURÈENÝ', 'NEURÈENÝ', ('NEURÈENÝ'), ('NEURÈENÝ'), ('NEURÈENÝ') ) ;
#171 = DIRECTION ( 'NONE',  ( 1.000000000000000000, 0.000000000000000000, 0.000000000000000000 ) ) ;
#172 = DIRECTION ( 'NONE',  ( 0.000000000000000000, 0.000000000000000000, 1.000000000000000000 ) ) ;
#173 = LOCAL_TIME ( 12, 25, 2.000000000000000000, #178 ) ;
#174 = APPROVAL ( #293, 'NEURÈENÝ' ) ;
#175 =( LENGTH_UNIT ( ) NAMED_UNIT ( * ) SI_UNIT ( .MILLI., .METRE. ) );
#176 = CIRCLE ( 'NONE', #183, 0.7500000000000000000 ) ;
#177 = DATE_AND_TIME ( #198, #196 ) ;
#178 = COORDINATED_UNIVERSAL_TIME_OFFSET ( 1, 0, .AHEAD. ) ;
#179 = VERTEX_POINT ( 'NONE', #238 ) ;
#180 = CIRCLE ( 'NONE', #45, 0.5500000000000000444 ) ;
#181 = COORDINATED_UNIVERSAL_TIME_OFFSET ( 1, 0, .AHEAD. ) ;
#182 = VERTEX_POINT ( 'NONE', #217 ) ;
#183 = AXIS2_PLACEMENT_3D ( 'NONE', #303, #87, #187 ) ;
#184 = EDGE_LOOP ( 'NONE', ( #58, #257 ) ) ;
#185 = COORDINATED_UNIVERSAL_TIME_OFFSET ( 1, 0, .AHEAD. ) ;
#186 = COORDINATED_UNIVERSAL_TIME_OFFSET ( 1, 0, .AHEAD. ) ;
#187 = DIRECTION ( 'NONE',  ( 1.000000000000000000, 0.000000000000000000, 0.000000000000000000 ) ) ;
#188 = DATE_AND_TIME ( #234, #77 ) ;
#189 = CC_DESIGN_APPROVAL ( #46, ( #109 ) ) ;
#190 = VERTEX_POINT ( 'NONE', #92 ) ;
#191 = CARTESIAN_POINT ( 'NONE',  ( 0.000000000000000000, 0.000000000000000000, 1.199999999999999956 ) ) ;
#192 = CARTESIAN_POINT ( 'NONE',  ( -1.250000000000000000, 0.000000000000000000, 1.199999999999999956 ) ) ;
#193 = DIRECTION ( 'NONE',  ( 1.000000000000000000, 0.000000000000000000, 0.000000000000000000 ) ) ;
#194 = CIRCLE ( 'NONE', #261, 0.5500000000000000444 ) ;
#195 = CARTESIAN_POINT ( 'NONE',  ( 0.000000000000000000, 0.000000000000000000, 161.2000000000000171 ) ) ;
#196 = LOCAL_TIME ( 12, 25, 2.000000000000000000, #181 ) ;
#197 = DIRECTION ( 'NONE',  ( 1.000000000000000000, 0.000000000000000000, -0.000000000000000000 ) ) ;
#198 = CALENDAR_DATE ( 2022, 20, 6 ) ;
#199 = EDGE_CURVE ( 'NONE', #179, #277, #120, .T. ) ;
#200 = PERSON_AND_ORGANIZATION ( #170, #134 ) ;
#201 = DATE_AND_TIME ( #206, #111 ) ;
#202 = EDGE_LOOP ( 'NONE', ( #208, #85, #235, #129 ) ) ;
#203 = COORDINATED_UNIVERSAL_TIME_OFFSET ( 1, 0, .AHEAD. ) ;
#204 = AXIS2_PLACEMENT_3D ( 'NONE', #245, #118, #248 ) ;
#205 = AXIS2_PLACEMENT_3D ( 'NONE', #152, #124, #222 ) ;
#206 = CALENDAR_DATE ( 2022, 20, 6 ) ;
#207 = EDGE_LOOP ( 'NONE', ( #62, #132, #14, #19 ) ) ;
#208 = ORIENTED_EDGE ( 'NONE', *, *, #213, .F. ) ;
#209 = CC_DESIGN_DATE_AND_TIME_ASSIGNMENT ( #18, #304, ( #109 ) ) ;
#210 = DIRECTION ( 'NONE',  ( 1.000000000000000000, 0.000000000000000000, 0.000000000000000000 ) ) ;
#211 = CYLINDRICAL_SURFACE ( 'NONE', #216, 0.5500000000000000444 ) ;
#212 = DIRECTION ( 'NONE',  ( -0.000000000000000000, -0.000000000000000000, -1.000000000000000000 ) ) ;
#213 = EDGE_CURVE ( 'NONE', #83, #179, #164, .T. ) ;
#214 = DIRECTION ( 'NONE',  ( -0.000000000000000000, -0.000000000000000000, -1.000000000000000000 ) ) ;
#215 = DIRECTION ( 'NONE',  ( 1.000000000000000000, 0.000000000000000000, 0.000000000000000000 ) ) ;
#216 = AXIS2_PLACEMENT_3D ( 'NONE', #195, #214, #242 ) ;
#217 = CARTESIAN_POINT ( 'NONE',  ( -1.250000000000000000, 0.000000000000000000, 0.000000000000000000 ) ) ;
#218 = EDGE_CURVE ( 'NONE', #108, #227, #23, .T. ) ;
#219 = PLANE ( 'NONE',  #205 ) ;
#220 = LOCAL_TIME ( 12, 25, 2.000000000000000000, #185 ) ;
#221 = CIRCLE ( 'NONE', #299, 0.5500000000000000444 ) ;
#222 = DIRECTION ( 'NONE',  ( 1.000000000000000000, 0.000000000000000000, -0.000000000000000000 ) ) ;
#223 = EDGE_CURVE ( 'NONE', #162, #108, #28, .T. ) ;
#224 = CARTESIAN_POINT ( 'NONE',  ( 0.000000000000000000, 0.000000000000000000, 1.400000000000012346 ) ) ;
#225 = ORIENTED_EDGE ( 'NONE', *, *, #63, .T. ) ;
#226 = ADVANCED_FACE ( 'NONE', ( #165, #284 ), #146, .T. ) ;
#227 = VERTEX_POINT ( 'NONE', #287 ) ;
#228 = DIRECTION ( 'NONE',  ( -0.000000000000000000, -0.000000000000000000, -1.000000000000000000 ) ) ;
#229 = VECTOR ( 'NONE', #212, 1000.000000000000000 ) ;
#230 = AXIS2_PLACEMENT_3D ( 'NONE', #7, #78, #51 ) ;
#231 = ORIENTED_EDGE ( 'NONE', *, *, #153, .F. ) ;
#232 = ADVANCED_FACE ( 'NONE', ( #73 ), #219, .T. ) ;
#233 = CALENDAR_DATE ( 2022, 20, 6 ) ;
#234 = CALENDAR_DATE ( 2022, 20, 6 ) ;
#235 = ORIENTED_EDGE ( 'NONE', *, *, #67, .T. ) ;
#236 = ORIENTED_EDGE ( 'NONE', *, *, #223, .T. ) ;
#237 = ADVANCED_FACE ( 'NONE', ( #117 ), #8, .F. ) ;
#238 = CARTESIAN_POINT ( 'NONE',  ( -0.7500000000000000000, 9.184850993605149670E-17, 1.200000000000006173 ) ) ;
#239 = CIRCLE ( 'NONE', #29, 1.250000000000000000 ) ;
#240 = DIRECTION ( 'NONE',  ( -1.000000000000000000, 0.000000000000000000, 0.000000000000000000 ) ) ;
#241 = DIRECTION ( 'NONE',  ( 0.000000000000000000, 0.000000000000000000, 1.000000000000000000 ) ) ;
#242 = DIRECTION ( 'NONE',  ( -1.000000000000000000, 0.000000000000000000, 0.000000000000000000 ) ) ;
#243 = EDGE_CURVE ( 'NONE', #102, #83, #32, .T. ) ;
#244 = DIRECTION ( 'NONE',  ( -0.000000000000000000, -0.000000000000000000, -1.000000000000000000 ) ) ;
#245 = CARTESIAN_POINT ( 'NONE',  ( 0.000000000000000000, 0.000000000000000000, 0.000000000000000000 ) ) ;
#246 = CARTESIAN_POINT ( 'NONE',  ( 0.000000000000000000, 0.000000000000000000, 1.400000000000012346 ) ) ;
#247 = AXIS2_PLACEMENT_3D ( 'NONE', #110, #290, #197 ) ;
#248 = DIRECTION ( 'NONE',  ( 1.000000000000000000, 0.000000000000000000, 0.000000000000000000 ) ) ;
#249 = ORIENTED_EDGE ( 'NONE', *, *, #269, .T. ) ;
#250 = EDGE_CURVE ( 'NONE', #107, #83, #194, .T. ) ;
#251 = AXIS2_PLACEMENT_3D ( 'NONE', #48, #71, #167 ) ;
#252 = APPROVAL_DATE_TIME ( #125, #174 ) ;
#253 = EDGE_LOOP ( 'NONE', ( #126, #249, #65, #294 ) ) ;
#254 = ORIENTED_EDGE ( 'NONE', *, *, #144, .F. ) ;
#255 = EDGE_CURVE ( 'NONE', #83, #107, #180, .T. ) ;
#256 = ADVANCED_BREP_SHAPE_REPRESENTATION ( '2de5', ( #98, #204 ), #119 ) ;
#257 = ORIENTED_EDGE ( 'NONE', *, *, #199, .T. ) ;
#258 = DIRECTION ( 'NONE',  ( 1.000000000000000000, 0.000000000000000000, 0.000000000000000000 ) ) ;
#259 = ORIENTED_EDGE ( 'NONE', *, *, #213, .T. ) ;
#260 = CARTESIAN_POINT ( 'NONE',  ( 0.000000000000000000, 0.000000000000000000, 0.000000000000000000 ) ) ;
#261 = AXIS2_PLACEMENT_3D ( 'NONE', #224, #172, #171 ) ;
#262 = CC_DESIGN_PERSON_AND_ORGANIZATION_ASSIGNMENT ( #99, #130, ( #105 ) ) ;
#263 = CARTESIAN_POINT ( 'NONE',  ( 0.000000000000000000, 0.000000000000000000, 161.2000000000000171 ) ) ;
#264 = CARTESIAN_POINT ( 'NONE',  ( 0.000000000000000000, 0.000000000000000000, 1.199999999999999956 ) ) ;
#265 = CYLINDRICAL_SURFACE ( 'NONE', #305, 1.250000000000000000 ) ;
#266 = CC_DESIGN_PERSON_AND_ORGANIZATION_ASSIGNMENT ( #151, #123, ( #56 ) ) ;
#267 = DIRECTION ( 'NONE',  ( 1.000000000000000000, 0.000000000000000000, 0.000000000000000000 ) ) ;
#268 = DIRECTION ( 'NONE',  ( 0.000000000000000000, 0.000000000000000000, 1.000000000000000000 ) ) ;
#269 = EDGE_CURVE ( 'NONE', #190, #107, #291, .T. ) ;
#270 = DIRECTION ( 'NONE',  ( 1.000000000000000000, 0.000000000000000000, 0.000000000000000000 ) ) ;
#271 = AXIS2_PLACEMENT_3D ( 'NONE', #282, #24, #267 ) ;
#272 = FACE_OUTER_BOUND ( 'NONE', #64, .T. ) ;
#273 = CARTESIAN_POINT ( 'NONE',  ( 0.5500000000000000444, 6.735557395310442516E-17, 161.2000000000000171 ) ) ;
#274 = ORIENTED_EDGE ( 'NONE', *, *, #223, .F. ) ;
#275 = AXIS2_PLACEMENT_3D ( 'NONE', #88, #1, #50 ) ;
#276 = CARTESIAN_POINT ( 'NONE',  ( 0.000000000000000000, 0.000000000000000000, 1.199999999999999956 ) ) ;
#277 = VERTEX_POINT ( 'NONE', #292 ) ;
#278 = CARTESIAN_POINT ( 'NONE',  ( 0.000000000000000000, 0.000000000000000000, 1.199999999999999956 ) ) ;
#279 = ORIENTED_EDGE ( 'NONE', *, *, #218, .F. ) ;
#280 = LINE ( 'NONE', #143, #17 ) ;
#281 = PRODUCT_RELATED_PRODUCT_CATEGORY ( 'detail', '', ( #127 ) ) ;
#282 = CARTESIAN_POINT ( 'NONE',  ( 0.000000000000000000, 0.000000000000000000, 1.199999999999999956 ) ) ;
#283 = CIRCLE ( 'NONE', #149, 1.250000000000000000 ) ;
#284 = FACE_OUTER_BOUND ( 'NONE', #38, .T. ) ;
#285 = DIRECTION ( 'NONE',  ( 1.000000000000000000, 0.000000000000000000, 0.000000000000000000 ) ) ;
#286 = DIRECTION ( 'NONE',  ( -0.000000000000000000, -0.000000000000000000, -1.000000000000000000 ) ) ;
#287 = CARTESIAN_POINT ( 'NONE',  ( 1.250000000000000000, 1.530808498934191571E-16, 0.000000000000000000 ) ) ;
#288 = AXIS2_PLACEMENT_3D ( 'NONE', #68, #66, #215 ) ;
#289 = APPROVAL_PERSON_ORGANIZATION ( #101, #53, #82 ) ;
#290 = DIRECTION ( 'NONE',  ( 0.000000000000000000, 0.000000000000000000, 1.000000000000000000 ) ) ;
#291 = LINE ( 'NONE', #273, #55 ) ;
#292 = CARTESIAN_POINT ( 'NONE',  ( 0.7500000000000000000, 0.000000000000000000, 1.200000000000006173 ) ) ;
#293 = APPROVAL_STATUS ( 'not_yet_approved' ) ;
#294 = ORIENTED_EDGE ( 'NONE', *, *, #243, .F. ) ;
#295 = APPROVAL_STATUS ( 'not_yet_approved' ) ;
#296 = EDGE_LOOP ( 'NONE', ( #158, #136, #35, #135 ) ) ;
#297 = ADVANCED_FACE ( 'NONE', ( #272 ), #57, .F. ) ;
#298 = AXIS2_PLACEMENT_3D ( 'NONE', #264, #286, #193 ) ;
#299 = AXIS2_PLACEMENT_3D ( 'NONE', #43, #41, #210 ) ;
#300 = EDGE_LOOP ( 'NONE', ( #279, #274, #12, #155 ) ) ;
#301 = SECURITY_CLASSIFICATION_LEVEL ( 'unclassified' ) ;
#302 = APPROVAL_ROLE ( '' ) ;
#303 = CARTESIAN_POINT ( 'NONE',  ( 0.000000000000000000, 0.000000000000000000, 1.199999999999999956 ) ) ;
#304 = DATE_TIME_ROLE ( 'classification_date' ) ;
#305 = AXIS2_PLACEMENT_3D ( 'NONE', #191, #166, #240 ) ;
#306 = PERSON_AND_ORGANIZATION ( #170, #134 ) ;
#307 = ORIENTED_EDGE ( 'NONE', *, *, #42, .T. ) ;
ENDSEC;
END-ISO-10303-21;
