ISO-10303-21;
HEADER;
FILE_DESCRIPTION (( 'STEP AP203' ),
    '1' );
FILE_NAME ('68e7.STEP',
    '2022-06-20T09:31:40',
    ( '' ),
    ( '' ),
    'SwSTEP 2.0',
    'SolidWorks 2019',
    '' );
FILE_SCHEMA (( 'CONFIG_CONTROL_DESIGN' ));
ENDSEC;

DATA;
#1 = ORIENTED_EDGE ( 'NONE', *, *, #191, .F. ) ;
#2 = VECTOR ( 'NONE', #297, 1000.000000000000000 ) ;
#3 = APPROVAL_PERSON_ORGANIZATION ( #235, #53, #186 ) ;
#4 = MANIFOLD_SOLID_BREP ( 'Zaoblit1', #209 ) ;
#5 = EDGE_LOOP ( 'NONE', ( #198, #262, #265, #101 ) ) ;
#6 = DATE_AND_TIME ( #123, #163 ) ;
#7 = DIRECTION ( 'NONE',  ( 0.000000000000000000, 0.000000000000000000, 1.000000000000000000 ) ) ;
#8 = CC_DESIGN_PERSON_AND_ORGANIZATION_ASSIGNMENT ( #284, #237, ( #97 ) ) ;
#9 = DIRECTION ( 'NONE',  ( 0.000000000000000000, 0.000000000000000000, 1.000000000000000000 ) ) ;
#10 = DIRECTION ( 'NONE',  ( 1.000000000000000000, 0.000000000000000000, 0.000000000000000000 ) ) ;
#11 = CARTESIAN_POINT ( 'NONE',  ( -9.000000000000000000, 0.000000000000000000, 0.000000000000000000 ) ) ;
#12 = ADVANCED_FACE ( 'NONE', ( #266 ), #268, .T. ) ;
#13 = CARTESIAN_POINT ( 'NONE',  ( 0.000000000000000000, 0.000000000000000000, 7.200000000000095213 ) ) ;
#14 = VECTOR ( 'NONE', #295, 1000.000000000000000 ) ;
#15 = CARTESIAN_POINT ( 'NONE',  ( 0.000000000000000000, 0.000000000000000000, 7.000000000000000000 ) ) ;
#16 = DIRECTION ( 'NONE',  ( 1.224646799147353207E-16, 1.000000000000000000, -0.000000000000000000 ) ) ;
#17 = CIRCLE ( 'NONE', #282, 9.000000000000000000 ) ;
#18 = COORDINATED_UNIVERSAL_TIME_OFFSET ( 1, 0, .AHEAD. ) ;
#19 = ORIENTED_EDGE ( 'NONE', *, *, #119, .F. ) ;
#20 = PERSON_AND_ORGANIZATION_ROLE ( 'creator' ) ;
#21 = SECURITY_CLASSIFICATION_LEVEL ( 'unclassified' ) ;
#22 = EDGE_LOOP ( 'NONE', ( #280, #166 ) ) ;
#23 = CIRCLE ( 'NONE', #102, 6.200000000000001066 ) ;
#24 = ORIENTED_EDGE ( 'NONE', *, *, #138, .T. ) ;
#25 = CC_DESIGN_PERSON_AND_ORGANIZATION_ASSIGNMENT ( #41, #20, ( #229 ) ) ;
#26 = VERTEX_POINT ( 'NONE', #94 ) ;
#27 = DIRECTION ( 'NONE',  ( 1.000000000000000000, 0.000000000000000000, -0.000000000000000000 ) ) ;
#28 = AXIS2_PLACEMENT_3D ( 'NONE', #127, #220, #221 ) ;
#29 = CARTESIAN_POINT ( 'NONE',  ( 0.000000000000000000, 0.000000000000000000, 0.000000000000000000 ) ) ;
#30 = CARTESIAN_POINT ( 'NONE',  ( -9.000000000000000000, 0.000000000000000000, 7.000000000000000000 ) ) ;
#31 = AXIS2_PLACEMENT_3D ( 'NONE', #75, #7, #175 ) ;
#32 = DIRECTION ( 'NONE',  ( 1.000000000000000000, 0.000000000000000000, 0.000000000000000000 ) ) ;
#33 = EDGE_CURVE ( 'NONE', #212, #168, #124, .T. ) ;
#34 = DIRECTION ( 'NONE',  ( 0.000000000000000000, 0.000000000000000000, 1.000000000000000000 ) ) ;
#35 = LINE ( 'NONE', #134, #2 ) ;
#36 = DIRECTION ( 'NONE',  ( 1.000000000000000000, 0.000000000000000000, 0.000000000000000000 ) ) ;
#37 = EDGE_CURVE ( 'NONE', #168, #58, #55, .T. ) ;
#38 = DATE_AND_TIME ( #256, #69 ) ;
#39 = CIRCLE ( 'NONE', #242, 9.000000000000000000 ) ;
#40 = DATE_AND_TIME ( #259, #205 ) ;
#41 = PERSON_AND_ORGANIZATION ( #91, #305 ) ;
#42 = ADVANCED_FACE ( 'NONE', ( #194 ), #159, .F. ) ;
#43 = ORIENTED_EDGE ( 'NONE', *, *, #289, .T. ) ;
#44 = ORIENTED_EDGE ( 'NONE', *, *, #298, .F. ) ;
#45 = ORIENTED_EDGE ( 'NONE', *, *, #217, .T. ) ;
#46 = AXIS2_PLACEMENT_3D ( 'NONE', #56, #81, #79 ) ;
#47 = PERSON_AND_ORGANIZATION ( #91, #305 ) ;
#48 = DIRECTION ( 'NONE',  ( 0.000000000000000000, 0.000000000000000000, 1.000000000000000000 ) ) ;
#49 = ORIENTED_EDGE ( 'NONE', *, *, #77, .F. ) ;
#50 = ADVANCED_FACE ( 'NONE', ( #222 ), #218, .T. ) ;
#51 = DIRECTION ( 'NONE',  ( -1.000000000000000000, 0.000000000000000000, 0.000000000000000000 ) ) ;
#52 = CARTESIAN_POINT ( 'NONE',  ( 0.000000000000000000, 0.000000000000000000, 0.000000000000000000 ) ) ;
#53 = APPROVAL ( #165, 'NEURÈENÝ' ) ;
#54 = CYLINDRICAL_SURFACE ( 'NONE', #173, 6.000000000000000888 ) ;
#55 = CIRCLE ( 'NONE', #28, 6.000000000000000888 ) ;
#56 = CARTESIAN_POINT ( 'NONE',  ( 0.000000000000000000, 0.000000000000000000, 0.000000000000000000 ) ) ;
#57 = DIRECTION ( 'NONE',  ( 1.000000000000000000, 0.000000000000000000, 0.000000000000000000 ) ) ;
#58 = VERTEX_POINT ( 'NONE', #192 ) ;
#59 = COORDINATED_UNIVERSAL_TIME_OFFSET ( 1, 0, .AHEAD. ) ;
#60 = ORIENTED_EDGE ( 'NONE', *, *, #37, .F. ) ;
#61 = ADVANCED_FACE ( 'NONE', ( #196 ), #291, .T. ) ;
#62 = AXIS2_PLACEMENT_3D ( 'NONE', #200, #206, #226 ) ;
#63 = CALENDAR_DATE ( 2022, 20, 6 ) ;
#64 = EDGE_LOOP ( 'NONE', ( #170, #1, #43, #162 ) ) ;
#65 = DATE_TIME_ROLE ( 'creation_date' ) ;
#66 = SHAPE_DEFINITION_REPRESENTATION ( #195, #240 ) ;
#67 = APPROVAL_STATUS ( 'not_yet_approved' ) ;
#68 = VERTEX_POINT ( 'NONE', #174 ) ;
#69 = LOCAL_TIME ( 11, 31, 40.00000000000000000, #160 ) ;
#70 = ORIENTED_EDGE ( 'NONE', *, *, #119, .T. ) ;
#71 = ORIENTED_EDGE ( 'NONE', *, *, #289, .F. ) ;
#72 = CARTESIAN_POINT ( 'NONE',  ( 0.000000000000000000, 0.000000000000000000, 1206.999999999999773 ) ) ;
#73 = AXIS2_PLACEMENT_3D ( 'NONE', #15, #253, #207 ) ;
#74 = LOCAL_TIME ( 11, 31, 40.00000000000000000, #110 ) ;
#75 = CARTESIAN_POINT ( 'NONE',  ( 0.000000000000000000, 0.000000000000000000, 7.200000000000095213 ) ) ;
#76 = CC_DESIGN_PERSON_AND_ORGANIZATION_ASSIGNMENT ( #143, #189, ( #97 ) ) ;
#77 = EDGE_CURVE ( 'NONE', #212, #68, #233, .T. ) ;
#78 = CARTESIAN_POINT ( 'NONE',  ( 0.000000000000000000, 0.000000000000000000, 7.200000000000095213 ) ) ;
#79 = DIRECTION ( 'NONE',  ( 1.000000000000000000, 0.000000000000000000, 0.000000000000000000 ) ) ;
#80 = AXIS2_PLACEMENT_3D ( 'NONE', #72, #129, #151 ) ;
#81 = DIRECTION ( 'NONE',  ( 0.000000000000000000, 0.000000000000000000, 1.000000000000000000 ) ) ;
#82 = DIRECTION ( 'NONE',  ( -1.000000000000000000, 1.224646799147353454E-16, 0.000000000000000000 ) ) ;
#83 = APPLICATION_CONTEXT ( 'configuration controlled 3d designs of mechanical parts and assemblies' ) ;
#84 = DIRECTION ( 'NONE',  ( 0.000000000000000000, -1.000000000000000000, 0.000000000000000000 ) ) ;
#85 = AXIS2_PLACEMENT_3D ( 'NONE', #257, #210, #213 ) ;
#86 = APPROVAL_DATE_TIME ( #142, #292 ) ;
#87 = ORIENTED_EDGE ( 'NONE', *, *, #225, .F. ) ;
#88 = APPLICATION_PROTOCOL_DEFINITION ( 'international standard', 'config_control_design', 1994, #83 ) ;
#89 = EDGE_CURVE ( 'NONE', #236, #190, #204, .T. ) ;
#90 = EDGE_LOOP ( 'NONE', ( #239, #49, #285, #263 ) ) ;
#91 = PERSON ( 'NEURÈENÝ', 'NEURÈENÝ', 'NEURÈENÝ', ('NEURÈENÝ'), ('NEURÈENÝ'), ('NEURÈENÝ') ) ;
#92 = APPLICATION_PROTOCOL_DEFINITION ( 'international standard', 'config_control_design', 1994, #178 ) ;
#93 = APPROVAL_ROLE ( '' ) ;
#94 = CARTESIAN_POINT ( 'NONE',  ( 6.200000000000001066, 0.000000000000000000, 7.000000000000047962 ) ) ;
#95 = VECTOR ( 'NONE', #293, 1000.000000000000000 ) ;
#96 = VERTEX_POINT ( 'NONE', #158 ) ;
#97 = PRODUCT_DEFINITION_FORMATION_WITH_SPECIFIED_SOURCE ( 'LIBOVOLNÝ', '', #264, .NOT_KNOWN. ) ;
#98 = APPROVAL_ROLE ( '' ) ;
#99 = CARTESIAN_POINT ( 'NONE',  ( -6.000000000000000888, 0.000000000000000000, 1206.999999999999773 ) ) ;
#100 = DIRECTION ( 'NONE',  ( -1.000000000000000000, 0.000000000000000000, 0.000000000000000000 ) ) ;
#101 = ORIENTED_EDGE ( 'NONE', *, *, #267, .F. ) ;
#102 = AXIS2_PLACEMENT_3D ( 'NONE', #224, #104, #57 ) ;
#103 = ADVANCED_FACE ( 'NONE', ( #108 ), #272, .F. ) ;
#104 = DIRECTION ( 'NONE',  ( -0.000000000000000000, -0.000000000000000000, -1.000000000000000000 ) ) ;
#105 = DIRECTION ( 'NONE',  ( 1.000000000000000000, 0.000000000000000000, 0.000000000000000000 ) ) ;
#106 = CARTESIAN_POINT ( 'NONE',  ( -6.000000000000000888, 0.000000000000000000, 1206.999999999999773 ) ) ;
#107 = AXIS2_PLACEMENT_3D ( 'NONE', #269, #48, #246 ) ;
#108 = FACE_OUTER_BOUND ( 'NONE', #185, .T. ) ;
#109 = DIRECTION ( 'NONE',  ( 1.000000000000000000, 0.000000000000000000, -0.000000000000000000 ) ) ;
#110 = COORDINATED_UNIVERSAL_TIME_OFFSET ( 1, 0, .AHEAD. ) ;
#111 = CIRCLE ( 'NONE', #277, 6.000000000000000888 ) ;
#112 = EDGE_CURVE ( 'NONE', #58, #168, #111, .T. ) ;
#113 = APPROVAL_PERSON_ORGANIZATION ( #188, #292, #93 ) ;
#114 = PERSON_AND_ORGANIZATION_ROLE ( 'design_owner' ) ;
#115 = DESIGN_CONTEXT ( 'detailed design', #178, 'design' ) ;
#116 = FACE_OUTER_BOUND ( 'NONE', #64, .T. ) ;
#117 = VERTEX_POINT ( 'NONE', #294 ) ;
#118 = EDGE_LOOP ( 'NONE', ( #87, #286 ) ) ;
#119 = EDGE_CURVE ( 'NONE', #68, #212, #167, .T. ) ;
#120 = VECTOR ( 'NONE', #130, 1000.000000000000000 ) ;
#121 = PERSON_AND_ORGANIZATION ( #91, #305 ) ;
#122 = ORIENTED_EDGE ( 'NONE', *, *, #126, .T. ) ;
#123 = CALENDAR_DATE ( 2022, 20, 6 ) ;
#124 = LINE ( 'NONE', #99, #95 ) ;
#125 = EDGE_LOOP ( 'NONE', ( #152, #70 ) ) ;
#126 = EDGE_CURVE ( 'NONE', #96, #236, #35, .T. ) ;
#127 = CARTESIAN_POINT ( 'NONE',  ( 0.000000000000000000, 0.000000000000000000, 7.200000000000095213 ) ) ;
#128 = DIRECTION ( 'NONE',  ( -0.000000000000000000, -0.000000000000000000, -1.000000000000000000 ) ) ;
#129 = DIRECTION ( 'NONE',  ( -0.000000000000000000, -0.000000000000000000, -1.000000000000000000 ) ) ;
#130 = DIRECTION ( 'NONE',  ( -0.000000000000000000, -0.000000000000000000, -1.000000000000000000 ) ) ;
#131 = AXIS2_PLACEMENT_3D ( 'NONE', #300, #84, #276 ) ;
#132 = DIRECTION ( 'NONE',  ( 0.000000000000000000, 0.000000000000000000, 1.000000000000000000 ) ) ;
#133 = PLANE ( 'NONE',  #62 ) ;
#134 = CARTESIAN_POINT ( 'NONE',  ( 9.000000000000000000, 1.102182119232617714E-15, 7.000000000000000000 ) ) ;
#135 = DIRECTION ( 'NONE',  ( 1.000000000000000000, 0.000000000000000000, 0.000000000000000000 ) ) ;
#136 = DATE_TIME_ROLE ( 'classification_date' ) ;
#137 = UNCERTAINTY_MEASURE_WITH_UNIT (LENGTH_MEASURE( 1.000000000000000082E-05 ), #183, 'distance_accuracy_value', 'NONE');
#138 = EDGE_CURVE ( 'NONE', #168, #117, #179, .T. ) ;
#139 = AXIS2_PLACEMENT_3D ( 'NONE', #13, #132, #254 ) ;
#140 = SECURITY_CLASSIFICATION ( '', '', #21 ) ;
#141 =( NAMED_UNIT ( * ) SI_UNIT ( $, .STERADIAN. ) SOLID_ANGLE_UNIT ( ) );
#142 = DATE_AND_TIME ( #283, #74 ) ;
#143 = PERSON_AND_ORGANIZATION ( #91, #305 ) ;
#144 = ORIENTED_EDGE ( 'NONE', *, *, #161, .F. ) ;
#145 = CC_DESIGN_APPROVAL ( #201, ( #140 ) ) ;
#146 = ORIENTED_EDGE ( 'NONE', *, *, #112, .T. ) ;
#147 = ADVANCED_FACE ( 'NONE', ( #299, #181 ), #133, .T. ) ;
#148 = VERTEX_POINT ( 'NONE', #227 ) ;
#149 = DIRECTION ( 'NONE',  ( 0.000000000000000000, 0.000000000000000000, 1.000000000000000000 ) ) ;
#150 = APPROVAL_PERSON_ORGANIZATION ( #47, #201, #98 ) ;
#151 = DIRECTION ( 'NONE',  ( -1.000000000000000000, 0.000000000000000000, 0.000000000000000000 ) ) ;
#152 = ORIENTED_EDGE ( 'NONE', *, *, #77, .T. ) ;
#153 = DIRECTION ( 'NONE',  ( 0.000000000000000000, 0.000000000000000000, 1.000000000000000000 ) ) ;
#154 = AXIS2_PLACEMENT_3D ( 'NONE', #271, #153, #36 ) ;
#155 = CC_DESIGN_SECURITY_CLASSIFICATION ( #140, ( #97 ) ) ;
#156 = DIRECTION ( 'NONE',  ( 0.000000000000000000, 0.000000000000000000, 1.000000000000000000 ) ) ;
#157 = CARTESIAN_POINT ( 'NONE',  ( 0.000000000000000000, 0.000000000000000000, 7.000000000000000000 ) ) ;
#158 = CARTESIAN_POINT ( 'NONE',  ( 9.000000000000000000, 1.102182119232617714E-15, 7.000000000000000000 ) ) ;
#159 = TOROIDAL_SURFACE ( 'NONE', #31, 6.200000000000001066, 0.2000000000000000111 ) ;
#160 = COORDINATED_UNIVERSAL_TIME_OFFSET ( 1, 0, .AHEAD. ) ;
#161 = EDGE_CURVE ( 'NONE', #96, #148, #39, .T. ) ;
#162 = ORIENTED_EDGE ( 'NONE', *, *, #225, .T. ) ;
#163 = LOCAL_TIME ( 11, 31, 40.00000000000000000, #197 ) ;
#164 = DATE_AND_TIME ( #63, #244 ) ;
#165 = APPROVAL_STATUS ( 'not_yet_approved' ) ;
#166 = ORIENTED_EDGE ( 'NONE', *, *, #267, .T. ) ;
#167 = CIRCLE ( 'NONE', #154, 6.000000000000000888 ) ;
#168 = VERTEX_POINT ( 'NONE', #273 ) ;
#169 = PRODUCT_RELATED_PRODUCT_CATEGORY ( 'detail', '', ( #264 ) ) ;
#170 = ORIENTED_EDGE ( 'NONE', *, *, #126, .F. ) ;
#171 = APPROVAL_DATE_TIME ( #6, #201 ) ;
#172 = ORIENTED_EDGE ( 'NONE', *, *, #278, .F. ) ;
#173 = AXIS2_PLACEMENT_3D ( 'NONE', #230, #177, #51 ) ;
#174 = CARTESIAN_POINT ( 'NONE',  ( 6.000000000000000888, 7.347880794884120722E-16, 1206.999999999999773 ) ) ;
#175 = DIRECTION ( 'NONE',  ( 1.000000000000000000, 0.000000000000000000, 0.000000000000000000 ) ) ;
#176 = DIRECTION ( 'NONE',  ( 0.000000000000000000, 0.000000000000000000, 1.000000000000000000 ) ) ;
#177 = DIRECTION ( 'NONE',  ( -0.000000000000000000, -0.000000000000000000, -1.000000000000000000 ) ) ;
#178 = APPLICATION_CONTEXT ( 'configuration controlled 3d designs of mechanical parts and assemblies' ) ;
#179 = CIRCLE ( 'NONE', #302, 0.1999999999999996503 ) ;
#180 = FACE_OUTER_BOUND ( 'NONE', #270, .T. ) ;
#181 = FACE_OUTER_BOUND ( 'NONE', #288, .T. ) ;
#182 = LINE ( 'NONE', #202, #14 ) ;
#183 =( LENGTH_UNIT ( ) NAMED_UNIT ( * ) SI_UNIT ( .MILLI., .METRE. ) );
#184 = APPROVAL_STATUS ( 'not_yet_approved' ) ;
#185 = EDGE_LOOP ( 'NONE', ( #60, #24, #44, #172 ) ) ;
#186 = APPROVAL_ROLE ( '' ) ;
#187 = CIRCLE ( 'NONE', #46, 9.000000000000000000 ) ;
#188 = PERSON_AND_ORGANIZATION ( #91, #305 ) ;
#189 = PERSON_AND_ORGANIZATION_ROLE ( 'creator' ) ;
#190 = VERTEX_POINT ( 'NONE', #11 ) ;
#191 = EDGE_CURVE ( 'NONE', #148, #96, #17, .T. ) ;
#192 = CARTESIAN_POINT ( 'NONE',  ( 6.000000000000000888, 7.347880794884120722E-16, 7.200000000000095213 ) ) ;
#193 = ORIENTED_EDGE ( 'NONE', *, *, #191, .T. ) ;
#194 = FACE_OUTER_BOUND ( 'NONE', #5, .T. ) ;
#195 = PRODUCT_DEFINITION_SHAPE ( 'NONE', 'NONE',  #229 ) ;
#196 = FACE_OUTER_BOUND ( 'NONE', #90, .T. ) ;
#197 = COORDINATED_UNIVERSAL_TIME_OFFSET ( 1, 0, .AHEAD. ) ;
#198 = ORIENTED_EDGE ( 'NONE', *, *, #138, .F. ) ;
#199 = CC_DESIGN_APPROVAL ( #53, ( #97 ) ) ;
#200 = CARTESIAN_POINT ( 'NONE',  ( 0.000000000000000000, 0.000000000000000000, 7.000000000000000000 ) ) ;
#201 = APPROVAL ( #67, 'NEURÈENÝ' ) ;
#202 = CARTESIAN_POINT ( 'NONE',  ( 6.000000000000000888, 7.347880794884120722E-16, 1206.999999999999773 ) ) ;
#203 = DIRECTION ( 'NONE',  ( 0.000000000000000000, 0.000000000000000000, 1.000000000000000000 ) ) ;
#204 = CIRCLE ( 'NONE', #223, 9.000000000000000000 ) ;
#205 = LOCAL_TIME ( 11, 31, 40.00000000000000000, #59 ) ;
#206 = DIRECTION ( 'NONE',  ( 0.000000000000000000, 0.000000000000000000, 1.000000000000000000 ) ) ;
#207 = DIRECTION ( 'NONE',  ( 1.000000000000000000, 0.000000000000000000, 0.000000000000000000 ) ) ;
#208 =( NAMED_UNIT ( * ) PLANE_ANGLE_UNIT ( ) SI_UNIT ( $, .RADIAN. ) );
#209 = CLOSED_SHELL ( 'NONE', ( #103, #243, #50, #307, #147, #258, #61, #12, #42 ) ) ;
#210 = DIRECTION ( 'NONE',  ( -0.000000000000000000, -0.000000000000000000, -1.000000000000000000 ) ) ;
#211 = CYLINDRICAL_SURFACE ( 'NONE', #85, 9.000000000000000000 ) ;
#212 = VERTEX_POINT ( 'NONE', #106 ) ;
#213 = DIRECTION ( 'NONE',  ( -1.000000000000000000, 0.000000000000000000, 0.000000000000000000 ) ) ;
#214 = AXIS2_PLACEMENT_3D ( 'NONE', #52, #34, #109 ) ;
#215 = PERSON_AND_ORGANIZATION_ROLE ( 'classification_officer' ) ;
#216 = ORIENTED_EDGE ( 'NONE', *, *, #33, .F. ) ;
#217 = EDGE_CURVE ( 'NONE', #68, #58, #182, .T. ) ;
#218 = CYLINDRICAL_SURFACE ( 'NONE', #304, 9.000000000000000000 ) ;
#219 = ORIENTED_EDGE ( 'NONE', *, *, #161, .T. ) ;
#220 = DIRECTION ( 'NONE',  ( 0.000000000000000000, 0.000000000000000000, 1.000000000000000000 ) ) ;
#221 = DIRECTION ( 'NONE',  ( 1.000000000000000000, 0.000000000000000000, 0.000000000000000000 ) ) ;
#222 = FACE_OUTER_BOUND ( 'NONE', #245, .T. ) ;
#223 = AXIS2_PLACEMENT_3D ( 'NONE', #29, #9, #10 ) ;
#224 = CARTESIAN_POINT ( 'NONE',  ( 0.000000000000000000, 0.000000000000000000, 7.000000000000000000 ) ) ;
#225 = EDGE_CURVE ( 'NONE', #190, #236, #187, .T. ) ;
#226 = DIRECTION ( 'NONE',  ( 1.000000000000000000, 0.000000000000000000, -0.000000000000000000 ) ) ;
#227 = CARTESIAN_POINT ( 'NONE',  ( -9.000000000000000000, 0.000000000000000000, 7.000000000000000000 ) ) ;
#228 = CARTESIAN_POINT ( 'NONE',  ( 0.000000000000000000, 0.000000000000000000, 7.000000000000000000 ) ) ;
#229 = PRODUCT_DEFINITION ( 'NEZNÁMÝ', '', #97, #115 ) ;
#230 = CARTESIAN_POINT ( 'NONE',  ( 0.000000000000000000, 0.000000000000000000, 1206.999999999999773 ) ) ;
#231 = MECHANICAL_CONTEXT ( 'NONE', #83, 'mechanical' ) ;
#232 = PERSON_AND_ORGANIZATION ( #91, #305 ) ;
#233 = CIRCLE ( 'NONE', #107, 6.000000000000000888 ) ;
#234 = CC_DESIGN_DATE_AND_TIME_ASSIGNMENT ( #40, #65, ( #229 ) ) ;
#235 = PERSON_AND_ORGANIZATION ( #91, #305 ) ;
#236 = VERTEX_POINT ( 'NONE', #275 ) ;
#237 = PERSON_AND_ORGANIZATION_ROLE ( 'design_supplier' ) ;
#238 = CIRCLE ( 'NONE', #73, 6.200000000000001066 ) ;
#239 = ORIENTED_EDGE ( 'NONE', *, *, #217, .F. ) ;
#240 = ADVANCED_BREP_SHAPE_REPRESENTATION ( '68e7', ( #4, #250 ), #296 ) ;
#241 = CARTESIAN_POINT ( 'NONE',  ( 0.000000000000000000, 0.000000000000000000, 1206.999999999999773 ) ) ;
#242 = AXIS2_PLACEMENT_3D ( 'NONE', #228, #156, #135 ) ;
#243 = ADVANCED_FACE ( 'NONE', ( #180 ), #54, .T. ) ;
#244 = LOCAL_TIME ( 11, 31, 40.00000000000000000, #18 ) ;
#245 = EDGE_LOOP ( 'NONE', ( #144, #122, #290, #71 ) ) ;
#246 = DIRECTION ( 'NONE',  ( 1.000000000000000000, 0.000000000000000000, 0.000000000000000000 ) ) ;
#247 = LINE ( 'NONE', #30, #120 ) ;
#248 = CC_DESIGN_PERSON_AND_ORGANIZATION_ASSIGNMENT ( #121, #215, ( #140 ) ) ;
#249 = AXIS2_PLACEMENT_3D ( 'NONE', #241, #149, #27 ) ;
#250 = AXIS2_PLACEMENT_3D ( 'NONE', #279, #303, #281 ) ;
#251 = CARTESIAN_POINT ( 'NONE',  ( -6.200000000000001066, 7.592810154713590821E-16, 7.200000000000095213 ) ) ;
#252 = PLANE ( 'NONE',  #214 ) ;
#253 = DIRECTION ( 'NONE',  ( -0.000000000000000000, -0.000000000000000000, -1.000000000000000000 ) ) ;
#254 = DIRECTION ( 'NONE',  ( 1.000000000000000000, 0.000000000000000000, 0.000000000000000000 ) ) ;
#255 = CIRCLE ( 'NONE', #131, 0.1999999999999996503 ) ;
#256 = CALENDAR_DATE ( 2022, 20, 6 ) ;
#257 = CARTESIAN_POINT ( 'NONE',  ( 0.000000000000000000, 0.000000000000000000, 7.000000000000000000 ) ) ;
#258 = ADVANCED_FACE ( 'NONE', ( #274 ), #252, .F. ) ;
#259 = CALENDAR_DATE ( 2022, 20, 6 ) ;
#260 = APPROVAL_DATE_TIME ( #164, #53 ) ;
#261 = CC_DESIGN_DATE_AND_TIME_ASSIGNMENT ( #38, #136, ( #140 ) ) ;
#262 = ORIENTED_EDGE ( 'NONE', *, *, #112, .F. ) ;
#263 = ORIENTED_EDGE ( 'NONE', *, *, #37, .T. ) ;
#264 = PRODUCT ( '68e7', '68e7', '', ( #231 ) ) ;
#265 = ORIENTED_EDGE ( 'NONE', *, *, #278, .T. ) ;
#266 = FACE_OUTER_BOUND ( 'NONE', #125, .T. ) ;
#267 = EDGE_CURVE ( 'NONE', #117, #26, #238, .T. ) ;
#268 = PLANE ( 'NONE',  #249 ) ;
#269 = CARTESIAN_POINT ( 'NONE',  ( 0.000000000000000000, 0.000000000000000000, 1206.999999999999773 ) ) ;
#270 = EDGE_LOOP ( 'NONE', ( #19, #45, #146, #216 ) ) ;
#271 = CARTESIAN_POINT ( 'NONE',  ( 0.000000000000000000, 0.000000000000000000, 1206.999999999999773 ) ) ;
#272 = TOROIDAL_SURFACE ( 'NONE', #139, 6.200000000000001066, 0.2000000000000000111 ) ;
#273 = CARTESIAN_POINT ( 'NONE',  ( -6.000000000000000888, 0.000000000000000000, 7.200000000000095213 ) ) ;
#274 = FACE_OUTER_BOUND ( 'NONE', #118, .T. ) ;
#275 = CARTESIAN_POINT ( 'NONE',  ( 9.000000000000000000, 1.102182119232617714E-15, 0.000000000000000000 ) ) ;
#276 = DIRECTION ( 'NONE',  ( 0.000000000000000000, 0.000000000000000000, -1.000000000000000000 ) ) ;
#277 = AXIS2_PLACEMENT_3D ( 'NONE', #78, #176, #32 ) ;
#278 = EDGE_CURVE ( 'NONE', #58, #26, #255, .T. ) ;
#279 = CARTESIAN_POINT ( 'NONE',  ( 0.000000000000000000, 0.000000000000000000, 0.000000000000000000 ) ) ;
#280 = ORIENTED_EDGE ( 'NONE', *, *, #298, .T. ) ;
#281 = DIRECTION ( 'NONE',  ( 1.000000000000000000, 0.000000000000000000, 0.000000000000000000 ) ) ;
#282 = AXIS2_PLACEMENT_3D ( 'NONE', #157, #203, #105 ) ;
#283 = CALENDAR_DATE ( 2022, 20, 6 ) ;
#284 = PERSON_AND_ORGANIZATION ( #91, #305 ) ;
#285 = ORIENTED_EDGE ( 'NONE', *, *, #33, .T. ) ;
#286 = ORIENTED_EDGE ( 'NONE', *, *, #89, .F. ) ;
#287 = CC_DESIGN_APPROVAL ( #292, ( #229 ) ) ;
#288 = EDGE_LOOP ( 'NONE', ( #193, #219 ) ) ;
#289 = EDGE_CURVE ( 'NONE', #148, #190, #247, .T. ) ;
#290 = ORIENTED_EDGE ( 'NONE', *, *, #89, .T. ) ;
#291 = CYLINDRICAL_SURFACE ( 'NONE', #80, 6.000000000000000888 ) ;
#292 = APPROVAL ( #184, 'NEURÈENÝ' ) ;
#293 = DIRECTION ( 'NONE',  ( -0.000000000000000000, -0.000000000000000000, -1.000000000000000000 ) ) ;
#294 = CARTESIAN_POINT ( 'NONE',  ( -6.200000000000001066, 7.592810154713590821E-16, 7.000000000000047962 ) ) ;
#295 = DIRECTION ( 'NONE',  ( -0.000000000000000000, -0.000000000000000000, -1.000000000000000000 ) ) ;
#296 =( GEOMETRIC_REPRESENTATION_CONTEXT ( 3 ) GLOBAL_UNCERTAINTY_ASSIGNED_CONTEXT ( ( #137 ) ) GLOBAL_UNIT_ASSIGNED_CONTEXT ( ( #183, #208, #141 ) ) REPRESENTATION_CONTEXT ( 'NONE', 'WORKASPACE' ) );
#297 = DIRECTION ( 'NONE',  ( -0.000000000000000000, -0.000000000000000000, -1.000000000000000000 ) ) ;
#298 = EDGE_CURVE ( 'NONE', #26, #117, #23, .T. ) ;
#299 = FACE_BOUND ( 'NONE', #22, .T. ) ;
#300 = CARTESIAN_POINT ( 'NONE',  ( 6.200000000000001066, 0.000000000000000000, 7.200000000000095213 ) ) ;
#301 = CC_DESIGN_PERSON_AND_ORGANIZATION_ASSIGNMENT ( #232, #114, ( #264 ) ) ;
#302 = AXIS2_PLACEMENT_3D ( 'NONE', #251, #16, #82 ) ;
#303 = DIRECTION ( 'NONE',  ( 0.000000000000000000, 0.000000000000000000, 1.000000000000000000 ) ) ;
#304 = AXIS2_PLACEMENT_3D ( 'NONE', #306, #128, #100 ) ;
#305 = ORGANIZATION ( 'NEURÈENÝ', 'NEURÈENÝ', '' ) ;
#306 = CARTESIAN_POINT ( 'NONE',  ( 0.000000000000000000, 0.000000000000000000, 7.000000000000000000 ) ) ;
#307 = ADVANCED_FACE ( 'NONE', ( #116 ), #211, .T. ) ;
ENDSEC;
END-ISO-10303-21;
