ISO-10303-21;
HEADER;
FILE_DESCRIPTION (( 'STEP AP203' ),
    '1' );
FILE_NAME ('92f0.STEP',
    '2022-06-20T09:51:57',
    ( '' ),
    ( '' ),
    'SwSTEP 2.0',
    'SolidWorks 2019',
    '' );
FILE_SCHEMA (( 'CONFIG_CONTROL_DESIGN' ));
ENDSEC;

DATA;
#1 = DIRECTION ( 'NONE',  ( 1.000000000000000000, 0.000000000000000000, -0.000000000000000000 ) ) ;
#2 = CC_DESIGN_APPROVAL ( #134, ( #180 ) ) ;
#3 = DIRECTION ( 'NONE',  ( -0.000000000000000000, -0.000000000000000000, -1.000000000000000000 ) ) ;
#4 = VECTOR ( 'NONE', #294, 1000.000000000000000 ) ;
#5 = ORIENTED_EDGE ( 'NONE', *, *, #87, .T. ) ;
#6 = EDGE_LOOP ( 'NONE', ( #10, #25, #138, #122 ) ) ;
#7 = LINE ( 'NONE', #121, #4 ) ;
#8 = ADVANCED_FACE ( 'NONE', ( #299 ), #238, .T. ) ;
#9 = CARTESIAN_POINT ( 'NONE',  ( -3.700000000000000178, 4.531193156845206201E-16, 5.199999999999982414 ) ) ;
#10 = ORIENTED_EDGE ( 'NONE', *, *, #113, .F. ) ;
#11 = ADVANCED_FACE ( 'NONE', ( #103 ), #16, .T. ) ;
#12 = DIRECTION ( 'NONE',  ( 0.000000000000000000, 0.000000000000000000, 1.000000000000000000 ) ) ;
#13 = PERSON ( 'NEURÈENÝ', 'NEURÈENÝ', 'NEURÈENÝ', ('NEURÈENÝ'), ('NEURÈENÝ'), ('NEURÈENÝ') ) ;
#14 = DIRECTION ( 'NONE',  ( -0.000000000000000000, -0.000000000000000000, -1.000000000000000000 ) ) ;
#15 = DATE_AND_TIME ( #231, #41 ) ;
#16 = CYLINDRICAL_SURFACE ( 'NONE', #285, 3.500000000000000000 ) ;
#17 = AXIS2_PLACEMENT_3D ( 'NONE', #147, #12, #56 ) ;
#18 = DIRECTION ( 'NONE',  ( 0.000000000000000000, 0.000000000000000000, 1.000000000000000000 ) ) ;
#19 = CARTESIAN_POINT ( 'NONE',  ( 0.000000000000000000, 0.000000000000000000, 5.199999999999982414 ) ) ;
#20 = LINE ( 'NONE', #189, #273 ) ;
#21 = AXIS2_PLACEMENT_3D ( 'NONE', #52, #146, #252 ) ;
#22 = DIRECTION ( 'NONE',  ( -0.000000000000000000, -0.000000000000000000, -1.000000000000000000 ) ) ;
#23 = AXIS2_PLACEMENT_3D ( 'NONE', #160, #107, #132 ) ;
#24 = ORIENTED_EDGE ( 'NONE', *, *, #219, .T. ) ;
#25 = ORIENTED_EDGE ( 'NONE', *, *, #298, .T. ) ;
#26 = ORIENTED_EDGE ( 'NONE', *, *, #219, .F. ) ;
#27 =( GEOMETRIC_REPRESENTATION_CONTEXT ( 3 ) GLOBAL_UNCERTAINTY_ASSIGNED_CONTEXT ( ( #119 ) ) GLOBAL_UNIT_ASSIGNED_CONTEXT ( ( #68, #169, #117 ) ) REPRESENTATION_CONTEXT ( 'NONE', 'WORKASPACE' ) );
#28 = ORIENTED_EDGE ( 'NONE', *, *, #113, .T. ) ;
#29 = ORIENTED_EDGE ( 'NONE', *, *, #62, .F. ) ;
#30 = PERSON_AND_ORGANIZATION ( #13, #209 ) ;
#31 = CYLINDRICAL_SURFACE ( 'NONE', #187, 6.000000000000000888 ) ;
#32 = PERSON_AND_ORGANIZATION_ROLE ( 'design_supplier' ) ;
#33 = CARTESIAN_POINT ( 'NONE',  ( -6.000000000000000888, 0.000000000000000000, 0.000000000000000000 ) ) ;
#34 = VECTOR ( 'NONE', #3, 1000.000000000000000 ) ;
#35 = PERSON_AND_ORGANIZATION ( #13, #209 ) ;
#36 = DIRECTION ( 'NONE',  ( 0.000000000000000000, 0.000000000000000000, 1.000000000000000000 ) ) ;
#37 = PLANE ( 'NONE',  #104 ) ;
#38 = DIRECTION ( 'NONE',  ( 0.000000000000000000, 0.000000000000000000, 1.000000000000000000 ) ) ;
#39 = EDGE_CURVE ( 'NONE', #192, #170, #241, .T. ) ;
#40 = PLANE ( 'NONE',  #98 ) ;
#41 = LOCAL_TIME ( 11, 51, 57.00000000000000000, #277 ) ;
#42 = ORIENTED_EDGE ( 'NONE', *, *, #250, .F. ) ;
#43 = AXIS2_PLACEMENT_3D ( 'NONE', #253, #36, #295 ) ;
#44 = CC_DESIGN_SECURITY_CLASSIFICATION ( #90, ( #249 ) ) ;
#45 = ADVANCED_FACE ( 'NONE', ( #150, #95 ), #37, .T. ) ;
#46 = ORIENTED_EDGE ( 'NONE', *, *, #266, .F. ) ;
#47 = CC_DESIGN_PERSON_AND_ORGANIZATION_ASSIGNMENT ( #61, #176, ( #90 ) ) ;
#48 = DIRECTION ( 'NONE',  ( -1.000000000000000000, 1.224646799147350742E-16, 0.000000000000000000 ) ) ;
#49 = ORIENTED_EDGE ( 'NONE', *, *, #298, .F. ) ;
#50 = AXIS2_PLACEMENT_3D ( 'NONE', #99, #202, #234 ) ;
#51 = TOROIDAL_SURFACE ( 'NONE', #237, 3.700000000000000178, 0.2000000000000000111 ) ;
#52 = CARTESIAN_POINT ( 'NONE',  ( 0.000000000000000000, 0.000000000000000000, 0.000000000000000000 ) ) ;
#53 = FACE_OUTER_BOUND ( 'NONE', #230, .T. ) ;
#54 = CARTESIAN_POINT ( 'NONE',  ( 6.000000000000000888, 7.347880794884120722E-16, 5.000000000000000000 ) ) ;
#55 = DATE_TIME_ROLE ( 'creation_date' ) ;
#56 = DIRECTION ( 'NONE',  ( 1.000000000000000000, 0.000000000000000000, 0.000000000000000000 ) ) ;
#57 = DATE_AND_TIME ( #200, #66 ) ;
#58 = DIRECTION ( 'NONE',  ( -1.000000000000000000, 0.000000000000000000, 0.000000000000000000 ) ) ;
#59 = APPLICATION_CONTEXT ( 'configuration controlled 3d designs of mechanical parts and assemblies' ) ;
#60 = DIRECTION ( 'NONE',  ( 1.000000000000000000, 0.000000000000000000, 0.000000000000000000 ) ) ;
#61 = PERSON_AND_ORGANIZATION ( #13, #209 ) ;
#62 = EDGE_CURVE ( 'NONE', #73, #290, #110, .T. ) ;
#63 = CIRCLE ( 'NONE', #157, 3.700000000000000178 ) ;
#64 = CARTESIAN_POINT ( 'NONE',  ( -3.500000000000000000, 0.000000000000000000, 505.0000000000000000 ) ) ;
#65 = CARTESIAN_POINT ( 'NONE',  ( 0.000000000000000000, 0.000000000000000000, 0.000000000000000000 ) ) ;
#66 = LOCAL_TIME ( 11, 51, 57.00000000000000000, #211 ) ;
#67 = ORIENTED_EDGE ( 'NONE', *, *, #289, .T. ) ;
#68 =( LENGTH_UNIT ( ) NAMED_UNIT ( * ) SI_UNIT ( .MILLI., .METRE. ) );
#69 = ADVANCED_FACE ( 'NONE', ( #53 ), #174, .T. ) ;
#70 = DIRECTION ( 'NONE',  ( 1.000000000000000000, 0.000000000000000000, 0.000000000000000000 ) ) ;
#71 = ORIENTED_EDGE ( 'NONE', *, *, #87, .F. ) ;
#72 = ORIENTED_EDGE ( 'NONE', *, *, #244, .T. ) ;
#73 = VERTEX_POINT ( 'NONE', #54 ) ;
#74 = ORIENTED_EDGE ( 'NONE', *, *, #125, .T. ) ;
#75 = COORDINATED_UNIVERSAL_TIME_OFFSET ( 1, 0, .AHEAD. ) ;
#76 = DIRECTION ( 'NONE',  ( -0.000000000000000000, -0.000000000000000000, -1.000000000000000000 ) ) ;
#77 = DATE_AND_TIME ( #128, #195 ) ;
#78 = DIRECTION ( 'NONE',  ( 0.000000000000000000, -1.000000000000000000, 0.000000000000000000 ) ) ;
#79 = SHAPE_DEFINITION_REPRESENTATION ( #213, #214 ) ;
#80 = DIRECTION ( 'NONE',  ( -1.000000000000000000, 0.000000000000000000, 0.000000000000000000 ) ) ;
#81 = CARTESIAN_POINT ( 'NONE',  ( 0.000000000000000000, 0.000000000000000000, 5.199999999999982414 ) ) ;
#82 = APPROVAL_ROLE ( '' ) ;
#83 = DIRECTION ( 'NONE',  ( 0.000000000000000000, 0.000000000000000000, 1.000000000000000000 ) ) ;
#84 = PLANE ( 'NONE',  #220 ) ;
#85 = AXIS2_PLACEMENT_3D ( 'NONE', #19, #240, #287 ) ;
#86 = CC_DESIGN_APPROVAL ( #301, ( #90 ) ) ;
#87 = EDGE_CURVE ( 'NONE', #88, #168, #175, .T. ) ;
#88 = VERTEX_POINT ( 'NONE', #33 ) ;
#89 = AXIS2_PLACEMENT_3D ( 'NONE', #210, #274, #172 ) ;
#90 = SECURITY_CLASSIFICATION ( '', '', #173 ) ;
#91 = LOCAL_TIME ( 11, 51, 57.00000000000000000, #303 ) ;
#92 = VERTEX_POINT ( 'NONE', #304 ) ;
#93 = ORIENTED_EDGE ( 'NONE', *, *, #141, .F. ) ;
#94 = CARTESIAN_POINT ( 'NONE',  ( 0.000000000000000000, 0.000000000000000000, 5.199999999999982414 ) ) ;
#95 = FACE_OUTER_BOUND ( 'NONE', #292, .T. ) ;
#96 = AXIS2_PLACEMENT_3D ( 'NONE', #276, #14, #58 ) ;
#97 = APPROVAL_ROLE ( '' ) ;
#98 = AXIS2_PLACEMENT_3D ( 'NONE', #65, #265, #136 ) ;
#99 = CARTESIAN_POINT ( 'NONE',  ( 0.000000000000000000, 0.000000000000000000, 5.000000000000000000 ) ) ;
#100 = APPLICATION_PROTOCOL_DEFINITION ( 'international standard', 'config_control_design', 1994, #59 ) ;
#101 = DIRECTION ( 'NONE',  ( -0.000000000000000000, -0.000000000000000000, -1.000000000000000000 ) ) ;
#102 = COORDINATED_UNIVERSAL_TIME_OFFSET ( 1, 0, .AHEAD. ) ;
#103 = FACE_OUTER_BOUND ( 'NONE', #167, .T. ) ;
#104 = AXIS2_PLACEMENT_3D ( 'NONE', #259, #38, #206 ) ;
#105 = CARTESIAN_POINT ( 'NONE',  ( 6.000000000000000888, 7.347880794884120722E-16, 0.000000000000000000 ) ) ;
#106 = CC_DESIGN_APPROVAL ( #228, ( #249 ) ) ;
#107 = DIRECTION ( 'NONE',  ( 0.000000000000000000, 0.000000000000000000, 1.000000000000000000 ) ) ;
#108 = CARTESIAN_POINT ( 'NONE',  ( 0.000000000000000000, 0.000000000000000000, 505.0000000000000000 ) ) ;
#109 = CC_DESIGN_PERSON_AND_ORGANIZATION_ASSIGNMENT ( #30, #297, ( #180 ) ) ;
#110 = CIRCLE ( 'NONE', #89, 6.000000000000000888 ) ;
#111 = CARTESIAN_POINT ( 'NONE',  ( 0.000000000000000000, 0.000000000000000000, 505.0000000000000000 ) ) ;
#112 = LINE ( 'NONE', #218, #34 ) ;
#113 = EDGE_CURVE ( 'NONE', #92, #192, #185, .T. ) ;
#114 = CIRCLE ( 'NONE', #296, 3.500000000000000000 ) ;
#115 = VERTEX_POINT ( 'NONE', #153 ) ;
#116 = ORIENTED_EDGE ( 'NONE', *, *, #141, .T. ) ;
#117 =( NAMED_UNIT ( * ) SI_UNIT ( $, .STERADIAN. ) SOLID_ANGLE_UNIT ( ) );
#118 = EDGE_LOOP ( 'NONE', ( #251, #93, #245, #5 ) ) ;
#119 = UNCERTAINTY_MEASURE_WITH_UNIT (LENGTH_MEASURE( 1.000000000000000082E-05 ), #68, 'distance_accuracy_value', 'NONE');
#120 = DIRECTION ( 'NONE',  ( 0.000000000000000000, 0.000000000000000000, 1.000000000000000000 ) ) ;
#121 = CARTESIAN_POINT ( 'NONE',  ( 6.000000000000000888, 7.347880794884120722E-16, 5.000000000000000000 ) ) ;
#122 = ORIENTED_EDGE ( 'NONE', *, *, #39, .F. ) ;
#123 = PERSON_AND_ORGANIZATION ( #13, #209 ) ;
#124 = CARTESIAN_POINT ( 'NONE',  ( 0.000000000000000000, 0.000000000000000000, 5.000000000000000000 ) ) ;
#125 = EDGE_CURVE ( 'NONE', #170, #115, #190, .T. ) ;
#126 = MANIFOLD_SOLID_BREP ( 'Zaoblit1', #208 ) ;
#127 = CARTESIAN_POINT ( 'NONE',  ( 0.000000000000000000, 0.000000000000000000, 505.0000000000000000 ) ) ;
#128 = CALENDAR_DATE ( 2022, 20, 6 ) ;
#129 = DIRECTION ( 'NONE',  ( -0.000000000000000000, -0.000000000000000000, -1.000000000000000000 ) ) ;
#130 = CARTESIAN_POINT ( 'NONE',  ( 0.000000000000000000, 0.000000000000000000, 505.0000000000000000 ) ) ;
#131 = PERSON_AND_ORGANIZATION_ROLE ( 'design_owner' ) ;
#132 = DIRECTION ( 'NONE',  ( 1.000000000000000000, 0.000000000000000000, 0.000000000000000000 ) ) ;
#133 = FACE_OUTER_BOUND ( 'NONE', #118, .T. ) ;
#134 = APPROVAL ( #233, 'NEURÈENÝ' ) ;
#135 = CC_DESIGN_PERSON_AND_ORGANIZATION_ASSIGNMENT ( #35, #32, ( #249 ) ) ;
#136 = DIRECTION ( 'NONE',  ( 1.000000000000000000, 0.000000000000000000, -0.000000000000000000 ) ) ;
#137 = CC_DESIGN_PERSON_AND_ORGANIZATION_ASSIGNMENT ( #226, #131, ( #188 ) ) ;
#138 = ORIENTED_EDGE ( 'NONE', *, *, #125, .F. ) ;
#139 = TOROIDAL_SURFACE ( 'NONE', #223, 3.700000000000000178, 0.2000000000000000111 ) ;
#140 = ORIENTED_EDGE ( 'NONE', *, *, #207, .T. ) ;
#141 = EDGE_CURVE ( 'NONE', #290, #73, #235, .T. ) ;
#142 = AXIS2_PLACEMENT_3D ( 'NONE', #302, #18, #255 ) ;
#143 = EDGE_LOOP ( 'NONE', ( #49, #248, #224, #293 ) ) ;
#144 = MECHANICAL_CONTEXT ( 'NONE', #267, 'mechanical' ) ;
#145 = ORIENTED_EDGE ( 'NONE', *, *, #256, .T. ) ;
#146 = DIRECTION ( 'NONE',  ( 0.000000000000000000, 0.000000000000000000, 1.000000000000000000 ) ) ;
#147 = CARTESIAN_POINT ( 'NONE',  ( 0.000000000000000000, 0.000000000000000000, 5.199999999999982414 ) ) ;
#148 = ADVANCED_FACE ( 'NONE', ( #133 ), #31, .T. ) ;
#149 = PERSON_AND_ORGANIZATION ( #13, #209 ) ;
#150 = FACE_BOUND ( 'NONE', #291, .T. ) ;
#151 = AXIS2_PLACEMENT_3D ( 'NONE', #227, #78, #279 ) ;
#152 = DIRECTION ( 'NONE',  ( -1.000000000000000000, 0.000000000000000000, 0.000000000000000000 ) ) ;
#153 = CARTESIAN_POINT ( 'NONE',  ( -3.700000000000000178, 4.531193156845206201E-16, 4.999999999999991118 ) ) ;
#154 = DESIGN_CONTEXT ( 'detailed design', #59, 'design' ) ;
#155 = CARTESIAN_POINT ( 'NONE',  ( 3.700000000000000178, 0.000000000000000000, 4.999999999999991118 ) ) ;
#156 = CALENDAR_DATE ( 2022, 20, 6 ) ;
#157 = AXIS2_PLACEMENT_3D ( 'NONE', #261, #22, #184 ) ;
#158 = CARTESIAN_POINT ( 'NONE',  ( 3.500000000000000000, 4.286263797015736595E-16, 5.199999999999982414 ) ) ;
#159 = EDGE_CURVE ( 'NONE', #290, #88, #204, .T. ) ;
#160 = CARTESIAN_POINT ( 'NONE',  ( 0.000000000000000000, 0.000000000000000000, 0.000000000000000000 ) ) ;
#161 = CARTESIAN_POINT ( 'NONE',  ( 0.000000000000000000, 0.000000000000000000, 505.0000000000000000 ) ) ;
#162 = DIRECTION ( 'NONE',  ( 0.000000000000000000, 0.000000000000000000, 1.000000000000000000 ) ) ;
#163 = CARTESIAN_POINT ( 'NONE',  ( -6.000000000000000888, 0.000000000000000000, 5.000000000000000000 ) ) ;
#164 = APPROVAL_PERSON_ORGANIZATION ( #149, #228, #300 ) ;
#165 = ORIENTED_EDGE ( 'NONE', *, *, #244, .F. ) ;
#166 = ADVANCED_FACE ( 'NONE', ( #232 ), #51, .F. ) ;
#167 = EDGE_LOOP ( 'NONE', ( #165, #24, #140, #42 ) ) ;
#168 = VERTEX_POINT ( 'NONE', #105 ) ;
#169 =( NAMED_UNIT ( * ) PLANE_ANGLE_UNIT ( ) SI_UNIT ( $, .RADIAN. ) );
#170 = VERTEX_POINT ( 'NONE', #155 ) ;
#171 = PERSON_AND_ORGANIZATION ( #13, #209 ) ;
#172 = DIRECTION ( 'NONE',  ( 1.000000000000000000, 0.000000000000000000, 0.000000000000000000 ) ) ;
#173 = SECURITY_CLASSIFICATION_LEVEL ( 'unclassified' ) ;
#174 = CYLINDRICAL_SURFACE ( 'NONE', #278, 3.500000000000000000 ) ;
#175 = CIRCLE ( 'NONE', #142, 6.000000000000000888 ) ;
#176 = PERSON_AND_ORGANIZATION_ROLE ( 'classification_officer' ) ;
#177 = VECTOR ( 'NONE', #129, 1000.000000000000000 ) ;
#178 = APPROVAL_PERSON_ORGANIZATION ( #123, #301, #82 ) ;
#179 = ORIENTED_EDGE ( 'NONE', *, *, #159, .F. ) ;
#180 = PRODUCT_DEFINITION ( 'NEZNÁMÝ', '', #249, #154 ) ;
#181 = DATE_AND_TIME ( #156, #269 ) ;
#182 = DIRECTION ( 'NONE',  ( 0.000000000000000000, 0.000000000000000000, 1.000000000000000000 ) ) ;
#183 = DATE_AND_TIME ( #275, #91 ) ;
#184 = DIRECTION ( 'NONE',  ( 1.000000000000000000, 0.000000000000000000, 0.000000000000000000 ) ) ;
#185 = CIRCLE ( 'NONE', #17, 3.500000000000000000 ) ;
#186 = CARTESIAN_POINT ( 'NONE',  ( 3.500000000000000000, 4.286263797015736595E-16, 505.0000000000000000 ) ) ;
#187 = AXIS2_PLACEMENT_3D ( 'NONE', #124, #101, #80 ) ;
#188 = PRODUCT ( '92f0', '92f0', '', ( #144 ) ) ;
#189 = CARTESIAN_POINT ( 'NONE',  ( 3.500000000000000000, 4.286263797015736595E-16, 505.0000000000000000 ) ) ;
#190 = CIRCLE ( 'NONE', #50, 3.700000000000000178 ) ;
#191 = EDGE_CURVE ( 'NONE', #115, #170, #63, .T. ) ;
#192 = VERTEX_POINT ( 'NONE', #158 ) ;
#193 = ORIENTED_EDGE ( 'NONE', *, *, #256, .F. ) ;
#194 = ADVANCED_FACE ( 'NONE', ( #215 ), #84, .T. ) ;
#195 = LOCAL_TIME ( 11, 51, 57.00000000000000000, #75 ) ;
#196 = VERTEX_POINT ( 'NONE', #186 ) ;
#197 = ORIENTED_EDGE ( 'NONE', *, *, #250, .T. ) ;
#198 = DIRECTION ( 'NONE',  ( 1.000000000000000000, 0.000000000000000000, 0.000000000000000000 ) ) ;
#199 = DIRECTION ( 'NONE',  ( -1.000000000000000000, 0.000000000000000000, 0.000000000000000000 ) ) ;
#200 = CALENDAR_DATE ( 2022, 20, 6 ) ;
#201 = CC_DESIGN_PERSON_AND_ORGANIZATION_ASSIGNMENT ( #171, #257, ( #249 ) ) ;
#202 = DIRECTION ( 'NONE',  ( -0.000000000000000000, -0.000000000000000000, -1.000000000000000000 ) ) ;
#203 = APPROVAL_DATE_TIME ( #181, #134 ) ;
#204 = LINE ( 'NONE', #281, #177 ) ;
#205 = APPROVAL_STATUS ( 'not_yet_approved' ) ;
#206 = DIRECTION ( 'NONE',  ( 1.000000000000000000, 0.000000000000000000, -0.000000000000000000 ) ) ;
#207 = EDGE_CURVE ( 'NONE', #192, #92, #262, .T. ) ;
#208 = CLOSED_SHELL ( 'NONE', ( #263, #11, #8, #148, #45, #239, #69, #194, #166 ) ) ;
#209 = ORGANIZATION ( 'NEURÈENÝ', 'NEURÈENÝ', '' ) ;
#210 = CARTESIAN_POINT ( 'NONE',  ( 0.000000000000000000, 0.000000000000000000, 5.000000000000000000 ) ) ;
#211 = COORDINATED_UNIVERSAL_TIME_OFFSET ( 1, 0, .AHEAD. ) ;
#212 = FACE_OUTER_BOUND ( 'NONE', #6, .T. ) ;
#213 = PRODUCT_DEFINITION_SHAPE ( 'NONE', 'NONE',  #180 ) ;
#214 = ADVANCED_BREP_SHAPE_REPRESENTATION ( '92f0', ( #126, #21 ), #27 ) ;
#215 = FACE_OUTER_BOUND ( 'NONE', #246, .T. ) ;
#216 = PRODUCT_RELATED_PRODUCT_CATEGORY ( 'detail', '', ( #188 ) ) ;
#217 = CIRCLE ( 'NONE', #23, 6.000000000000000888 ) ;
#218 = CARTESIAN_POINT ( 'NONE',  ( -3.500000000000000000, 0.000000000000000000, 505.0000000000000000 ) ) ;
#219 = EDGE_CURVE ( 'NONE', #196, #192, #20, .T. ) ;
#220 = AXIS2_PLACEMENT_3D ( 'NONE', #108, #284, #1 ) ;
#221 = ORIENTED_EDGE ( 'NONE', *, *, #62, .T. ) ;
#222 = CC_DESIGN_DATE_AND_TIME_ASSIGNMENT ( #15, #260, ( #90 ) ) ;
#223 = AXIS2_PLACEMENT_3D ( 'NONE', #94, #120, #70 ) ;
#224 = ORIENTED_EDGE ( 'NONE', *, *, #39, .T. ) ;
#225 = VERTEX_POINT ( 'NONE', #64 ) ;
#226 = PERSON_AND_ORGANIZATION ( #13, #209 ) ;
#227 = CARTESIAN_POINT ( 'NONE',  ( 3.700000000000000178, 0.000000000000000000, 5.199999999999982414 ) ) ;
#228 = APPROVAL ( #254, 'NEURÈENÝ' ) ;
#229 = APPROVAL_PERSON_ORGANIZATION ( #305, #134, #97 ) ;
#230 = EDGE_LOOP ( 'NONE', ( #26, #46, #197, #28 ) ) ;
#231 = CALENDAR_DATE ( 2022, 20, 6 ) ;
#232 = FACE_OUTER_BOUND ( 'NONE', #143, .T. ) ;
#233 = APPROVAL_STATUS ( 'not_yet_approved' ) ;
#234 = DIRECTION ( 'NONE',  ( 1.000000000000000000, 0.000000000000000000, 0.000000000000000000 ) ) ;
#235 = CIRCLE ( 'NONE', #43, 6.000000000000000888 ) ;
#236 = APPROVAL_DATE_TIME ( #183, #301 ) ;
#237 = AXIS2_PLACEMENT_3D ( 'NONE', #81, #182, #60 ) ;
#238 = CYLINDRICAL_SURFACE ( 'NONE', #96, 6.000000000000000888 ) ;
#239 = ADVANCED_FACE ( 'NONE', ( #264 ), #40, .F. ) ;
#240 = DIRECTION ( 'NONE',  ( 0.000000000000000000, 0.000000000000000000, 1.000000000000000000 ) ) ;
#241 = CIRCLE ( 'NONE', #151, 0.1999999999999996503 ) ;
#242 = DIRECTION ( 'NONE',  ( 1.000000000000000000, 0.000000000000000000, 0.000000000000000000 ) ) ;
#243 = CIRCLE ( 'NONE', #306, 3.500000000000000000 ) ;
#244 = EDGE_CURVE ( 'NONE', #196, #225, #114, .T. ) ;
#245 = ORIENTED_EDGE ( 'NONE', *, *, #159, .T. ) ;
#246 = EDGE_LOOP ( 'NONE', ( #271, #72 ) ) ;
#247 = EDGE_LOOP ( 'NONE', ( #29, #67, #145, #179 ) ) ;
#248 = ORIENTED_EDGE ( 'NONE', *, *, #207, .F. ) ;
#249 = PRODUCT_DEFINITION_FORMATION_WITH_SPECIFIED_SOURCE ( 'LIBOVOLNÝ', '', #188, .NOT_KNOWN. ) ;
#250 = EDGE_CURVE ( 'NONE', #225, #92, #112, .T. ) ;
#251 = ORIENTED_EDGE ( 'NONE', *, *, #289, .F. ) ;
#252 = DIRECTION ( 'NONE',  ( 1.000000000000000000, 0.000000000000000000, 0.000000000000000000 ) ) ;
#253 = CARTESIAN_POINT ( 'NONE',  ( 0.000000000000000000, 0.000000000000000000, 5.000000000000000000 ) ) ;
#254 = APPROVAL_STATUS ( 'not_yet_approved' ) ;
#255 = DIRECTION ( 'NONE',  ( 1.000000000000000000, 0.000000000000000000, 0.000000000000000000 ) ) ;
#256 = EDGE_CURVE ( 'NONE', #168, #88, #217, .T. ) ;
#257 = PERSON_AND_ORGANIZATION_ROLE ( 'creator' ) ;
#258 = AXIS2_PLACEMENT_3D ( 'NONE', #9, #270, #48 ) ;
#259 = CARTESIAN_POINT ( 'NONE',  ( 0.000000000000000000, 0.000000000000000000, 5.000000000000000000 ) ) ;
#260 = DATE_TIME_ROLE ( 'classification_date' ) ;
#261 = CARTESIAN_POINT ( 'NONE',  ( 0.000000000000000000, 0.000000000000000000, 5.000000000000000000 ) ) ;
#262 = CIRCLE ( 'NONE', #85, 3.500000000000000000 ) ;
#263 = ADVANCED_FACE ( 'NONE', ( #212 ), #139, .F. ) ;
#264 = FACE_OUTER_BOUND ( 'NONE', #268, .T. ) ;
#265 = DIRECTION ( 'NONE',  ( 0.000000000000000000, 0.000000000000000000, 1.000000000000000000 ) ) ;
#266 = EDGE_CURVE ( 'NONE', #225, #196, #243, .T. ) ;
#267 = APPLICATION_CONTEXT ( 'configuration controlled 3d designs of mechanical parts and assemblies' ) ;
#268 = EDGE_LOOP ( 'NONE', ( #71, #193 ) ) ;
#269 = LOCAL_TIME ( 11, 51, 57.00000000000000000, #102 ) ;
#270 = DIRECTION ( 'NONE',  ( 1.224646799147353207E-16, 1.000000000000000000, -0.000000000000000000 ) ) ;
#271 = ORIENTED_EDGE ( 'NONE', *, *, #266, .T. ) ;
#272 = APPLICATION_PROTOCOL_DEFINITION ( 'international standard', 'config_control_design', 1994, #267 ) ;
#273 = VECTOR ( 'NONE', #288, 1000.000000000000000 ) ;
#274 = DIRECTION ( 'NONE',  ( 0.000000000000000000, 0.000000000000000000, 1.000000000000000000 ) ) ;
#275 = CALENDAR_DATE ( 2022, 20, 6 ) ;
#276 = CARTESIAN_POINT ( 'NONE',  ( 0.000000000000000000, 0.000000000000000000, 5.000000000000000000 ) ) ;
#277 = COORDINATED_UNIVERSAL_TIME_OFFSET ( 1, 0, .AHEAD. ) ;
#278 = AXIS2_PLACEMENT_3D ( 'NONE', #130, #76, #199 ) ;
#279 = DIRECTION ( 'NONE',  ( 0.000000000000000000, 0.000000000000000000, -1.000000000000000000 ) ) ;
#280 = CIRCLE ( 'NONE', #258, 0.2000000000000000944 ) ;
#281 = CARTESIAN_POINT ( 'NONE',  ( -6.000000000000000888, 0.000000000000000000, 5.000000000000000000 ) ) ;
#282 = DIRECTION ( 'NONE',  ( -0.000000000000000000, -0.000000000000000000, -1.000000000000000000 ) ) ;
#283 = APPROVAL_DATE_TIME ( #77, #228 ) ;
#284 = DIRECTION ( 'NONE',  ( 0.000000000000000000, 0.000000000000000000, 1.000000000000000000 ) ) ;
#285 = AXIS2_PLACEMENT_3D ( 'NONE', #127, #282, #152 ) ;
#286 = CC_DESIGN_DATE_AND_TIME_ASSIGNMENT ( #57, #55, ( #180 ) ) ;
#287 = DIRECTION ( 'NONE',  ( 1.000000000000000000, 0.000000000000000000, 0.000000000000000000 ) ) ;
#288 = DIRECTION ( 'NONE',  ( -0.000000000000000000, -0.000000000000000000, -1.000000000000000000 ) ) ;
#289 = EDGE_CURVE ( 'NONE', #73, #168, #7, .T. ) ;
#290 = VERTEX_POINT ( 'NONE', #163 ) ;
#291 = EDGE_LOOP ( 'NONE', ( #74, #307 ) ) ;
#292 = EDGE_LOOP ( 'NONE', ( #116, #221 ) ) ;
#293 = ORIENTED_EDGE ( 'NONE', *, *, #191, .F. ) ;
#294 = DIRECTION ( 'NONE',  ( -0.000000000000000000, -0.000000000000000000, -1.000000000000000000 ) ) ;
#295 = DIRECTION ( 'NONE',  ( 1.000000000000000000, 0.000000000000000000, 0.000000000000000000 ) ) ;
#296 = AXIS2_PLACEMENT_3D ( 'NONE', #111, #83, #242 ) ;
#297 = PERSON_AND_ORGANIZATION_ROLE ( 'creator' ) ;
#298 = EDGE_CURVE ( 'NONE', #92, #115, #280, .T. ) ;
#299 = FACE_OUTER_BOUND ( 'NONE', #247, .T. ) ;
#300 = APPROVAL_ROLE ( '' ) ;
#301 = APPROVAL ( #205, 'NEURÈENÝ' ) ;
#302 = CARTESIAN_POINT ( 'NONE',  ( 0.000000000000000000, 0.000000000000000000, 0.000000000000000000 ) ) ;
#303 = COORDINATED_UNIVERSAL_TIME_OFFSET ( 1, 0, .AHEAD. ) ;
#304 = CARTESIAN_POINT ( 'NONE',  ( -3.500000000000000000, 0.000000000000000000, 5.199999999999982414 ) ) ;
#305 = PERSON_AND_ORGANIZATION ( #13, #209 ) ;
#306 = AXIS2_PLACEMENT_3D ( 'NONE', #161, #162, #198 ) ;
#307 = ORIENTED_EDGE ( 'NONE', *, *, #191, .T. ) ;
ENDSEC;
END-ISO-10303-21;
