ISO-10303-21;
HEADER;
FILE_DESCRIPTION (( 'STEP AP203' ),
    '1' );
FILE_NAME ('2676.STEP',
    '2022-06-20T09:18:01',
    ( '' ),
    ( '' ),
    'SwSTEP 2.0',
    'SolidWorks 2019',
    '' );
FILE_SCHEMA (( 'CONFIG_CONTROL_DESIGN' ));
ENDSEC;

DATA;
#1 = ORIENTED_EDGE ( 'NONE', *, *, #196, .F. ) ;
#2 = CARTESIAN_POINT ( 'NONE',  ( 0.000000000000000000, 0.000000000000000000, 10.00000000000000000 ) ) ;
#3 = VERTEX_POINT ( 'NONE', #147 ) ;
#4 = DIRECTION ( 'NONE',  ( 1.000000000000000000, 0.000000000000000000, 0.000000000000000000 ) ) ;
#5 = ORIENTED_EDGE ( 'NONE', *, *, #305, .F. ) ;
#6 = FACE_OUTER_BOUND ( 'NONE', #240, .T. ) ;
#7 = DIRECTION ( 'NONE',  ( 0.000000000000000000, 0.000000000000000000, -1.000000000000000000 ) ) ;
#8 = DIRECTION ( 'NONE',  ( -0.000000000000000000, -0.000000000000000000, -1.000000000000000000 ) ) ;
#9 = EDGE_CURVE ( 'NONE', #200, #34, #162, .T. ) ;
#10 = CALENDAR_DATE ( 2022, 20, 6 ) ;
#11 = CIRCLE ( 'NONE', #159, 16.00000000000000000 ) ;
#12 = PERSON_AND_ORGANIZATION ( #158, #20 ) ;
#13 = CARTESIAN_POINT ( 'NONE',  ( 0.000000000000000000, 0.000000000000000000, 10.00000000000000000 ) ) ;
#14 = COORDINATED_UNIVERSAL_TIME_OFFSET ( 1, 0, .AHEAD. ) ;
#15 = EDGE_CURVE ( 'NONE', #34, #200, #11, .T. ) ;
#16 = PERSON_AND_ORGANIZATION ( #158, #20 ) ;
#17 = DIRECTION ( 'NONE',  ( -0.000000000000000000, -0.000000000000000000, -1.000000000000000000 ) ) ;
#18 = CIRCLE ( 'NONE', #119, 12.50000000000000000 ) ;
#19 = ADVANCED_FACE ( 'NONE', ( #296 ), #176, .T. ) ;
#20 = ORGANIZATION ( 'NEURÈENÝ', 'NEURÈENÝ', '' ) ;
#21 = LOCAL_TIME ( 11, 18, 1.000000000000000000, #112 ) ;
#22 = ADVANCED_FACE ( 'NONE', ( #6 ), #298, .T. ) ;
#23 = LINE ( 'NONE', #57, #229 ) ;
#24 = EDGE_LOOP ( 'NONE', ( #225, #168, #197, #290 ) ) ;
#25 = AXIS2_PLACEMENT_3D ( 'NONE', #274, #211, #42 ) ;
#26 = CARTESIAN_POINT ( 'NONE',  ( -16.00000000000000000, 0.000000000000000000, 0.000000000000000000 ) ) ;
#27 = ORIENTED_EDGE ( 'NONE', *, *, #15, .F. ) ;
#28 = APPROVAL ( #95, 'NEURÈENÝ' ) ;
#29 = CARTESIAN_POINT ( 'NONE',  ( 0.000000000000000000, 0.000000000000000000, 325.0000000000000000 ) ) ;
#30 = CARTESIAN_POINT ( 'NONE',  ( 12.70000000000000107, 0.000000000000000000, 9.999999999999992895 ) ) ;
#31 = DIRECTION ( 'NONE',  ( 1.000000000000000000, 0.000000000000000000, 0.000000000000000000 ) ) ;
#32 = FACE_OUTER_BOUND ( 'NONE', #53, .T. ) ;
#33 = DIRECTION ( 'NONE',  ( 0.000000000000000000, 0.000000000000000000, 1.000000000000000000 ) ) ;
#34 = VERTEX_POINT ( 'NONE', #26 ) ;
#35 = LINE ( 'NONE', #152, #160 ) ;
#36 = DIRECTION ( 'NONE',  ( 1.000000000000000000, 0.000000000000000000, -0.000000000000000000 ) ) ;
#37 = PLANE ( 'NONE',  #189 ) ;
#38 = PRODUCT_DEFINITION ( 'NEZNÁMÝ', '', #303, #307 ) ;
#39 = APPROVAL_DATE_TIME ( #257, #88 ) ;
#40 = SHAPE_DEFINITION_REPRESENTATION ( #45, #300 ) ;
#41 = CALENDAR_DATE ( 2022, 20, 6 ) ;
#42 = DIRECTION ( 'NONE',  ( 1.000000000000000000, 0.000000000000000000, 0.000000000000000000 ) ) ;
#43 = ADVANCED_FACE ( 'NONE', ( #221, #74 ), #37, .T. ) ;
#44 = CIRCLE ( 'NONE', #125, 12.50000000000000000 ) ;
#45 = PRODUCT_DEFINITION_SHAPE ( 'NONE', 'NONE',  #38 ) ;
#46 = VERTEX_POINT ( 'NONE', #30 ) ;
#47 = EDGE_LOOP ( 'NONE', ( #68, #244 ) ) ;
#48 = PERSON_AND_ORGANIZATION ( #158, #20 ) ;
#49 = CIRCLE ( 'NONE', #181, 12.70000000000000107 ) ;
#50 = DIRECTION ( 'NONE',  ( 1.000000000000000000, 0.000000000000000000, 0.000000000000000000 ) ) ;
#51 = EDGE_CURVE ( 'NONE', #46, #92, #235, .T. ) ;
#52 = CIRCLE ( 'NONE', #253, 0.2000000000000005107 ) ;
#53 = EDGE_LOOP ( 'NONE', ( #76, #190, #96, #164 ) ) ;
#54 = DIRECTION ( 'NONE',  ( 0.000000000000000000, 0.000000000000000000, 1.000000000000000000 ) ) ;
#55 = DIRECTION ( 'NONE',  ( 1.000000000000000000, 0.000000000000000000, -0.000000000000000000 ) ) ;
#56 = ORIENTED_EDGE ( 'NONE', *, *, #208, .T. ) ;
#57 = CARTESIAN_POINT ( 'NONE',  ( 16.00000000000000000, 1.959434878635765131E-15, 10.00000000000000000 ) ) ;
#58 = CARTESIAN_POINT ( 'NONE',  ( 0.000000000000000000, 0.000000000000000000, 325.0000000000000000 ) ) ;
#59 = ORIENTED_EDGE ( 'NONE', *, *, #114, .T. ) ;
#60 = DIRECTION ( 'NONE',  ( 0.000000000000000000, 0.000000000000000000, 1.000000000000000000 ) ) ;
#61 = DIRECTION ( 'NONE',  ( 0.000000000000000000, 0.000000000000000000, 1.000000000000000000 ) ) ;
#62 = ADVANCED_FACE ( 'NONE', ( #202 ), #167, .F. ) ;
#63 = DIRECTION ( 'NONE',  ( -1.000000000000000000, 1.224646799147353207E-16, 0.000000000000000000 ) ) ;
#64 = PERSON_AND_ORGANIZATION ( #158, #20 ) ;
#65 = DIRECTION ( 'NONE',  ( 1.000000000000000000, 0.000000000000000000, -0.000000000000000000 ) ) ;
#66 = EDGE_CURVE ( 'NONE', #92, #46, #49, .T. ) ;
#67 = AXIS2_PLACEMENT_3D ( 'NONE', #150, #227, #81 ) ;
#68 = ORIENTED_EDGE ( 'NONE', *, *, #51, .T. ) ;
#69 = APPLICATION_PROTOCOL_DEFINITION ( 'international standard', 'config_control_design', 1994, #252 ) ;
#70 = EDGE_CURVE ( 'NONE', #213, #261, #44, .T. ) ;
#71 = CARTESIAN_POINT ( 'NONE',  ( 0.000000000000000000, 0.000000000000000000, 325.0000000000000000 ) ) ;
#72 = ORIENTED_EDGE ( 'NONE', *, *, #9, .F. ) ;
#73 =( NAMED_UNIT ( * ) SI_UNIT ( $, .STERADIAN. ) SOLID_ANGLE_UNIT ( ) );
#74 = FACE_OUTER_BOUND ( 'NONE', #100, .T. ) ;
#75 = VECTOR ( 'NONE', #128, 1000.000000000000000 ) ;
#76 = ORIENTED_EDGE ( 'NONE', *, *, #70, .F. ) ;
#77 = DIRECTION ( 'NONE',  ( -0.000000000000000000, -0.000000000000000000, -1.000000000000000000 ) ) ;
#78 = DIRECTION ( 'NONE',  ( -0.000000000000000000, -0.000000000000000000, -1.000000000000000000 ) ) ;
#79 = CARTESIAN_POINT ( 'NONE',  ( 0.000000000000000000, 0.000000000000000000, 0.000000000000000000 ) ) ;
#80 = DIRECTION ( 'NONE',  ( -0.000000000000000000, -0.000000000000000000, -1.000000000000000000 ) ) ;
#81 = DIRECTION ( 'NONE',  ( -1.000000000000000000, 0.000000000000000000, 0.000000000000000000 ) ) ;
#82 = DIRECTION ( 'NONE',  ( 1.000000000000000000, 0.000000000000000000, 0.000000000000000000 ) ) ;
#83 = CC_DESIGN_DATE_AND_TIME_ASSIGNMENT ( #275, #299, ( #199 ) ) ;
#84 = APPROVAL_ROLE ( '' ) ;
#85 = AXIS2_PLACEMENT_3D ( 'NONE', #58, #78, #172 ) ;
#86 = CARTESIAN_POINT ( 'NONE',  ( -12.70000000000000107, 1.555301434917138630E-15, 10.19999999999998685 ) ) ;
#87 = CALENDAR_DATE ( 2022, 20, 6 ) ;
#88 = APPROVAL ( #113, 'NEURÈENÝ' ) ;
#89 = CIRCLE ( 'NONE', #25, 12.50000000000000000 ) ;
#90 = AXIS2_PLACEMENT_3D ( 'NONE', #248, #224, #4 ) ;
#91 = APPROVAL_PERSON_ORGANIZATION ( #16, #226, #84 ) ;
#92 = VERTEX_POINT ( 'NONE', #193 ) ;
#93 = DIRECTION ( 'NONE',  ( 0.000000000000000000, 0.000000000000000000, 1.000000000000000000 ) ) ;
#94 = ORIENTED_EDGE ( 'NONE', *, *, #9, .T. ) ;
#95 = APPROVAL_STATUS ( 'not_yet_approved' ) ;
#96 = ORIENTED_EDGE ( 'NONE', *, *, #51, .F. ) ;
#97 =( NAMED_UNIT ( * ) PLANE_ANGLE_UNIT ( ) SI_UNIT ( $, .RADIAN. ) );
#98 = FACE_OUTER_BOUND ( 'NONE', #288, .T. ) ;
#99 = APPROVAL_PERSON_ORGANIZATION ( #217, #28, #195 ) ;
#100 = EDGE_LOOP ( 'NONE', ( #191, #59 ) ) ;
#101 = CC_DESIGN_SECURITY_CLASSIFICATION ( #199, ( #303 ) ) ;
#102 = CARTESIAN_POINT ( 'NONE',  ( -12.50000000000000000, 0.000000000000000000, 325.0000000000000000 ) ) ;
#103 = DIRECTION ( 'NONE',  ( 0.000000000000000000, 0.000000000000000000, 1.000000000000000000 ) ) ;
#104 = CC_DESIGN_PERSON_AND_ORGANIZATION_ASSIGNMENT ( #12, #276, ( #199 ) ) ;
#105 = DIRECTION ( 'NONE',  ( -1.000000000000000000, 0.000000000000000000, 0.000000000000000000 ) ) ;
#106 = EDGE_CURVE ( 'NONE', #141, #170, #283, .T. ) ;
#107 = APPROVAL_STATUS ( 'not_yet_approved' ) ;
#108 = VECTOR ( 'NONE', #80, 1000.000000000000000 ) ;
#109 = PLANE ( 'NONE',  #230 ) ;
#110 = DATE_AND_TIME ( #250, #183 ) ;
#111 = CARTESIAN_POINT ( 'NONE',  ( 0.000000000000000000, 0.000000000000000000, 10.19999999999998685 ) ) ;
#112 = COORDINATED_UNIVERSAL_TIME_OFFSET ( 1, 0, .AHEAD. ) ;
#113 = APPROVAL_STATUS ( 'not_yet_approved' ) ;
#114 = EDGE_CURVE ( 'NONE', #3, #262, #271, .T. ) ;
#115 = ADVANCED_FACE ( 'NONE', ( #98 ), #293, .T. ) ;
#116 =( GEOMETRIC_REPRESENTATION_CONTEXT ( 3 ) GLOBAL_UNCERTAINTY_ASSIGNED_CONTEXT ( ( #163 ) ) GLOBAL_UNIT_ASSIGNED_CONTEXT ( ( #265, #97, #73 ) ) REPRESENTATION_CONTEXT ( 'NONE', 'WORKASPACE' ) );
#117 = CLOSED_SHELL ( 'NONE', ( #251, #22, #135, #19, #43, #62, #115, #182, #188 ) ) ;
#118 = CARTESIAN_POINT ( 'NONE',  ( -16.00000000000000000, 0.000000000000000000, 10.00000000000000000 ) ) ;
#119 = AXIS2_PLACEMENT_3D ( 'NONE', #29, #54, #223 ) ;
#120 = EDGE_LOOP ( 'NONE', ( #165, #173, #268, #144 ) ) ;
#121 = APPLICATION_PROTOCOL_DEFINITION ( 'international standard', 'config_control_design', 1994, #234 ) ;
#122 = ORIENTED_EDGE ( 'NONE', *, *, #305, .T. ) ;
#123 = DIRECTION ( 'NONE',  ( 1.000000000000000000, 0.000000000000000000, 0.000000000000000000 ) ) ;
#124 = CARTESIAN_POINT ( 'NONE',  ( 0.000000000000000000, 0.000000000000000000, 0.000000000000000000 ) ) ;
#125 = AXIS2_PLACEMENT_3D ( 'NONE', #129, #93, #175 ) ;
#126 = LOCAL_TIME ( 11, 18, 1.000000000000000000, #14 ) ;
#127 = EDGE_LOOP ( 'NONE', ( #284, #140 ) ) ;
#128 = DIRECTION ( 'NONE',  ( -0.000000000000000000, -0.000000000000000000, -1.000000000000000000 ) ) ;
#129 = CARTESIAN_POINT ( 'NONE',  ( 0.000000000000000000, 0.000000000000000000, 10.19999999999998685 ) ) ;
#130 = SECURITY_CLASSIFICATION_LEVEL ( 'unclassified' ) ;
#131 = CIRCLE ( 'NONE', #212, 0.2000000000000005107 ) ;
#132 = LOCAL_TIME ( 11, 18, 1.000000000000000000, #233 ) ;
#133 = CALENDAR_DATE ( 2022, 20, 6 ) ;
#134 = FACE_OUTER_BOUND ( 'NONE', #287, .T. ) ;
#135 = ADVANCED_FACE ( 'NONE', ( #134 ), #184, .T. ) ;
#136 = APPROVAL_PERSON_ORGANIZATION ( #64, #88, #228 ) ;
#137 = CC_DESIGN_PERSON_AND_ORGANIZATION_ASSIGNMENT ( #254, #204, ( #303 ) ) ;
#138 = AXIS2_PLACEMENT_3D ( 'NONE', #267, #198, #55 ) ;
#139 = AXIS2_PLACEMENT_3D ( 'NONE', #142, #220, #289 ) ;
#140 = ORIENTED_EDGE ( 'NONE', *, *, #236, .T. ) ;
#141 = VERTEX_POINT ( 'NONE', #279 ) ;
#142 = CARTESIAN_POINT ( 'NONE',  ( 0.000000000000000000, 0.000000000000000000, 10.19999999999998685 ) ) ;
#143 = CARTESIAN_POINT ( 'NONE',  ( 0.000000000000000000, 0.000000000000000000, 10.00000000000000000 ) ) ;
#144 = ORIENTED_EDGE ( 'NONE', *, *, #66, .F. ) ;
#145 = DIRECTION ( 'NONE',  ( -0.000000000000000000, -0.000000000000000000, -1.000000000000000000 ) ) ;
#146 = DIRECTION ( 'NONE',  ( 1.000000000000000000, 0.000000000000000000, 0.000000000000000000 ) ) ;
#147 = CARTESIAN_POINT ( 'NONE',  ( 16.00000000000000000, 1.959434878635765131E-15, 10.00000000000000000 ) ) ;
#148 = CC_DESIGN_PERSON_AND_ORGANIZATION_ASSIGNMENT ( #258, #278, ( #303 ) ) ;
#149 = DIRECTION ( 'NONE',  ( 0.000000000000000000, 0.000000000000000000, 1.000000000000000000 ) ) ;
#150 = CARTESIAN_POINT ( 'NONE',  ( 0.000000000000000000, 0.000000000000000000, 325.0000000000000000 ) ) ;
#151 = ORIENTED_EDGE ( 'NONE', *, *, #70, .T. ) ;
#152 = CARTESIAN_POINT ( 'NONE',  ( -16.00000000000000000, 0.000000000000000000, 10.00000000000000000 ) ) ;
#153 = DATE_AND_TIME ( #10, #132 ) ;
#154 = CARTESIAN_POINT ( 'NONE',  ( 12.50000000000000000, 1.530808498934191521E-15, 325.0000000000000000 ) ) ;
#155 = DIRECTION ( 'NONE',  ( 1.224646799147353207E-16, 1.000000000000000000, -0.000000000000000000 ) ) ;
#156 = DATE_TIME_ROLE ( 'creation_date' ) ;
#157 = CC_DESIGN_PERSON_AND_ORGANIZATION_ASSIGNMENT ( #48, #241, ( #177 ) ) ;
#158 = PERSON ( 'NEURÈENÝ', 'NEURÈENÝ', 'NEURÈENÝ', ('NEURÈENÝ'), ('NEURÈENÝ'), ('NEURÈENÝ') ) ;
#159 = AXIS2_PLACEMENT_3D ( 'NONE', #124, #249, #82 ) ;
#160 = VECTOR ( 'NONE', #145, 1000.000000000000000 ) ;
#161 = EDGE_CURVE ( 'NONE', #261, #213, #89, .T. ) ;
#162 = CIRCLE ( 'NONE', #239, 16.00000000000000000 ) ;
#163 = UNCERTAINTY_MEASURE_WITH_UNIT (LENGTH_MEASURE( 1.000000000000000082E-05 ), #265, 'distance_accuracy_value', 'NONE');
#164 = ORIENTED_EDGE ( 'NONE', *, *, #216, .F. ) ;
#165 = ORIENTED_EDGE ( 'NONE', *, *, #186, .F. ) ;
#166 = DIRECTION ( 'NONE',  ( 1.000000000000000000, 0.000000000000000000, 0.000000000000000000 ) ) ;
#167 = PLANE ( 'NONE',  #138 ) ;
#168 = ORIENTED_EDGE ( 'NONE', *, *, #294, .F. ) ;
#169 = CARTESIAN_POINT ( 'NONE',  ( 12.70000000000000107, 0.000000000000000000, 10.19999999999998685 ) ) ;
#170 = VERTEX_POINT ( 'NONE', #154 ) ;
#171 = COORDINATED_UNIVERSAL_TIME_OFFSET ( 1, 0, .AHEAD. ) ;
#172 = DIRECTION ( 'NONE',  ( -1.000000000000000000, 0.000000000000000000, 0.000000000000000000 ) ) ;
#173 = ORIENTED_EDGE ( 'NONE', *, *, #161, .F. ) ;
#174 = MECHANICAL_CONTEXT ( 'NONE', #252, 'mechanical' ) ;
#175 = DIRECTION ( 'NONE',  ( 1.000000000000000000, 0.000000000000000000, 0.000000000000000000 ) ) ;
#176 = CYLINDRICAL_SURFACE ( 'NONE', #187, 16.00000000000000000 ) ;
#177 = PRODUCT ( '2676', '2676', '', ( #174 ) ) ;
#178 = DIRECTION ( 'NONE',  ( 1.000000000000000000, 0.000000000000000000, 0.000000000000000000 ) ) ;
#179 = DATE_AND_TIME ( #87, #126 ) ;
#180 = DIRECTION ( 'NONE',  ( 0.000000000000000000, 0.000000000000000000, 1.000000000000000000 ) ) ;
#181 = AXIS2_PLACEMENT_3D ( 'NONE', #263, #8, #123 ) ;
#182 = ADVANCED_FACE ( 'NONE', ( #304 ), #109, .T. ) ;
#183 = LOCAL_TIME ( 11, 18, 1.000000000000000000, #171 ) ;
#184 = CYLINDRICAL_SURFACE ( 'NONE', #277, 16.00000000000000000 ) ;
#185 = APPROVAL_DATE_TIME ( #110, #28 ) ;
#186 = EDGE_CURVE ( 'NONE', #213, #92, #52, .T. ) ;
#187 = AXIS2_PLACEMENT_3D ( 'NONE', #203, #270, #105 ) ;
#188 = ADVANCED_FACE ( 'NONE', ( #232 ), #259, .F. ) ;
#189 = AXIS2_PLACEMENT_3D ( 'NONE', #273, #103, #36 ) ;
#190 = ORIENTED_EDGE ( 'NONE', *, *, #186, .T. ) ;
#191 = ORIENTED_EDGE ( 'NONE', *, *, #294, .T. ) ;
#192 = DIRECTION ( 'NONE',  ( 1.000000000000000000, 0.000000000000000000, 0.000000000000000000 ) ) ;
#193 = CARTESIAN_POINT ( 'NONE',  ( -12.70000000000000107, 1.555301434917138630E-15, 9.999999999999992895 ) ) ;
#194 = EDGE_LOOP ( 'NONE', ( #27, #72 ) ) ;
#195 = APPROVAL_ROLE ( '' ) ;
#196 = EDGE_CURVE ( 'NONE', #262, #34, #35, .T. ) ;
#197 = ORIENTED_EDGE ( 'NONE', *, *, #196, .T. ) ;
#198 = DIRECTION ( 'NONE',  ( 0.000000000000000000, 0.000000000000000000, 1.000000000000000000 ) ) ;
#199 = SECURITY_CLASSIFICATION ( '', '', #130 ) ;
#200 = VERTEX_POINT ( 'NONE', #297 ) ;
#201 = CARTESIAN_POINT ( 'NONE',  ( 12.50000000000000000, 1.530808498934191521E-15, 10.19999999999998685 ) ) ;
#202 = FACE_OUTER_BOUND ( 'NONE', #194, .T. ) ;
#203 = CARTESIAN_POINT ( 'NONE',  ( 0.000000000000000000, 0.000000000000000000, 10.00000000000000000 ) ) ;
#204 = PERSON_AND_ORGANIZATION_ROLE ( 'creator' ) ;
#205 = CARTESIAN_POINT ( 'NONE',  ( 0.000000000000000000, 0.000000000000000000, 325.0000000000000000 ) ) ;
#206 = TOROIDAL_SURFACE ( 'NONE', #139, 12.70000000000000107, 0.2000000000000000111 ) ;
#207 = APPROVAL_DATE_TIME ( #153, #226 ) ;
#208 = EDGE_CURVE ( 'NONE', #3, #200, #23, .T. ) ;
#209 = PERSON_AND_ORGANIZATION ( #158, #20 ) ;
#210 = COORDINATED_UNIVERSAL_TIME_OFFSET ( 1, 0, .AHEAD. ) ;
#211 = DIRECTION ( 'NONE',  ( 0.000000000000000000, 0.000000000000000000, 1.000000000000000000 ) ) ;
#212 = AXIS2_PLACEMENT_3D ( 'NONE', #169, #245, #7 ) ;
#213 = VERTEX_POINT ( 'NONE', #269 ) ;
#214 = LINE ( 'NONE', #272, #75 ) ;
#215 = ORIENTED_EDGE ( 'NONE', *, *, #114, .F. ) ;
#216 = EDGE_CURVE ( 'NONE', #261, #46, #131, .T. ) ;
#217 = PERSON_AND_ORGANIZATION ( #158, #20 ) ;
#218 = ORIENTED_EDGE ( 'NONE', *, *, #236, .F. ) ;
#219 = MANIFOLD_SOLID_BREP ( 'Zaoblit1', #117 ) ;
#220 = DIRECTION ( 'NONE',  ( 0.000000000000000000, 0.000000000000000000, 1.000000000000000000 ) ) ;
#221 = FACE_BOUND ( 'NONE', #47, .T. ) ;
#222 = ORIENTED_EDGE ( 'NONE', *, *, #282, .T. ) ;
#223 = DIRECTION ( 'NONE',  ( 1.000000000000000000, 0.000000000000000000, 0.000000000000000000 ) ) ;
#224 = DIRECTION ( 'NONE',  ( -0.000000000000000000, -0.000000000000000000, -1.000000000000000000 ) ) ;
#225 = ORIENTED_EDGE ( 'NONE', *, *, #208, .F. ) ;
#226 = APPROVAL ( #107, 'NEURÈENÝ' ) ;
#227 = DIRECTION ( 'NONE',  ( -0.000000000000000000, -0.000000000000000000, -1.000000000000000000 ) ) ;
#228 = APPROVAL_ROLE ( '' ) ;
#229 = VECTOR ( 'NONE', #77, 1000.000000000000000 ) ;
#230 = AXIS2_PLACEMENT_3D ( 'NONE', #205, #180, #65 ) ;
#231 = PRODUCT_RELATED_PRODUCT_CATEGORY ( 'detail', '', ( #177 ) ) ;
#232 = FACE_OUTER_BOUND ( 'NONE', #120, .T. ) ;
#233 = COORDINATED_UNIVERSAL_TIME_OFFSET ( 1, 0, .AHEAD. ) ;
#234 = APPLICATION_CONTEXT ( 'configuration controlled 3d designs of mechanical parts and assemblies' ) ;
#235 = CIRCLE ( 'NONE', #90, 12.70000000000000107 ) ;
#236 = EDGE_CURVE ( 'NONE', #170, #141, #18, .T. ) ;
#237 = LOCAL_TIME ( 11, 18, 1.000000000000000000, #210 ) ;
#238 = ORIENTED_EDGE ( 'NONE', *, *, #106, .F. ) ;
#239 = AXIS2_PLACEMENT_3D ( 'NONE', #79, #264, #31 ) ;
#240 = EDGE_LOOP ( 'NONE', ( #218, #222, #295, #5 ) ) ;
#241 = PERSON_AND_ORGANIZATION_ROLE ( 'design_owner' ) ;
#242 = AXIS2_PLACEMENT_3D ( 'NONE', #2, #149, #178 ) ;
#243 = DIRECTION ( 'NONE',  ( 0.000000000000000000, 0.000000000000000000, 1.000000000000000000 ) ) ;
#244 = ORIENTED_EDGE ( 'NONE', *, *, #66, .T. ) ;
#245 = DIRECTION ( 'NONE',  ( 0.000000000000000000, -1.000000000000000000, 0.000000000000000000 ) ) ;
#246 = ORIENTED_EDGE ( 'NONE', *, *, #282, .F. ) ;
#247 = LINE ( 'NONE', #102, #108 ) ;
#248 = CARTESIAN_POINT ( 'NONE',  ( 0.000000000000000000, 0.000000000000000000, 10.00000000000000000 ) ) ;
#249 = DIRECTION ( 'NONE',  ( 0.000000000000000000, 0.000000000000000000, 1.000000000000000000 ) ) ;
#250 = CALENDAR_DATE ( 2022, 20, 6 ) ;
#251 = ADVANCED_FACE ( 'NONE', ( #32 ), #206, .F. ) ;
#252 = APPLICATION_CONTEXT ( 'configuration controlled 3d designs of mechanical parts and assemblies' ) ;
#253 = AXIS2_PLACEMENT_3D ( 'NONE', #86, #155, #63 ) ;
#254 = PERSON_AND_ORGANIZATION ( #158, #20 ) ;
#255 = CC_DESIGN_DATE_AND_TIME_ASSIGNMENT ( #179, #156, ( #38 ) ) ;
#256 = CIRCLE ( 'NONE', #242, 16.00000000000000000 ) ;
#257 = DATE_AND_TIME ( #133, #21 ) ;
#258 = PERSON_AND_ORGANIZATION ( #158, #20 ) ;
#259 = TOROIDAL_SURFACE ( 'NONE', #285, 12.70000000000000107, 0.2000000000000000111 ) ;
#260 = CC_DESIGN_APPROVAL ( #28, ( #38 ) ) ;
#261 = VERTEX_POINT ( 'NONE', #201 ) ;
#262 = VERTEX_POINT ( 'NONE', #118 ) ;
#263 = CARTESIAN_POINT ( 'NONE',  ( 0.000000000000000000, 0.000000000000000000, 10.00000000000000000 ) ) ;
#264 = DIRECTION ( 'NONE',  ( 0.000000000000000000, 0.000000000000000000, 1.000000000000000000 ) ) ;
#265 =( LENGTH_UNIT ( ) NAMED_UNIT ( * ) SI_UNIT ( .MILLI., .METRE. ) );
#266 = AXIS2_PLACEMENT_3D ( 'NONE', #143, #243, #146 ) ;
#267 = CARTESIAN_POINT ( 'NONE',  ( 0.000000000000000000, 0.000000000000000000, 0.000000000000000000 ) ) ;
#268 = ORIENTED_EDGE ( 'NONE', *, *, #216, .T. ) ;
#269 = CARTESIAN_POINT ( 'NONE',  ( -12.50000000000000000, 0.000000000000000000, 10.19999999999998685 ) ) ;
#270 = DIRECTION ( 'NONE',  ( -0.000000000000000000, -0.000000000000000000, -1.000000000000000000 ) ) ;
#271 = CIRCLE ( 'NONE', #266, 16.00000000000000000 ) ;
#272 = CARTESIAN_POINT ( 'NONE',  ( 12.50000000000000000, 1.530808498934191521E-15, 325.0000000000000000 ) ) ;
#273 = CARTESIAN_POINT ( 'NONE',  ( 0.000000000000000000, 0.000000000000000000, 10.00000000000000000 ) ) ;
#274 = CARTESIAN_POINT ( 'NONE',  ( 0.000000000000000000, 0.000000000000000000, 10.19999999999998685 ) ) ;
#275 = DATE_AND_TIME ( #41, #237 ) ;
#276 = PERSON_AND_ORGANIZATION_ROLE ( 'classification_officer' ) ;
#277 = AXIS2_PLACEMENT_3D ( 'NONE', #13, #17, #281 ) ;
#278 = PERSON_AND_ORGANIZATION_ROLE ( 'design_supplier' ) ;
#279 = CARTESIAN_POINT ( 'NONE',  ( -12.50000000000000000, 0.000000000000000000, 325.0000000000000000 ) ) ;
#280 = CC_DESIGN_PERSON_AND_ORGANIZATION_ASSIGNMENT ( #209, #302, ( #38 ) ) ;
#281 = DIRECTION ( 'NONE',  ( -1.000000000000000000, 0.000000000000000000, 0.000000000000000000 ) ) ;
#282 = EDGE_CURVE ( 'NONE', #170, #261, #214, .T. ) ;
#283 = CIRCLE ( 'NONE', #301, 12.50000000000000000 ) ;
#284 = ORIENTED_EDGE ( 'NONE', *, *, #106, .T. ) ;
#285 = AXIS2_PLACEMENT_3D ( 'NONE', #111, #61, #192 ) ;
#286 = CC_DESIGN_APPROVAL ( #88, ( #303 ) ) ;
#287 = EDGE_LOOP ( 'NONE', ( #215, #56, #94, #1 ) ) ;
#288 = EDGE_LOOP ( 'NONE', ( #246, #238, #122, #151 ) ) ;
#289 = DIRECTION ( 'NONE',  ( 1.000000000000000000, 0.000000000000000000, 0.000000000000000000 ) ) ;
#290 = ORIENTED_EDGE ( 'NONE', *, *, #15, .T. ) ;
#291 = CARTESIAN_POINT ( 'NONE',  ( 0.000000000000000000, 0.000000000000000000, 0.000000000000000000 ) ) ;
#292 = AXIS2_PLACEMENT_3D ( 'NONE', #291, #60, #166 ) ;
#293 = CYLINDRICAL_SURFACE ( 'NONE', #85, 12.50000000000000000 ) ;
#294 = EDGE_CURVE ( 'NONE', #262, #3, #256, .T. ) ;
#295 = ORIENTED_EDGE ( 'NONE', *, *, #161, .T. ) ;
#296 = FACE_OUTER_BOUND ( 'NONE', #24, .T. ) ;
#297 = CARTESIAN_POINT ( 'NONE',  ( 16.00000000000000000, 1.959434878635765131E-15, 0.000000000000000000 ) ) ;
#298 = CYLINDRICAL_SURFACE ( 'NONE', #67, 12.50000000000000000 ) ;
#299 = DATE_TIME_ROLE ( 'classification_date' ) ;
#300 = ADVANCED_BREP_SHAPE_REPRESENTATION ( '2676', ( #219, #292 ), #116 ) ;
#301 = AXIS2_PLACEMENT_3D ( 'NONE', #71, #33, #50 ) ;
#302 = PERSON_AND_ORGANIZATION_ROLE ( 'creator' ) ;
#303 = PRODUCT_DEFINITION_FORMATION_WITH_SPECIFIED_SOURCE ( 'LIBOVOLNÝ', '', #177, .NOT_KNOWN. ) ;
#304 = FACE_OUTER_BOUND ( 'NONE', #127, .T. ) ;
#305 = EDGE_CURVE ( 'NONE', #141, #213, #247, .T. ) ;
#306 = CC_DESIGN_APPROVAL ( #226, ( #199 ) ) ;
#307 = DESIGN_CONTEXT ( 'detailed design', #234, 'design' ) ;
ENDSEC;
END-ISO-10303-21;
