ISO-10303-21;
HEADER;
FILE_DESCRIPTION (( 'STEP AP203' ),
    '1' );
FILE_NAME ('03bb.STEP',
    '2022-06-20T10:01:56',
    ( '' ),
    ( '' ),
    'SwSTEP 2.0',
    'SolidWorks 2019',
    '' );
FILE_SCHEMA (( 'CONFIG_CONTROL_DESIGN' ));
ENDSEC;

DATA;
#1 = PLANE ( 'NONE',  #277 ) ;
#2 = PERSON_AND_ORGANIZATION_ROLE ( 'classification_officer' ) ;
#3 = CARTESIAN_POINT ( 'NONE',  ( 0.000000000000000000, 0.000000000000000000, 253.0000000000000000 ) ) ;
#4 = EDGE_CURVE ( 'NONE', #162, #281, #100, .T. ) ;
#5 = AXIS2_PLACEMENT_3D ( 'NONE', #301, #299, #223 ) ;
#6 = CARTESIAN_POINT ( 'NONE',  ( 0.000000000000000000, 0.000000000000000000, 3.200000000000008171 ) ) ;
#7 = APPLICATION_CONTEXT ( 'configuration controlled 3d designs of mechanical parts and assemblies' ) ;
#8 = ORIENTED_EDGE ( 'NONE', *, *, #12, .T. ) ;
#9 = DIRECTION ( 'NONE',  ( -1.000000000000000000, 0.000000000000000000, 0.000000000000000000 ) ) ;
#10 = EDGE_CURVE ( 'NONE', #208, #241, #35, .T. ) ;
#11 = DIRECTION ( 'NONE',  ( -0.000000000000000000, -0.000000000000000000, -1.000000000000000000 ) ) ;
#12 = EDGE_CURVE ( 'NONE', #90, #26, #86, .T. ) ;
#13 = CC_DESIGN_APPROVAL ( #62, ( #93 ) ) ;
#14 = LINE ( 'NONE', #225, #266 ) ;
#15 = EDGE_LOOP ( 'NONE', ( #79, #101 ) ) ;
#16 = DIRECTION ( 'NONE',  ( -1.000000000000000000, 1.224646799147353207E-16, 0.000000000000000000 ) ) ;
#17 = EDGE_LOOP ( 'NONE', ( #40, #65, #268, #45 ) ) ;
#18 = DIRECTION ( 'NONE',  ( 1.000000000000000000, 0.000000000000000000, 0.000000000000000000 ) ) ;
#19 = EDGE_LOOP ( 'NONE', ( #179, #154, #146, #95 ) ) ;
#20 = CC_DESIGN_PERSON_AND_ORGANIZATION_ASSIGNMENT ( #150, #298, ( #93 ) ) ;
#21 = CALENDAR_DATE ( 2022, 20, 6 ) ;
#22 = ORIENTED_EDGE ( 'NONE', *, *, #112, .T. ) ;
#23 = DIRECTION ( 'NONE',  ( 0.000000000000000000, 0.000000000000000000, 1.000000000000000000 ) ) ;
#24 = MANIFOLD_SOLID_BREP ( 'Zaoblit1', #118 ) ;
#25 = DIRECTION ( 'NONE',  ( 1.000000000000000000, 0.000000000000000000, 0.000000000000000000 ) ) ;
#26 = VERTEX_POINT ( 'NONE', #192 ) ;
#27 = SHAPE_DEFINITION_REPRESENTATION ( #129, #254 ) ;
#28 = EDGE_LOOP ( 'NONE', ( #285, #125, #307, #238 ) ) ;
#29 = AXIS2_PLACEMENT_3D ( 'NONE', #31, #200, #39 ) ;
#30 = DIRECTION ( 'NONE',  ( 1.000000000000000000, 0.000000000000000000, 0.000000000000000000 ) ) ;
#31 = CARTESIAN_POINT ( 'NONE',  ( 0.000000000000000000, 0.000000000000000000, 3.000000000000000000 ) ) ;
#32 = SECURITY_CLASSIFICATION_LEVEL ( 'unclassified' ) ;
#33 = DIRECTION ( 'NONE',  ( 1.000000000000000000, 0.000000000000000000, 0.000000000000000000 ) ) ;
#34 = AXIS2_PLACEMENT_3D ( 'NONE', #202, #181, #18 ) ;
#35 = CIRCLE ( 'NONE', #43, 2.600000000000000089 ) ;
#36 = UNCERTAINTY_MEASURE_WITH_UNIT (LENGTH_MEASURE( 1.000000000000000082E-05 ), #233, 'distance_accuracy_value', 'NONE');
#37 = DIRECTION ( 'NONE',  ( 1.000000000000000000, 0.000000000000000000, 0.000000000000000000 ) ) ;
#38 = ORIENTED_EDGE ( 'NONE', *, *, #117, .T. ) ;
#39 = DIRECTION ( 'NONE',  ( 1.000000000000000000, 0.000000000000000000, 0.000000000000000000 ) ) ;
#40 = ORIENTED_EDGE ( 'NONE', *, *, #243, .F. ) ;
#41 = EDGE_CURVE ( 'NONE', #224, #92, #278, .T. ) ;
#42 = DIRECTION ( 'NONE',  ( 1.000000000000000000, 0.000000000000000000, 0.000000000000000000 ) ) ;
#43 = AXIS2_PLACEMENT_3D ( 'NONE', #3, #189, #263 ) ;
#44 = PERSON_AND_ORGANIZATION ( #159, #61 ) ;
#45 = ORIENTED_EDGE ( 'NONE', *, *, #4, .T. ) ;
#46 =( NAMED_UNIT ( * ) PLANE_ANGLE_UNIT ( ) SI_UNIT ( $, .RADIAN. ) );
#47 = CIRCLE ( 'NONE', #29, 5.000000000000000000 ) ;
#48 = EDGE_LOOP ( 'NONE', ( #99, #253 ) ) ;
#49 = TOROIDAL_SURFACE ( 'NONE', #155, 2.799999999999999822, 0.2000000000000000111 ) ;
#50 = CYLINDRICAL_SURFACE ( 'NONE', #197, 5.000000000000000000 ) ;
#51 = CC_DESIGN_PERSON_AND_ORGANIZATION_ASSIGNMENT ( #232, #306, ( #105 ) ) ;
#52 = ORIENTED_EDGE ( 'NONE', *, *, #221, .F. ) ;
#53 = DIRECTION ( 'NONE',  ( -0.000000000000000000, -0.000000000000000000, -1.000000000000000000 ) ) ;
#54 = CC_DESIGN_PERSON_AND_ORGANIZATION_ASSIGNMENT ( #229, #196, ( #93 ) ) ;
#55 = CIRCLE ( 'NONE', #222, 0.2000000000000000944 ) ;
#56 = FACE_OUTER_BOUND ( 'NONE', #157, .T. ) ;
#57 = DIRECTION ( 'NONE',  ( -1.000000000000000000, 0.000000000000000000, 0.000000000000000000 ) ) ;
#58 = APPROVAL_DATE_TIME ( #270, #127 ) ;
#59 = AXIS2_PLACEMENT_3D ( 'NONE', #250, #217, #37 ) ;
#60 = SECURITY_CLASSIFICATION ( '', '', #32 ) ;
#61 = ORGANIZATION ( 'NEURÈENÝ', 'NEURÈENÝ', '' ) ;
#62 = APPROVAL ( #75, 'NEURÈENÝ' ) ;
#63 = ORIENTED_EDGE ( 'NONE', *, *, #121, .F. ) ;
#64 = DIRECTION ( 'NONE',  ( -0.000000000000000000, -0.000000000000000000, -1.000000000000000000 ) ) ;
#65 = ORIENTED_EDGE ( 'NONE', *, *, #187, .F. ) ;
#66 = ADVANCED_FACE ( 'NONE', ( #78, #169 ), #195, .T. ) ;
#67 = CIRCLE ( 'NONE', #173, 2.799999999999999822 ) ;
#68 = CYLINDRICAL_SURFACE ( 'NONE', #290, 2.600000000000000089 ) ;
#69 = APPLICATION_PROTOCOL_DEFINITION ( 'international standard', 'config_control_design', 1994, #214 ) ;
#70 = DIRECTION ( 'NONE',  ( 0.000000000000000000, 0.000000000000000000, 1.000000000000000000 ) ) ;
#71 = ADVANCED_FACE ( 'NONE', ( #210 ), #50, .T. ) ;
#72 = APPROVAL_STATUS ( 'not_yet_approved' ) ;
#73 = ORIENTED_EDGE ( 'NONE', *, *, #41, .F. ) ;
#74 = ORIENTED_EDGE ( 'NONE', *, *, #240, .F. ) ;
#75 = APPROVAL_STATUS ( 'not_yet_approved' ) ;
#76 = DIRECTION ( 'NONE',  ( 1.000000000000000000, 0.000000000000000000, -0.000000000000000000 ) ) ;
#77 = LOCAL_TIME ( 12, 1, 56.00000000000000000, #84 ) ;
#78 = FACE_BOUND ( 'NONE', #15, .T. ) ;
#79 = ORIENTED_EDGE ( 'NONE', *, *, #158, .T. ) ;
#80 = CALENDAR_DATE ( 2022, 20, 6 ) ;
#81 = CARTESIAN_POINT ( 'NONE',  ( 0.000000000000000000, 0.000000000000000000, 253.0000000000000000 ) ) ;
#82 = AXIS2_PLACEMENT_3D ( 'NONE', #234, #194, #267 ) ;
#83 = CARTESIAN_POINT ( 'NONE',  ( 2.600000000000000089, 3.184081677783118191E-16, 253.0000000000000000 ) ) ;
#84 = COORDINATED_UNIVERSAL_TIME_OFFSET ( 1, 0, .AHEAD. ) ;
#85 = CC_DESIGN_DATE_AND_TIME_ASSIGNMENT ( #190, #209, ( #304 ) ) ;
#86 = CIRCLE ( 'NONE', #206, 2.600000000000000089 ) ;
#87 = DIRECTION ( 'NONE',  ( -0.000000000000000000, -0.000000000000000000, -1.000000000000000000 ) ) ;
#88 = EDGE_CURVE ( 'NONE', #241, #208, #218, .T. ) ;
#89 = CARTESIAN_POINT ( 'NONE',  ( 0.000000000000000000, 0.000000000000000000, 253.0000000000000000 ) ) ;
#90 = VERTEX_POINT ( 'NONE', #143 ) ;
#91 = DIRECTION ( 'NONE',  ( -0.000000000000000000, -0.000000000000000000, -1.000000000000000000 ) ) ;
#92 = VERTEX_POINT ( 'NONE', #126 ) ;
#93 = PRODUCT_DEFINITION_FORMATION_WITH_SPECIFIED_SOURCE ( 'LIBOVOLNÝ', '', #105, .NOT_KNOWN. ) ;
#94 = CALENDAR_DATE ( 2022, 20, 6 ) ;
#95 = ORIENTED_EDGE ( 'NONE', *, *, #170, .F. ) ;
#96 = ADVANCED_FACE ( 'NONE', ( #104 ), #1, .F. ) ;
#97 = COORDINATED_UNIVERSAL_TIME_OFFSET ( 1, 0, .AHEAD. ) ;
#98 = CARTESIAN_POINT ( 'NONE',  ( 0.000000000000000000, 0.000000000000000000, 0.000000000000000000 ) ) ;
#99 = ORIENTED_EDGE ( 'NONE', *, *, #10, .T. ) ;
#100 = CIRCLE ( 'NONE', #269, 5.000000000000000000 ) ;
#101 = ORIENTED_EDGE ( 'NONE', *, *, #41, .T. ) ;
#102 = AXIS2_PLACEMENT_3D ( 'NONE', #160, #23, #257 ) ;
#103 = DIRECTION ( 'NONE',  ( -0.000000000000000000, -0.000000000000000000, -1.000000000000000000 ) ) ;
#104 = FACE_OUTER_BOUND ( 'NONE', #211, .T. ) ;
#105 = PRODUCT ( '03bb', '03bb', '', ( #302 ) ) ;
#106 = LINE ( 'NONE', #252, #237 ) ;
#107 = AXIS2_PLACEMENT_3D ( 'NONE', #166, #265, #227 ) ;
#108 = CALENDAR_DATE ( 2022, 20, 6 ) ;
#109 = DIRECTION ( 'NONE',  ( -0.000000000000000000, -0.000000000000000000, -1.000000000000000000 ) ) ;
#110 = EDGE_CURVE ( 'NONE', #26, #92, #138, .T. ) ;
#111 = CC_DESIGN_PERSON_AND_ORGANIZATION_ASSIGNMENT ( #216, #2, ( #60 ) ) ;
#112 = EDGE_CURVE ( 'NONE', #228, #226, #47, .T. ) ;
#113 = DIRECTION ( 'NONE',  ( 0.000000000000000000, 0.000000000000000000, 1.000000000000000000 ) ) ;
#114 = CARTESIAN_POINT ( 'NONE',  ( 0.000000000000000000, 0.000000000000000000, 3.000000000000000000 ) ) ;
#115 = CARTESIAN_POINT ( 'NONE',  ( 0.000000000000000000, 0.000000000000000000, 3.200000000000008171 ) ) ;
#116 = EDGE_LOOP ( 'NONE', ( #182, #120, #294, #8 ) ) ;
#117 = EDGE_CURVE ( 'NONE', #241, #26, #128, .T. ) ;
#118 = CLOSED_SHELL ( 'NONE', ( #271, #177, #71, #276, #66, #96, #262, #248, #279 ) ) ;
#119 = DATE_AND_TIME ( #21, #199 ) ;
#120 = ORIENTED_EDGE ( 'NONE', *, *, #10, .F. ) ;
#121 = EDGE_CURVE ( 'NONE', #90, #224, #55, .T. ) ;
#122 = AXIS2_PLACEMENT_3D ( 'NONE', #89, #113, #175 ) ;
#123 = DIRECTION ( 'NONE',  ( 1.000000000000000000, 0.000000000000000000, 0.000000000000000000 ) ) ;
#124 = DIRECTION ( 'NONE',  ( 0.000000000000000000, 0.000000000000000000, 1.000000000000000000 ) ) ;
#125 = ORIENTED_EDGE ( 'NONE', *, *, #121, .T. ) ;
#126 = CARTESIAN_POINT ( 'NONE',  ( 2.799999999999999822, 0.000000000000000000, 3.000000000000004441 ) ) ;
#127 = APPROVAL ( #212, 'NEURÈENÝ' ) ;
#128 = LINE ( 'NONE', #272, #247 ) ;
#129 = PRODUCT_DEFINITION_SHAPE ( 'NONE', 'NONE',  #304 ) ;
#130 = DIRECTION ( 'NONE',  ( 1.224646799147353207E-16, 1.000000000000000000, -0.000000000000000000 ) ) ;
#131 = DESIGN_CONTEXT ( 'detailed design', #7, 'design' ) ;
#132 = AXIS2_PLACEMENT_3D ( 'NONE', #81, #180, #9 ) ;
#133 = CC_DESIGN_APPROVAL ( #251, ( #304 ) ) ;
#134 = CARTESIAN_POINT ( 'NONE',  ( 5.000000000000000000, 6.123233995736766282E-16, 3.000000000000000000 ) ) ;
#135 = CYLINDRICAL_SURFACE ( 'NONE', #132, 2.600000000000000089 ) ;
#136 = EDGE_LOOP ( 'NONE', ( #63, #74, #145, #73 ) ) ;
#137 = DIRECTION ( 'NONE',  ( 0.000000000000000000, 0.000000000000000000, 1.000000000000000000 ) ) ;
#138 = CIRCLE ( 'NONE', #107, 0.2000000000000000944 ) ;
#139 = AXIS2_PLACEMENT_3D ( 'NONE', #242, #103, #123 ) ;
#140 = CC_DESIGN_PERSON_AND_ORGANIZATION_ASSIGNMENT ( #207, #163, ( #304 ) ) ;
#141 = APPROVAL_DATE_TIME ( #119, #251 ) ;
#142 = DIRECTION ( 'NONE',  ( 0.000000000000000000, 0.000000000000000000, 1.000000000000000000 ) ) ;
#143 = CARTESIAN_POINT ( 'NONE',  ( -2.600000000000000089, 0.000000000000000000, 3.200000000000008171 ) ) ;
#144 = CALENDAR_DATE ( 2022, 20, 6 ) ;
#145 = ORIENTED_EDGE ( 'NONE', *, *, #110, .T. ) ;
#146 = ORIENTED_EDGE ( 'NONE', *, *, #221, .T. ) ;
#147 = DIRECTION ( 'NONE',  ( -1.000000000000000000, 0.000000000000000000, 0.000000000000000000 ) ) ;
#148 = LOCAL_TIME ( 12, 1, 56.00000000000000000, #261 ) ;
#149 = FACE_OUTER_BOUND ( 'NONE', #48, .T. ) ;
#150 = PERSON_AND_ORGANIZATION ( #159, #61 ) ;
#151 = APPROVAL_PERSON_ORGANIZATION ( #275, #127, #296 ) ;
#152 = LINE ( 'NONE', #153, #220 ) ;
#153 = CARTESIAN_POINT ( 'NONE',  ( -5.000000000000000000, 0.000000000000000000, 3.000000000000000000 ) ) ;
#154 = ORIENTED_EDGE ( 'NONE', *, *, #243, .T. ) ;
#155 = AXIS2_PLACEMENT_3D ( 'NONE', #115, #137, #33 ) ;
#156 = DIRECTION ( 'NONE',  ( -0.000000000000000000, -0.000000000000000000, -1.000000000000000000 ) ) ;
#157 = EDGE_LOOP ( 'NONE', ( #215, #38, #213, #295 ) ) ;
#158 = EDGE_CURVE ( 'NONE', #92, #224, #67, .T. ) ;
#159 = PERSON ( 'NEURÈENÝ', 'NEURÈENÝ', 'NEURÈENÝ', ('NEURÈENÝ'), ('NEURÈENÝ'), ('NEURÈENÝ') ) ;
#160 = CARTESIAN_POINT ( 'NONE',  ( 0.000000000000000000, 0.000000000000000000, 0.000000000000000000 ) ) ;
#161 = EDGE_CURVE ( 'NONE', #208, #90, #106, .T. ) ;
#162 = VERTEX_POINT ( 'NONE', #198 ) ;
#163 = PERSON_AND_ORGANIZATION_ROLE ( 'creator' ) ;
#164 = CARTESIAN_POINT ( 'NONE',  ( 0.000000000000000000, 0.000000000000000000, 253.0000000000000000 ) ) ;
#165 = APPROVAL_ROLE ( '' ) ;
#166 = CARTESIAN_POINT ( 'NONE',  ( 2.799999999999999822, 0.000000000000000000, 3.200000000000008171 ) ) ;
#167 = LOCAL_TIME ( 12, 1, 56.00000000000000000, #205 ) ;
#168 = COORDINATED_UNIVERSAL_TIME_OFFSET ( 1, 0, .AHEAD. ) ;
#169 = FACE_OUTER_BOUND ( 'NONE', #171, .T. ) ;
#170 = EDGE_CURVE ( 'NONE', #226, #162, #152, .T. ) ;
#171 = EDGE_LOOP ( 'NONE', ( #256, #22 ) ) ;
#172 = CARTESIAN_POINT ( 'NONE',  ( -2.799999999999999822, 3.429011037612588783E-16, 3.200000000000008171 ) ) ;
#173 = AXIS2_PLACEMENT_3D ( 'NONE', #114, #255, #42 ) ;
#174 = CC_DESIGN_DATE_AND_TIME_ASSIGNMENT ( #176, #273, ( #60 ) ) ;
#175 = DIRECTION ( 'NONE',  ( 1.000000000000000000, 0.000000000000000000, -0.000000000000000000 ) ) ;
#176 = DATE_AND_TIME ( #108, #77 ) ;
#177 = ADVANCED_FACE ( 'NONE', ( #56 ), #135, .T. ) ;
#178 = CARTESIAN_POINT ( 'NONE',  ( -2.799999999999999822, 3.429011037612589276E-16, 3.000000000000004441 ) ) ;
#179 = ORIENTED_EDGE ( 'NONE', *, *, #112, .F. ) ;
#180 = DIRECTION ( 'NONE',  ( -0.000000000000000000, -0.000000000000000000, -1.000000000000000000 ) ) ;
#181 = DIRECTION ( 'NONE',  ( 0.000000000000000000, 0.000000000000000000, 1.000000000000000000 ) ) ;
#182 = ORIENTED_EDGE ( 'NONE', *, *, #117, .F. ) ;
#183 = TOROIDAL_SURFACE ( 'NONE', #201, 2.799999999999999822, 0.2000000000000000111 ) ;
#184 = DATE_AND_TIME ( #144, #167 ) ;
#185 = DIRECTION ( 'NONE',  ( 1.000000000000000000, 0.000000000000000000, 0.000000000000000000 ) ) ;
#186 = PRODUCT_RELATED_PRODUCT_CATEGORY ( 'detail', '', ( #105 ) ) ;
#187 = EDGE_CURVE ( 'NONE', #226, #228, #264, .T. ) ;
#188 = CC_DESIGN_SECURITY_CLASSIFICATION ( #60, ( #93 ) ) ;
#189 = DIRECTION ( 'NONE',  ( 0.000000000000000000, 0.000000000000000000, 1.000000000000000000 ) ) ;
#190 = DATE_AND_TIME ( #94, #148 ) ;
#191 = CARTESIAN_POINT ( 'NONE',  ( 0.000000000000000000, 0.000000000000000000, 0.000000000000000000 ) ) ;
#192 = CARTESIAN_POINT ( 'NONE',  ( 2.600000000000000089, 3.184081677783118191E-16, 3.200000000000008171 ) ) ;
#193 = CIRCLE ( 'NONE', #59, 5.000000000000000000 ) ;
#194 = DIRECTION ( 'NONE',  ( 0.000000000000000000, 0.000000000000000000, 1.000000000000000000 ) ) ;
#195 = PLANE ( 'NONE',  #82 ) ;
#196 = PERSON_AND_ORGANIZATION_ROLE ( 'creator' ) ;
#197 = AXIS2_PLACEMENT_3D ( 'NONE', #291, #53, #147 ) ;
#198 = CARTESIAN_POINT ( 'NONE',  ( -5.000000000000000000, 0.000000000000000000, 0.000000000000000000 ) ) ;
#199 = LOCAL_TIME ( 12, 1, 56.00000000000000000, #97 ) ;
#200 = DIRECTION ( 'NONE',  ( 0.000000000000000000, 0.000000000000000000, 1.000000000000000000 ) ) ;
#201 = AXIS2_PLACEMENT_3D ( 'NONE', #259, #70, #185 ) ;
#202 = CARTESIAN_POINT ( 'NONE',  ( 0.000000000000000000, 0.000000000000000000, 3.000000000000000000 ) ) ;
#203 = CARTESIAN_POINT ( 'NONE',  ( -2.600000000000000089, 0.000000000000000000, 253.0000000000000000 ) ) ;
#204 = APPROVAL_PERSON_ORGANIZATION ( #44, #251, #288 ) ;
#205 = COORDINATED_UNIVERSAL_TIME_OFFSET ( 1, 0, .AHEAD. ) ;
#206 = AXIS2_PLACEMENT_3D ( 'NONE', #6, #124, #25 ) ;
#207 = PERSON_AND_ORGANIZATION ( #159, #61 ) ;
#208 = VERTEX_POINT ( 'NONE', #203 ) ;
#209 = DATE_TIME_ROLE ( 'creation_date' ) ;
#210 = FACE_OUTER_BOUND ( 'NONE', #19, .T. ) ;
#211 = EDGE_LOOP ( 'NONE', ( #283, #52 ) ) ;
#212 = APPROVAL_STATUS ( 'not_yet_approved' ) ;
#213 = ORIENTED_EDGE ( 'NONE', *, *, #240, .T. ) ;
#214 = APPLICATION_CONTEXT ( 'configuration controlled 3d designs of mechanical parts and assemblies' ) ;
#215 = ORIENTED_EDGE ( 'NONE', *, *, #88, .F. ) ;
#216 = PERSON_AND_ORGANIZATION ( #159, #61 ) ;
#217 = DIRECTION ( 'NONE',  ( 0.000000000000000000, 0.000000000000000000, 1.000000000000000000 ) ) ;
#218 = CIRCLE ( 'NONE', #235, 2.600000000000000089 ) ;
#219 = CARTESIAN_POINT ( 'NONE',  ( 0.000000000000000000, 0.000000000000000000, 3.000000000000000000 ) ) ;
#220 = VECTOR ( 'NONE', #64, 1000.000000000000000 ) ;
#221 = EDGE_CURVE ( 'NONE', #281, #162, #193, .T. ) ;
#222 = AXIS2_PLACEMENT_3D ( 'NONE', #172, #130, #16 ) ;
#223 = DIRECTION ( 'NONE',  ( 1.000000000000000000, 0.000000000000000000, 0.000000000000000000 ) ) ;
#224 = VERTEX_POINT ( 'NONE', #178 ) ;
#225 = CARTESIAN_POINT ( 'NONE',  ( 5.000000000000000000, 6.123233995736766282E-16, 3.000000000000000000 ) ) ;
#226 = VERTEX_POINT ( 'NONE', #300 ) ;
#227 = DIRECTION ( 'NONE',  ( 0.000000000000000000, 0.000000000000000000, -1.000000000000000000 ) ) ;
#228 = VERTEX_POINT ( 'NONE', #134 ) ;
#229 = PERSON_AND_ORGANIZATION ( #159, #61 ) ;
#230 = CIRCLE ( 'NONE', #5, 2.600000000000000089 ) ;
#231 =( GEOMETRIC_REPRESENTATION_CONTEXT ( 3 ) GLOBAL_UNCERTAINTY_ASSIGNED_CONTEXT ( ( #36 ) ) GLOBAL_UNIT_ASSIGNED_CONTEXT ( ( #233, #46, #236 ) ) REPRESENTATION_CONTEXT ( 'NONE', 'WORKASPACE' ) );
#232 = PERSON_AND_ORGANIZATION ( #159, #61 ) ;
#233 =( LENGTH_UNIT ( ) NAMED_UNIT ( * ) SI_UNIT ( .MILLI., .METRE. ) );
#234 = CARTESIAN_POINT ( 'NONE',  ( 0.000000000000000000, 0.000000000000000000, 3.000000000000000000 ) ) ;
#235 = AXIS2_PLACEMENT_3D ( 'NONE', #164, #244, #30 ) ;
#236 =( NAMED_UNIT ( * ) SI_UNIT ( $, .STERADIAN. ) SOLID_ANGLE_UNIT ( ) );
#237 = VECTOR ( 'NONE', #109, 1000.000000000000000 ) ;
#238 = ORIENTED_EDGE ( 'NONE', *, *, #110, .F. ) ;
#239 = LOCAL_TIME ( 12, 1, 56.00000000000000000, #168 ) ;
#240 = EDGE_CURVE ( 'NONE', #26, #90, #230, .T. ) ;
#241 = VERTEX_POINT ( 'NONE', #83 ) ;
#242 = CARTESIAN_POINT ( 'NONE',  ( 0.000000000000000000, 0.000000000000000000, 3.000000000000000000 ) ) ;
#243 = EDGE_CURVE ( 'NONE', #228, #281, #14, .T. ) ;
#244 = DIRECTION ( 'NONE',  ( 0.000000000000000000, 0.000000000000000000, 1.000000000000000000 ) ) ;
#245 = FACE_OUTER_BOUND ( 'NONE', #28, .T. ) ;
#246 = CYLINDRICAL_SURFACE ( 'NONE', #303, 5.000000000000000000 ) ;
#247 = VECTOR ( 'NONE', #87, 1000.000000000000000 ) ;
#248 = ADVANCED_FACE ( 'NONE', ( #149 ), #284, .T. ) ;
#249 = CC_DESIGN_APPROVAL ( #127, ( #60 ) ) ;
#250 = CARTESIAN_POINT ( 'NONE',  ( 0.000000000000000000, 0.000000000000000000, 0.000000000000000000 ) ) ;
#251 = APPROVAL ( #72, 'NEURÈENÝ' ) ;
#252 = CARTESIAN_POINT ( 'NONE',  ( -2.600000000000000089, 0.000000000000000000, 253.0000000000000000 ) ) ;
#253 = ORIENTED_EDGE ( 'NONE', *, *, #88, .T. ) ;
#254 = ADVANCED_BREP_SHAPE_REPRESENTATION ( '03bb', ( #24, #102 ), #231 ) ;
#255 = DIRECTION ( 'NONE',  ( -0.000000000000000000, -0.000000000000000000, -1.000000000000000000 ) ) ;
#256 = ORIENTED_EDGE ( 'NONE', *, *, #187, .T. ) ;
#257 = DIRECTION ( 'NONE',  ( 1.000000000000000000, 0.000000000000000000, 0.000000000000000000 ) ) ;
#258 = CARTESIAN_POINT ( 'NONE',  ( 5.000000000000000000, 6.123233995736766282E-16, 0.000000000000000000 ) ) ;
#259 = CARTESIAN_POINT ( 'NONE',  ( 0.000000000000000000, 0.000000000000000000, 3.200000000000008171 ) ) ;
#260 = DIRECTION ( 'NONE',  ( 1.000000000000000000, 0.000000000000000000, 0.000000000000000000 ) ) ;
#261 = COORDINATED_UNIVERSAL_TIME_OFFSET ( 1, 0, .AHEAD. ) ;
#262 = ADVANCED_FACE ( 'NONE', ( #297 ), #68, .T. ) ;
#263 = DIRECTION ( 'NONE',  ( 1.000000000000000000, 0.000000000000000000, 0.000000000000000000 ) ) ;
#264 = CIRCLE ( 'NONE', #34, 5.000000000000000000 ) ;
#265 = DIRECTION ( 'NONE',  ( 0.000000000000000000, -1.000000000000000000, 0.000000000000000000 ) ) ;
#266 = VECTOR ( 'NONE', #91, 1000.000000000000000 ) ;
#267 = DIRECTION ( 'NONE',  ( 1.000000000000000000, 0.000000000000000000, -0.000000000000000000 ) ) ;
#268 = ORIENTED_EDGE ( 'NONE', *, *, #170, .T. ) ;
#269 = AXIS2_PLACEMENT_3D ( 'NONE', #98, #142, #260 ) ;
#270 = DATE_AND_TIME ( #80, #239 ) ;
#271 = ADVANCED_FACE ( 'NONE', ( #245 ), #49, .F. ) ;
#272 = CARTESIAN_POINT ( 'NONE',  ( 2.600000000000000089, 3.184081677783118191E-16, 253.0000000000000000 ) ) ;
#273 = DATE_TIME_ROLE ( 'classification_date' ) ;
#274 = CARTESIAN_POINT ( 'NONE',  ( 0.000000000000000000, 0.000000000000000000, 253.0000000000000000 ) ) ;
#275 = PERSON_AND_ORGANIZATION ( #159, #61 ) ;
#276 = ADVANCED_FACE ( 'NONE', ( #280 ), #246, .T. ) ;
#277 = AXIS2_PLACEMENT_3D ( 'NONE', #191, #293, #76 ) ;
#278 = CIRCLE ( 'NONE', #139, 2.799999999999999822 ) ;
#279 = ADVANCED_FACE ( 'NONE', ( #305 ), #183, .F. ) ;
#280 = FACE_OUTER_BOUND ( 'NONE', #17, .T. ) ;
#281 = VERTEX_POINT ( 'NONE', #258 ) ;
#282 = DIRECTION ( 'NONE',  ( -1.000000000000000000, 0.000000000000000000, 0.000000000000000000 ) ) ;
#283 = ORIENTED_EDGE ( 'NONE', *, *, #4, .F. ) ;
#284 = PLANE ( 'NONE',  #122 ) ;
#285 = ORIENTED_EDGE ( 'NONE', *, *, #12, .F. ) ;
#286 = APPROVAL_PERSON_ORGANIZATION ( #292, #62, #165 ) ;
#287 = APPROVAL_DATE_TIME ( #184, #62 ) ;
#288 = APPROVAL_ROLE ( '' ) ;
#289 = APPLICATION_PROTOCOL_DEFINITION ( 'international standard', 'config_control_design', 1994, #7 ) ;
#290 = AXIS2_PLACEMENT_3D ( 'NONE', #274, #156, #57 ) ;
#291 = CARTESIAN_POINT ( 'NONE',  ( 0.000000000000000000, 0.000000000000000000, 3.000000000000000000 ) ) ;
#292 = PERSON_AND_ORGANIZATION ( #159, #61 ) ;
#293 = DIRECTION ( 'NONE',  ( 0.000000000000000000, 0.000000000000000000, 1.000000000000000000 ) ) ;
#294 = ORIENTED_EDGE ( 'NONE', *, *, #161, .T. ) ;
#295 = ORIENTED_EDGE ( 'NONE', *, *, #161, .F. ) ;
#296 = APPROVAL_ROLE ( '' ) ;
#297 = FACE_OUTER_BOUND ( 'NONE', #116, .T. ) ;
#298 = PERSON_AND_ORGANIZATION_ROLE ( 'design_supplier' ) ;
#299 = DIRECTION ( 'NONE',  ( 0.000000000000000000, 0.000000000000000000, 1.000000000000000000 ) ) ;
#300 = CARTESIAN_POINT ( 'NONE',  ( -5.000000000000000000, 0.000000000000000000, 3.000000000000000000 ) ) ;
#301 = CARTESIAN_POINT ( 'NONE',  ( 0.000000000000000000, 0.000000000000000000, 3.200000000000008171 ) ) ;
#302 = MECHANICAL_CONTEXT ( 'NONE', #214, 'mechanical' ) ;
#303 = AXIS2_PLACEMENT_3D ( 'NONE', #219, #11, #282 ) ;
#304 = PRODUCT_DEFINITION ( 'NEZNÁMÝ', '', #93, #131 ) ;
#305 = FACE_OUTER_BOUND ( 'NONE', #136, .T. ) ;
#306 = PERSON_AND_ORGANIZATION_ROLE ( 'design_owner' ) ;
#307 = ORIENTED_EDGE ( 'NONE', *, *, #158, .F. ) ;
ENDSEC;
END-ISO-10303-21;
