ISO-10303-21;
HEADER;
FILE_DESCRIPTION (( 'STEP AP203' ),
    '1' );
FILE_NAME ('5d84.STEP',
    '2022-06-20T10:26:47',
    ( '' ),
    ( '' ),
    'SwSTEP 2.0',
    'SolidWorks 2019',
    '' );
FILE_SCHEMA (( 'CONFIG_CONTROL_DESIGN' ));
ENDSEC;

DATA;
#1 = CARTESIAN_POINT ( 'NONE',  ( 0.5000000000000000000, 6.123233995736766036E-17, 101.2000000000000171 ) ) ;
#2 = CARTESIAN_POINT ( 'NONE',  ( -0.5000000000000000000, 0.000000000000000000, 101.2000000000000171 ) ) ;
#3 = APPROVAL ( #180, 'NEURÈENÝ' ) ;
#4 = CARTESIAN_POINT ( 'NONE',  ( -0.5000000000000000000, 0.000000000000000000, 1.399999999999998579 ) ) ;
#5 = DIRECTION ( 'NONE',  ( 0.000000000000000000, 0.000000000000000000, 1.000000000000000000 ) ) ;
#6 = CC_DESIGN_DATE_AND_TIME_ASSIGNMENT ( #92, #94, ( #80 ) ) ;
#7 =( NAMED_UNIT ( * ) SI_UNIT ( $, .STERADIAN. ) SOLID_ANGLE_UNIT ( ) );
#8 = DIRECTION ( 'NONE',  ( 1.000000000000000000, 0.000000000000000000, -0.000000000000000000 ) ) ;
#9 = CIRCLE ( 'NONE', #275, 0.5000000000000000000 ) ;
#10 = PRODUCT_RELATED_PRODUCT_CATEGORY ( 'detail', '', ( #130 ) ) ;
#11 = CARTESIAN_POINT ( 'NONE',  ( 0.5000000000000000000, 6.123233995736766036E-17, 101.2000000000000171 ) ) ;
#12 = ORIENTED_EDGE ( 'NONE', *, *, #162, .T. ) ;
#13 = DIRECTION ( 'NONE',  ( 1.000000000000000000, 0.000000000000000000, 0.000000000000000000 ) ) ;
#14 = EDGE_LOOP ( 'NONE', ( #78, #250 ) ) ;
#15 = EDGE_CURVE ( 'NONE', #187, #296, #186, .T. ) ;
#16 = FACE_OUTER_BOUND ( 'NONE', #305, .T. ) ;
#17 = VERTEX_POINT ( 'NONE', #2 ) ;
#18 = PERSON_AND_ORGANIZATION ( #268, #202 ) ;
#19 = AXIS2_PLACEMENT_3D ( 'NONE', #114, #210, #283 ) ;
#20 = ADVANCED_FACE ( 'NONE', ( #184 ), #136, .T. ) ;
#21 = APPROVAL_STATUS ( 'not_yet_approved' ) ;
#22 = DIRECTION ( 'NONE',  ( 1.000000000000000000, 0.000000000000000000, 0.000000000000000000 ) ) ;
#23 = DIRECTION ( 'NONE',  ( -0.000000000000000000, -0.000000000000000000, -1.000000000000000000 ) ) ;
#24 = MECHANICAL_CONTEXT ( 'NONE', #101, 'mechanical' ) ;
#25 = CARTESIAN_POINT ( 'NONE',  ( 0.6999999999999999556, 0.000000000000000000, 1.199999999999999289 ) ) ;
#26 = CIRCLE ( 'NONE', #102, 1.250000000000000000 ) ;
#27 = PRODUCT_DEFINITION_FORMATION_WITH_SPECIFIED_SOURCE ( 'LIBOVOLNÝ', '', #130, .NOT_KNOWN. ) ;
#28 = EDGE_CURVE ( 'NONE', #64, #75, #257, .T. ) ;
#29 = DIRECTION ( 'NONE',  ( 1.000000000000000000, 0.000000000000000000, 0.000000000000000000 ) ) ;
#30 = ORIENTED_EDGE ( 'NONE', *, *, #292, .F. ) ;
#31 = CARTESIAN_POINT ( 'NONE',  ( 0.000000000000000000, 0.000000000000000000, 101.2000000000000171 ) ) ;
#32 =( NAMED_UNIT ( * ) PLANE_ANGLE_UNIT ( ) SI_UNIT ( $, .RADIAN. ) );
#33 = CARTESIAN_POINT ( 'NONE',  ( 1.250000000000000000, 1.530808498934191571E-16, 1.199999999999999956 ) ) ;
#34 = CIRCLE ( 'NONE', #201, 0.2000000000000000944 ) ;
#35 = CARTESIAN_POINT ( 'NONE',  ( 0.000000000000000000, 0.000000000000000000, 101.2000000000000171 ) ) ;
#36 = ORIENTED_EDGE ( 'NONE', *, *, #28, .T. ) ;
#37 = AXIS2_PLACEMENT_3D ( 'NONE', #96, #285, #161 ) ;
#38 = DIRECTION ( 'NONE',  ( 0.000000000000000000, 0.000000000000000000, 1.000000000000000000 ) ) ;
#39 = ORIENTED_EDGE ( 'NONE', *, *, #267, .T. ) ;
#40 = CIRCLE ( 'NONE', #119, 1.250000000000000000 ) ;
#41 = LOCAL_TIME ( 12, 26, 47.00000000000000000, #91 ) ;
#42 = CARTESIAN_POINT ( 'NONE',  ( 0.000000000000000000, 0.000000000000000000, 1.199999999999999956 ) ) ;
#43 = ORIENTED_EDGE ( 'NONE', *, *, #62, .F. ) ;
#44 = SECURITY_CLASSIFICATION_LEVEL ( 'unclassified' ) ;
#45 = CIRCLE ( 'NONE', #76, 0.6999999999999999556 ) ;
#46 = CC_DESIGN_APPROVAL ( #84, ( #80 ) ) ;
#47 = CC_DESIGN_APPROVAL ( #195, ( #27 ) ) ;
#48 = DIRECTION ( 'NONE',  ( 1.000000000000000000, 0.000000000000000000, 0.000000000000000000 ) ) ;
#49 = DATE_AND_TIME ( #131, #290 ) ;
#50 = APPLICATION_CONTEXT ( 'configuration controlled 3d designs of mechanical parts and assemblies' ) ;
#51 = ORIENTED_EDGE ( 'NONE', *, *, #297, .T. ) ;
#52 = CARTESIAN_POINT ( 'NONE',  ( 0.000000000000000000, 0.000000000000000000, 0.000000000000000000 ) ) ;
#53 = TOROIDAL_SURFACE ( 'NONE', #301, 0.6999999999999999556, 0.2000000000000000111 ) ;
#54 = CARTESIAN_POINT ( 'NONE',  ( 0.000000000000000000, 0.000000000000000000, 1.199999999999999956 ) ) ;
#55 = CARTESIAN_POINT ( 'NONE',  ( 0.000000000000000000, 0.000000000000000000, 1.199999999999999956 ) ) ;
#56 = PLANE ( 'NONE',  #90 ) ;
#57 = DIRECTION ( 'NONE',  ( 1.000000000000000000, 0.000000000000000000, 0.000000000000000000 ) ) ;
#58 = AXIS2_PLACEMENT_3D ( 'NONE', #183, #289, #69 ) ;
#59 = AXIS2_PLACEMENT_3D ( 'NONE', #127, #105, #57 ) ;
#60 = APPROVAL_PERSON_ORGANIZATION ( #284, #3, #66 ) ;
#61 = ORIENTED_EDGE ( 'NONE', *, *, #297, .F. ) ;
#62 = EDGE_CURVE ( 'NONE', #296, #116, #45, .T. ) ;
#63 = CARTESIAN_POINT ( 'NONE',  ( -0.6999999999999999556, 8.572527594031473190E-17, 1.199999999999999289 ) ) ;
#64 = VERTEX_POINT ( 'NONE', #95 ) ;
#65 = ORIENTED_EDGE ( 'NONE', *, *, #77, .F. ) ;
#66 = APPROVAL_ROLE ( '' ) ;
#67 = EDGE_CURVE ( 'NONE', #246, #217, #135, .T. ) ;
#68 = COORDINATED_UNIVERSAL_TIME_OFFSET ( 1, 0, .AHEAD. ) ;
#69 = DIRECTION ( 'NONE',  ( -1.000000000000000000, 0.000000000000000000, 0.000000000000000000 ) ) ;
#70 = APPROVAL_ROLE ( '' ) ;
#71 = DIRECTION ( 'NONE',  ( -0.000000000000000000, -0.000000000000000000, -1.000000000000000000 ) ) ;
#72 = EDGE_CURVE ( 'NONE', #217, #187, #154, .T. ) ;
#73 = PERSON_AND_ORGANIZATION_ROLE ( 'classification_officer' ) ;
#74 = ORIENTED_EDGE ( 'NONE', *, *, #292, .T. ) ;
#75 = VERTEX_POINT ( 'NONE', #261 ) ;
#76 = AXIS2_PLACEMENT_3D ( 'NONE', #93, #259, #48 ) ;
#77 = EDGE_CURVE ( 'NONE', #244, #75, #26, .T. ) ;
#78 = ORIENTED_EDGE ( 'NONE', *, *, #174, .T. ) ;
#79 = DIRECTION ( 'NONE',  ( 1.000000000000000000, 0.000000000000000000, -0.000000000000000000 ) ) ;
#80 = SECURITY_CLASSIFICATION ( '', '', #44 ) ;
#81 = ADVANCED_FACE ( 'NONE', ( #211 ), #228, .T. ) ;
#82 = DIRECTION ( 'NONE',  ( 1.000000000000000000, 0.000000000000000000, 0.000000000000000000 ) ) ;
#83 = ORIENTED_EDGE ( 'NONE', *, *, #72, .F. ) ;
#84 = APPROVAL ( #302, 'NEURÈENÝ' ) ;
#85 = DIRECTION ( 'NONE',  ( 0.000000000000000000, -1.000000000000000000, 0.000000000000000000 ) ) ;
#86 = EDGE_LOOP ( 'NONE', ( #128, #124, #295, #262 ) ) ;
#87 =( LENGTH_UNIT ( ) NAMED_UNIT ( * ) SI_UNIT ( .MILLI., .METRE. ) );
#88 = ORIENTED_EDGE ( 'NONE', *, *, #15, .F. ) ;
#89 = ORIENTED_EDGE ( 'NONE', *, *, #67, .F. ) ;
#90 = AXIS2_PLACEMENT_3D ( 'NONE', #196, #291, #79 ) ;
#91 = COORDINATED_UNIVERSAL_TIME_OFFSET ( 1, 0, .AHEAD. ) ;
#92 = DATE_AND_TIME ( #304, #139 ) ;
#93 = CARTESIAN_POINT ( 'NONE',  ( 0.000000000000000000, 0.000000000000000000, 1.199999999999999956 ) ) ;
#94 = DATE_TIME_ROLE ( 'classification_date' ) ;
#95 = CARTESIAN_POINT ( 'NONE',  ( -1.250000000000000000, 0.000000000000000000, 1.199999999999999956 ) ) ;
#96 = CARTESIAN_POINT ( 'NONE',  ( 0.000000000000000000, 0.000000000000000000, 1.399999999999998579 ) ) ;
#97 = FACE_OUTER_BOUND ( 'NONE', #194, .T. ) ;
#98 = VECTOR ( 'NONE', #216, 1000.000000000000000 ) ;
#99 = FACE_OUTER_BOUND ( 'NONE', #106, .T. ) ;
#100 = PLANE ( 'NONE',  #233 ) ;
#101 = APPLICATION_CONTEXT ( 'configuration controlled 3d designs of mechanical parts and assemblies' ) ;
#102 = AXIS2_PLACEMENT_3D ( 'NONE', #52, #286, #29 ) ;
#103 = CARTESIAN_POINT ( 'NONE',  ( 0.000000000000000000, 0.000000000000000000, 1.399999999999998579 ) ) ;
#104 = ORIENTED_EDGE ( 'NONE', *, *, #255, .F. ) ;
#105 = DIRECTION ( 'NONE',  ( 0.000000000000000000, 0.000000000000000000, 1.000000000000000000 ) ) ;
#106 = EDGE_LOOP ( 'NONE', ( #89, #199, #273, #122 ) ) ;
#107 = DIRECTION ( 'NONE',  ( 0.000000000000000000, 0.000000000000000000, 1.000000000000000000 ) ) ;
#108 = EDGE_LOOP ( 'NONE', ( #88, #83, #74, #43 ) ) ;
#109 = CC_DESIGN_PERSON_AND_ORGANIZATION_ASSIGNMENT ( #198, #160, ( #242 ) ) ;
#110 = CALENDAR_DATE ( 2022, 20, 6 ) ;
#111 = DIRECTION ( 'NONE',  ( 0.000000000000000000, 0.000000000000000000, 1.000000000000000000 ) ) ;
#112 = DIRECTION ( 'NONE',  ( 1.000000000000000000, 0.000000000000000000, 0.000000000000000000 ) ) ;
#113 = CYLINDRICAL_SURFACE ( 'NONE', #214, 0.5000000000000000000 ) ;
#114 = CARTESIAN_POINT ( 'NONE',  ( -0.6999999999999999556, 8.572527594031471957E-17, 1.399999999999998579 ) ) ;
#115 = CC_DESIGN_PERSON_AND_ORGANIZATION_ASSIGNMENT ( #137, #73, ( #80 ) ) ;
#116 = VERTEX_POINT ( 'NONE', #25 ) ;
#117 = EDGE_CURVE ( 'NONE', #64, #222, #218, .T. ) ;
#118 = DIRECTION ( 'NONE',  ( -1.000000000000000000, 0.000000000000000000, 0.000000000000000000 ) ) ;
#119 = AXIS2_PLACEMENT_3D ( 'NONE', #42, #165, #123 ) ;
#120 = EDGE_CURVE ( 'NONE', #222, #244, #207, .T. ) ;
#121 = CARTESIAN_POINT ( 'NONE',  ( 0.000000000000000000, 0.000000000000000000, 101.2000000000000171 ) ) ;
#122 = ORIENTED_EDGE ( 'NONE', *, *, #129, .T. ) ;
#123 = DIRECTION ( 'NONE',  ( 1.000000000000000000, 0.000000000000000000, 0.000000000000000000 ) ) ;
#124 = ORIENTED_EDGE ( 'NONE', *, *, #120, .T. ) ;
#125 = AXIS2_PLACEMENT_3D ( 'NONE', #31, #5, #234 ) ;
#126 = APPROVAL_PERSON_ORGANIZATION ( #277, #195, #153 ) ;
#127 = CARTESIAN_POINT ( 'NONE',  ( 0.000000000000000000, 0.000000000000000000, 1.399999999999998579 ) ) ;
#128 = ORIENTED_EDGE ( 'NONE', *, *, #206, .F. ) ;
#129 = EDGE_CURVE ( 'NONE', #187, #217, #293, .T. ) ;
#130 = PRODUCT ( '5d84', '5d84', '', ( #24 ) ) ;
#131 = CALENDAR_DATE ( 2022, 20, 6 ) ;
#132 = DESIGN_CONTEXT ( 'detailed design', #50, 'design' ) ;
#133 = PERSON_AND_ORGANIZATION_ROLE ( 'creator' ) ;
#134 = TOROIDAL_SURFACE ( 'NONE', #59, 0.6999999999999999556, 0.2000000000000000111 ) ;
#135 = LINE ( 'NONE', #1, #287 ) ;
#136 = CYLINDRICAL_SURFACE ( 'NONE', #58, 1.250000000000000000 ) ;
#137 = PERSON_AND_ORGANIZATION ( #268, #202 ) ;
#138 = DIRECTION ( 'NONE',  ( -0.000000000000000000, -0.000000000000000000, -1.000000000000000000 ) ) ;
#139 = LOCAL_TIME ( 12, 26, 47.00000000000000000, #68 ) ;
#140 = DIRECTION ( 'NONE',  ( -0.000000000000000000, -0.000000000000000000, -1.000000000000000000 ) ) ;
#141 = DIRECTION ( 'NONE',  ( 1.000000000000000000, 0.000000000000000000, 0.000000000000000000 ) ) ;
#142 = PLANE ( 'NONE',  #226 ) ;
#143 =( GEOMETRIC_REPRESENTATION_CONTEXT ( 3 ) GLOBAL_UNCERTAINTY_ASSIGNED_CONTEXT ( ( #280 ) ) GLOBAL_UNIT_ASSIGNED_CONTEXT ( ( #87, #32, #7 ) ) REPRESENTATION_CONTEXT ( 'NONE', 'WORKASPACE' ) );
#144 = FACE_BOUND ( 'NONE', #14, .T. ) ;
#145 = ORIENTED_EDGE ( 'NONE', *, *, #117, .F. ) ;
#146 = CARTESIAN_POINT ( 'NONE',  ( 0.000000000000000000, 0.000000000000000000, 0.000000000000000000 ) ) ;
#147 = EDGE_LOOP ( 'NONE', ( #61, #65 ) ) ;
#148 = CC_DESIGN_DATE_AND_TIME_ASSIGNMENT ( #200, #227, ( #242 ) ) ;
#149 = CARTESIAN_POINT ( 'NONE',  ( 0.5000000000000000000, 6.123233995736766036E-17, 1.399999999999998579 ) ) ;
#150 = PRODUCT_DEFINITION_SHAPE ( 'NONE', 'NONE',  #242 ) ;
#151 = ORIENTED_EDGE ( 'NONE', *, *, #174, .F. ) ;
#152 = COORDINATED_UNIVERSAL_TIME_OFFSET ( 1, 0, .AHEAD. ) ;
#153 = APPROVAL_ROLE ( '' ) ;
#154 = CIRCLE ( 'NONE', #37, 0.5000000000000000000 ) ;
#155 = DATE_AND_TIME ( #177, #41 ) ;
#156 = CIRCLE ( 'NONE', #125, 0.5000000000000000000 ) ;
#157 = DIRECTION ( 'NONE',  ( 0.000000000000000000, 0.000000000000000000, 1.000000000000000000 ) ) ;
#158 = APPLICATION_PROTOCOL_DEFINITION ( 'international standard', 'config_control_design', 1994, #50 ) ;
#159 = DIRECTION ( 'NONE',  ( -1.000000000000000000, 0.000000000000000000, 0.000000000000000000 ) ) ;
#160 = PERSON_AND_ORGANIZATION_ROLE ( 'creator' ) ;
#161 = DIRECTION ( 'NONE',  ( 1.000000000000000000, 0.000000000000000000, 0.000000000000000000 ) ) ;
#162 = EDGE_CURVE ( 'NONE', #17, #246, #156, .T. ) ;
#163 = CARTESIAN_POINT ( 'NONE',  ( -1.250000000000000000, 0.000000000000000000, 1.199999999999999956 ) ) ;
#164 = DIRECTION ( 'NONE',  ( -0.000000000000000000, -0.000000000000000000, -1.000000000000000000 ) ) ;
#165 = DIRECTION ( 'NONE',  ( 0.000000000000000000, 0.000000000000000000, 1.000000000000000000 ) ) ;
#166 = ADVANCED_FACE ( 'NONE', ( #99 ), #113, .T. ) ;
#167 = AXIS2_PLACEMENT_3D ( 'NONE', #55, #157, #141 ) ;
#168 = FACE_OUTER_BOUND ( 'NONE', #176, .T. ) ;
#169 = CLOSED_SHELL ( 'NONE', ( #276, #237, #20, #81, #252, #230, #166, #203, #224 ) ) ;
#170 = DIRECTION ( 'NONE',  ( 1.000000000000000000, 0.000000000000000000, 0.000000000000000000 ) ) ;
#171 = ORIENTED_EDGE ( 'NONE', *, *, #15, .T. ) ;
#172 = DIRECTION ( 'NONE',  ( 0.000000000000000000, 0.000000000000000000, -1.000000000000000000 ) ) ;
#173 = ORIENTED_EDGE ( 'NONE', *, *, #206, .T. ) ;
#174 = EDGE_CURVE ( 'NONE', #116, #296, #307, .T. ) ;
#175 = DIRECTION ( 'NONE',  ( 0.000000000000000000, 0.000000000000000000, 1.000000000000000000 ) ) ;
#176 = EDGE_LOOP ( 'NONE', ( #254, #231, #299, #104 ) ) ;
#177 = CALENDAR_DATE ( 2022, 20, 6 ) ;
#178 = ORIENTED_EDGE ( 'NONE', *, *, #120, .F. ) ;
#179 = PERSON_AND_ORGANIZATION_ROLE ( 'design_owner' ) ;
#180 = APPROVAL_STATUS ( 'not_yet_approved' ) ;
#181 = PERSON_AND_ORGANIZATION ( #268, #202 ) ;
#182 = AXIS2_PLACEMENT_3D ( 'NONE', #54, #236, #190 ) ;
#183 = CARTESIAN_POINT ( 'NONE',  ( 0.000000000000000000, 0.000000000000000000, 1.199999999999999956 ) ) ;
#184 = FACE_OUTER_BOUND ( 'NONE', #86, .T. ) ;
#185 = CARTESIAN_POINT ( 'NONE',  ( 0.000000000000000000, 0.000000000000000000, 1.199999999999999956 ) ) ;
#186 = CIRCLE ( 'NONE', #19, 0.1999999999999999833 ) ;
#187 = VERTEX_POINT ( 'NONE', #4 ) ;
#188 = AXIS2_PLACEMENT_3D ( 'NONE', #146, #245, #13 ) ;
#189 = CC_DESIGN_APPROVAL ( #3, ( #242 ) ) ;
#190 = DIRECTION ( 'NONE',  ( 1.000000000000000000, 0.000000000000000000, 0.000000000000000000 ) ) ;
#191 = DIRECTION ( 'NONE',  ( 1.000000000000000000, 0.000000000000000000, -0.000000000000000000 ) ) ;
#192 = CC_DESIGN_PERSON_AND_ORGANIZATION_ASSIGNMENT ( #18, #281, ( #27 ) ) ;
#193 = CARTESIAN_POINT ( 'NONE',  ( 0.6999999999999999556, 0.000000000000000000, 1.399999999999998579 ) ) ;
#194 = EDGE_LOOP ( 'NONE', ( #12, #39 ) ) ;
#195 = APPROVAL ( #21, 'NEURÈENÝ' ) ;
#196 = CARTESIAN_POINT ( 'NONE',  ( 0.000000000000000000, 0.000000000000000000, 0.000000000000000000 ) ) ;
#197 = ORIENTED_EDGE ( 'NONE', *, *, #129, .F. ) ;
#198 = PERSON_AND_ORGANIZATION ( #268, #202 ) ;
#199 = ORIENTED_EDGE ( 'NONE', *, *, #162, .F. ) ;
#200 = DATE_AND_TIME ( #258, #208 ) ;
#201 = AXIS2_PLACEMENT_3D ( 'NONE', #193, #85, #172 ) ;
#202 = ORGANIZATION ( 'NEURÈENÝ', 'NEURÈENÝ', '' ) ;
#203 = ADVANCED_FACE ( 'NONE', ( #97 ), #142, .T. ) ;
#204 = CARTESIAN_POINT ( 'NONE',  ( 0.000000000000000000, 0.000000000000000000, 101.2000000000000171 ) ) ;
#205 = SHAPE_DEFINITION_REPRESENTATION ( #150, #235 ) ;
#206 = EDGE_CURVE ( 'NONE', #222, #64, #40, .T. ) ;
#207 = LINE ( 'NONE', #260, #247 ) ;
#208 = LOCAL_TIME ( 12, 26, 47.00000000000000000, #298 ) ;
#209 = DIRECTION ( 'NONE',  ( -1.000000000000000000, 0.000000000000000000, 0.000000000000000000 ) ) ;
#210 = DIRECTION ( 'NONE',  ( 1.224646799147353207E-16, 1.000000000000000000, -0.000000000000000000 ) ) ;
#211 = FACE_OUTER_BOUND ( 'NONE', #271, .T. ) ;
#212 = CARTESIAN_POINT ( 'NONE',  ( -0.5000000000000000000, 0.000000000000000000, 101.2000000000000171 ) ) ;
#213 = CC_DESIGN_PERSON_AND_ORGANIZATION_ASSIGNMENT ( #306, #179, ( #130 ) ) ;
#214 = AXIS2_PLACEMENT_3D ( 'NONE', #204, #140, #209 ) ;
#215 = MANIFOLD_SOLID_BREP ( 'Zaoblit1', #169 ) ;
#216 = DIRECTION ( 'NONE',  ( -0.000000000000000000, -0.000000000000000000, -1.000000000000000000 ) ) ;
#217 = VERTEX_POINT ( 'NONE', #149 ) ;
#218 = CIRCLE ( 'NONE', #167, 1.250000000000000000 ) ;
#219 = FACE_OUTER_BOUND ( 'NONE', #274, .T. ) ;
#220 = ORIENTED_EDGE ( 'NONE', *, *, #117, .T. ) ;
#221 = CARTESIAN_POINT ( 'NONE',  ( 1.250000000000000000, 1.530808498934191571E-16, 0.000000000000000000 ) ) ;
#222 = VERTEX_POINT ( 'NONE', #33 ) ;
#223 = DATE_AND_TIME ( #110, #269 ) ;
#224 = ADVANCED_FACE ( 'NONE', ( #249 ), #134, .F. ) ;
#225 = APPLICATION_PROTOCOL_DEFINITION ( 'international standard', 'config_control_design', 1994, #101 ) ;
#226 = AXIS2_PLACEMENT_3D ( 'NONE', #239, #38, #8 ) ;
#227 = DATE_TIME_ROLE ( 'creation_date' ) ;
#228 = CYLINDRICAL_SURFACE ( 'NONE', #264, 1.250000000000000000 ) ;
#229 = APPROVAL_DATE_TIME ( #49, #84 ) ;
#230 = ADVANCED_FACE ( 'NONE', ( #272 ), #56, .F. ) ;
#231 = ORIENTED_EDGE ( 'NONE', *, *, #67, .T. ) ;
#232 = AXIS2_PLACEMENT_3D ( 'NONE', #238, #111, #112 ) ;
#233 = AXIS2_PLACEMENT_3D ( 'NONE', #243, #175, #191 ) ;
#234 = DIRECTION ( 'NONE',  ( 1.000000000000000000, 0.000000000000000000, 0.000000000000000000 ) ) ;
#235 = ADVANCED_BREP_SHAPE_REPRESENTATION ( '5d84', ( #215, #278 ), #143 ) ;
#236 = DIRECTION ( 'NONE',  ( -0.000000000000000000, -0.000000000000000000, -1.000000000000000000 ) ) ;
#237 = ADVANCED_FACE ( 'NONE', ( #168 ), #270, .T. ) ;
#238 = CARTESIAN_POINT ( 'NONE',  ( 0.000000000000000000, 0.000000000000000000, 1.399999999999998579 ) ) ;
#239 = CARTESIAN_POINT ( 'NONE',  ( 0.000000000000000000, 0.000000000000000000, 101.2000000000000171 ) ) ;
#240 = CIRCLE ( 'NONE', #188, 1.250000000000000000 ) ;
#241 = CC_DESIGN_SECURITY_CLASSIFICATION ( #80, ( #27 ) ) ;
#242 = PRODUCT_DEFINITION ( 'NEZNÁMÝ', '', #27, #132 ) ;
#243 = CARTESIAN_POINT ( 'NONE',  ( 0.000000000000000000, 0.000000000000000000, 1.199999999999999956 ) ) ;
#244 = VERTEX_POINT ( 'NONE', #221 ) ;
#245 = DIRECTION ( 'NONE',  ( 0.000000000000000000, 0.000000000000000000, 1.000000000000000000 ) ) ;
#246 = VERTEX_POINT ( 'NONE', #11 ) ;
#247 = VECTOR ( 'NONE', #138, 1000.000000000000000 ) ;
#248 = AXIS2_PLACEMENT_3D ( 'NONE', #35, #263, #118 ) ;
#249 = FACE_OUTER_BOUND ( 'NONE', #108, .T. ) ;
#250 = ORIENTED_EDGE ( 'NONE', *, *, #62, .T. ) ;
#251 = APPROVAL_DATE_TIME ( #223, #195 ) ;
#252 = ADVANCED_FACE ( 'NONE', ( #144, #219 ), #100, .T. ) ;
#253 = PERSON_AND_ORGANIZATION ( #268, #202 ) ;
#254 = ORIENTED_EDGE ( 'NONE', *, *, #267, .F. ) ;
#255 = EDGE_CURVE ( 'NONE', #17, #187, #265, .T. ) ;
#256 = COORDINATED_UNIVERSAL_TIME_OFFSET ( 1, 0, .AHEAD. ) ;
#257 = LINE ( 'NONE', #163, #300 ) ;
#258 = CALENDAR_DATE ( 2022, 20, 6 ) ;
#259 = DIRECTION ( 'NONE',  ( -0.000000000000000000, -0.000000000000000000, -1.000000000000000000 ) ) ;
#260 = CARTESIAN_POINT ( 'NONE',  ( 1.250000000000000000, 1.530808498934191571E-16, 1.199999999999999956 ) ) ;
#261 = CARTESIAN_POINT ( 'NONE',  ( -1.250000000000000000, 0.000000000000000000, 0.000000000000000000 ) ) ;
#262 = ORIENTED_EDGE ( 'NONE', *, *, #28, .F. ) ;
#263 = DIRECTION ( 'NONE',  ( -0.000000000000000000, -0.000000000000000000, -1.000000000000000000 ) ) ;
#264 = AXIS2_PLACEMENT_3D ( 'NONE', #185, #23, #159 ) ;
#265 = LINE ( 'NONE', #212, #98 ) ;
#266 = APPROVAL_PERSON_ORGANIZATION ( #181, #84, #70 ) ;
#267 = EDGE_CURVE ( 'NONE', #246, #17, #9, .T. ) ;
#268 = PERSON ( 'NEURÈENÝ', 'NEURÈENÝ', 'NEURÈENÝ', ('NEURÈENÝ'), ('NEURÈENÝ'), ('NEURÈENÝ') ) ;
#269 = LOCAL_TIME ( 12, 26, 47.00000000000000000, #152 ) ;
#270 = CYLINDRICAL_SURFACE ( 'NONE', #248, 0.5000000000000000000 ) ;
#271 = EDGE_LOOP ( 'NONE', ( #178, #145, #36, #51 ) ) ;
#272 = FACE_OUTER_BOUND ( 'NONE', #147, .T. ) ;
#273 = ORIENTED_EDGE ( 'NONE', *, *, #255, .T. ) ;
#274 = EDGE_LOOP ( 'NONE', ( #220, #173 ) ) ;
#275 = AXIS2_PLACEMENT_3D ( 'NONE', #121, #294, #82 ) ;
#276 = ADVANCED_FACE ( 'NONE', ( #16 ), #53, .F. ) ;
#277 = PERSON_AND_ORGANIZATION ( #268, #202 ) ;
#278 = AXIS2_PLACEMENT_3D ( 'NONE', #303, #282, #22 ) ;
#279 = APPROVAL_DATE_TIME ( #155, #3 ) ;
#280 = UNCERTAINTY_MEASURE_WITH_UNIT (LENGTH_MEASURE( 1.000000000000000082E-05 ), #87, 'distance_accuracy_value', 'NONE');
#281 = PERSON_AND_ORGANIZATION_ROLE ( 'design_supplier' ) ;
#282 = DIRECTION ( 'NONE',  ( 0.000000000000000000, 0.000000000000000000, 1.000000000000000000 ) ) ;
#283 = DIRECTION ( 'NONE',  ( -1.000000000000000000, 1.224646799147352714E-16, 0.000000000000000000 ) ) ;
#284 = PERSON_AND_ORGANIZATION ( #268, #202 ) ;
#285 = DIRECTION ( 'NONE',  ( 0.000000000000000000, 0.000000000000000000, 1.000000000000000000 ) ) ;
#286 = DIRECTION ( 'NONE',  ( 0.000000000000000000, 0.000000000000000000, 1.000000000000000000 ) ) ;
#287 = VECTOR ( 'NONE', #164, 1000.000000000000000 ) ;
#288 = CC_DESIGN_PERSON_AND_ORGANIZATION_ASSIGNMENT ( #253, #133, ( #27 ) ) ;
#289 = DIRECTION ( 'NONE',  ( -0.000000000000000000, -0.000000000000000000, -1.000000000000000000 ) ) ;
#290 = LOCAL_TIME ( 12, 26, 47.00000000000000000, #256 ) ;
#291 = DIRECTION ( 'NONE',  ( 0.000000000000000000, 0.000000000000000000, 1.000000000000000000 ) ) ;
#292 = EDGE_CURVE ( 'NONE', #217, #116, #34, .T. ) ;
#293 = CIRCLE ( 'NONE', #232, 0.5000000000000000000 ) ;
#294 = DIRECTION ( 'NONE',  ( 0.000000000000000000, 0.000000000000000000, 1.000000000000000000 ) ) ;
#295 = ORIENTED_EDGE ( 'NONE', *, *, #77, .T. ) ;
#296 = VERTEX_POINT ( 'NONE', #63 ) ;
#297 = EDGE_CURVE ( 'NONE', #75, #244, #240, .T. ) ;
#298 = COORDINATED_UNIVERSAL_TIME_OFFSET ( 1, 0, .AHEAD. ) ;
#299 = ORIENTED_EDGE ( 'NONE', *, *, #72, .T. ) ;
#300 = VECTOR ( 'NONE', #71, 1000.000000000000000 ) ;
#301 = AXIS2_PLACEMENT_3D ( 'NONE', #103, #107, #170 ) ;
#302 = APPROVAL_STATUS ( 'not_yet_approved' ) ;
#303 = CARTESIAN_POINT ( 'NONE',  ( 0.000000000000000000, 0.000000000000000000, 0.000000000000000000 ) ) ;
#304 = CALENDAR_DATE ( 2022, 20, 6 ) ;
#305 = EDGE_LOOP ( 'NONE', ( #197, #171, #151, #30 ) ) ;
#306 = PERSON_AND_ORGANIZATION ( #268, #202 ) ;
#307 = CIRCLE ( 'NONE', #182, 0.6999999999999999556 ) ;
ENDSEC;
END-ISO-10303-21;
