ISO-10303-21;
HEADER;
FILE_DESCRIPTION (( 'STEP AP203' ),
    '1' );
FILE_NAME ('327e.STEP',
    '2022-06-20T09:57:49',
    ( '' ),
    ( '' ),
    'SwSTEP 2.0',
    'SolidWorks 2019',
    '' );
FILE_SCHEMA (( 'CONFIG_CONTROL_DESIGN' ));
ENDSEC;

DATA;
#1 = VECTOR ( 'NONE', #74, 1000.000000000000000 ) ;
#2 = PERSON_AND_ORGANIZATION_ROLE ( 'design_owner' ) ;
#3 = DATE_TIME_ROLE ( 'creation_date' ) ;
#4 = CIRCLE ( 'NONE', #96, 3.000000000000000444 ) ;
#5 = DIRECTION ( 'NONE',  ( 0.000000000000000000, 0.000000000000000000, 1.000000000000000000 ) ) ;
#6 = AXIS2_PLACEMENT_3D ( 'NONE', #194, #212, #49 ) ;
#7 = EDGE_LOOP ( 'NONE', ( #280, #154, #53, #127 ) ) ;
#8 = EDGE_LOOP ( 'NONE', ( #266, #134 ) ) ;
#9 = AXIS2_PLACEMENT_3D ( 'NONE', #187, #297, #87 ) ;
#10 = COORDINATED_UNIVERSAL_TIME_OFFSET ( 1, 0, .AHEAD. ) ;
#11 = EDGE_LOOP ( 'NONE', ( #228, #222, #246, #140 ) ) ;
#12 = CARTESIAN_POINT ( 'NONE',  ( -6.000000000000000888, 0.000000000000000000, 0.000000000000000000 ) ) ;
#13 = LOCAL_TIME ( 11, 57, 49.00000000000000000, #137 ) ;
#14 = PERSON_AND_ORGANIZATION ( #208, #85 ) ;
#15 = ORIENTED_EDGE ( 'NONE', *, *, #240, .T. ) ;
#16 = ADVANCED_FACE ( 'NONE', ( #300 ), #108, .F. ) ;
#17 = DIRECTION ( 'NONE',  ( 1.000000000000000000, 0.000000000000000000, 0.000000000000000000 ) ) ;
#18 = APPLICATION_CONTEXT ( 'configuration controlled 3d designs of mechanical parts and assemblies' ) ;
#19 = CYLINDRICAL_SURFACE ( 'NONE', #144, 6.000000000000000888 ) ;
#20 = MANIFOLD_SOLID_BREP ( 'Zaoblit1', #78 ) ;
#21 = DIRECTION ( 'NONE',  ( 1.000000000000000000, 0.000000000000000000, 0.000000000000000000 ) ) ;
#22 = DIRECTION ( 'NONE',  ( 1.000000000000000000, 0.000000000000000000, -0.000000000000000000 ) ) ;
#23 = FACE_OUTER_BOUND ( 'NONE', #220, .T. ) ;
#24 = EDGE_CURVE ( 'NONE', #138, #35, #63, .T. ) ;
#25 = MECHANICAL_CONTEXT ( 'NONE', #18, 'mechanical' ) ;
#26 = DATE_AND_TIME ( #77, #100 ) ;
#27 = DIRECTION ( 'NONE',  ( 1.000000000000000000, 0.000000000000000000, 0.000000000000000000 ) ) ;
#28 = AXIS2_PLACEMENT_3D ( 'NONE', #242, #198, #199 ) ;
#29 = CALENDAR_DATE ( 2022, 20, 6 ) ;
#30 = ORIENTED_EDGE ( 'NONE', *, *, #263, .T. ) ;
#31 = CC_DESIGN_PERSON_AND_ORGANIZATION_ASSIGNMENT ( #42, #230, ( #139 ) ) ;
#32 = LINE ( 'NONE', #155, #1 ) ;
#33 = DESIGN_CONTEXT ( 'detailed design', #247, 'design' ) ;
#34 = CALENDAR_DATE ( 2022, 20, 6 ) ;
#35 = VERTEX_POINT ( 'NONE', #12 ) ;
#36 = CC_DESIGN_SECURITY_CLASSIFICATION ( #52, ( #139 ) ) ;
#37 = CC_DESIGN_PERSON_AND_ORGANIZATION_ASSIGNMENT ( #14, #135, ( #52 ) ) ;
#38 = CARTESIAN_POINT ( 'NONE',  ( 0.000000000000000000, 0.000000000000000000, 505.0000000000000000 ) ) ;
#39 = EDGE_LOOP ( 'NONE', ( #295, #277, #43, #224 ) ) ;
#40 = DATE_AND_TIME ( #34, #195 ) ;
#41 = EDGE_LOOP ( 'NONE', ( #269, #291 ) ) ;
#42 = PERSON_AND_ORGANIZATION ( #208, #85 ) ;
#43 = ORIENTED_EDGE ( 'NONE', *, *, #125, .T. ) ;
#44 =( GEOMETRIC_REPRESENTATION_CONTEXT ( 3 ) GLOBAL_UNCERTAINTY_ASSIGNED_CONTEXT ( ( #130 ) ) GLOBAL_UNIT_ASSIGNED_CONTEXT ( ( #58, #270, #292 ) ) REPRESENTATION_CONTEXT ( 'NONE', 'WORKASPACE' ) );
#45 = DIRECTION ( 'NONE',  ( 1.000000000000000000, 0.000000000000000000, 0.000000000000000000 ) ) ;
#46 = FACE_BOUND ( 'NONE', #8, .T. ) ;
#47 = CARTESIAN_POINT ( 'NONE',  ( 3.000000000000000444, 3.673940397442060361E-16, 505.0000000000000000 ) ) ;
#48 = AXIS2_PLACEMENT_3D ( 'NONE', #256, #99, #17 ) ;
#49 = DIRECTION ( 'NONE',  ( 1.000000000000000000, 0.000000000000000000, -0.000000000000000000 ) ) ;
#50 = CARTESIAN_POINT ( 'NONE',  ( -6.000000000000000888, 0.000000000000000000, 5.000000000000000000 ) ) ;
#51 = CYLINDRICAL_SURFACE ( 'NONE', #28, 3.000000000000000444 ) ;
#52 = SECURITY_CLASSIFICATION ( '', '', #221 ) ;
#53 = ORIENTED_EDGE ( 'NONE', *, *, #24, .T. ) ;
#54 = CIRCLE ( 'NONE', #226, 0.2000000000000000944 ) ;
#55 = PERSON_AND_ORGANIZATION ( #208, #85 ) ;
#56 = CC_DESIGN_DATE_AND_TIME_ASSIGNMENT ( #181, #59, ( #52 ) ) ;
#57 = CIRCLE ( 'NONE', #223, 6.000000000000000888 ) ;
#58 =( LENGTH_UNIT ( ) NAMED_UNIT ( * ) SI_UNIT ( .MILLI., .METRE. ) );
#59 = DATE_TIME_ROLE ( 'classification_date' ) ;
#60 = AXIS2_PLACEMENT_3D ( 'NONE', #296, #84, #109 ) ;
#61 = DIRECTION ( 'NONE',  ( -1.000000000000000000, 0.000000000000000000, 0.000000000000000000 ) ) ;
#62 = CIRCLE ( 'NONE', #93, 6.000000000000000888 ) ;
#63 = LINE ( 'NONE', #161, #123 ) ;
#64 = DATE_AND_TIME ( #254, #156 ) ;
#65 = DIRECTION ( 'NONE',  ( -0.000000000000000000, -0.000000000000000000, -1.000000000000000000 ) ) ;
#66 = ADVANCED_BREP_SHAPE_REPRESENTATION ( '327e', ( #20, #81 ), #44 ) ;
#67 = ORIENTED_EDGE ( 'NONE', *, *, #141, .F. ) ;
#68 = CARTESIAN_POINT ( 'NONE',  ( 0.000000000000000000, 0.000000000000000000, 5.199999999999982414 ) ) ;
#69 = DIRECTION ( 'NONE',  ( 0.000000000000000000, 0.000000000000000000, 1.000000000000000000 ) ) ;
#70 = CARTESIAN_POINT ( 'NONE',  ( -3.000000000000000444, 0.000000000000000000, 505.0000000000000000 ) ) ;
#71 = DIRECTION ( 'NONE',  ( -1.000000000000000000, 0.000000000000000000, 0.000000000000000000 ) ) ;
#72 = CARTESIAN_POINT ( 'NONE',  ( -3.000000000000000444, 0.000000000000000000, 5.199999999999982414 ) ) ;
#73 = EDGE_CURVE ( 'NONE', #179, #177, #278, .T. ) ;
#74 = DIRECTION ( 'NONE',  ( -0.000000000000000000, -0.000000000000000000, -1.000000000000000000 ) ) ;
#75 = ORIENTED_EDGE ( 'NONE', *, *, #94, .T. ) ;
#76 = EDGE_CURVE ( 'NONE', #126, #91, #4, .T. ) ;
#77 = CALENDAR_DATE ( 2022, 20, 6 ) ;
#78 = CLOSED_SHELL ( 'NONE', ( #282, #105, #253, #205, #129, #112, #287, #173, #16 ) ) ;
#79 = EDGE_LOOP ( 'NONE', ( #182, #30 ) ) ;
#80 = APPROVAL_ROLE ( '' ) ;
#81 = AXIS2_PLACEMENT_3D ( 'NONE', #290, #293, #106 ) ;
#82 = DIRECTION ( 'NONE',  ( -0.000000000000000000, -0.000000000000000000, -1.000000000000000000 ) ) ;
#83 = PERSON_AND_ORGANIZATION ( #208, #85 ) ;
#84 = DIRECTION ( 'NONE',  ( 0.000000000000000000, 0.000000000000000000, 1.000000000000000000 ) ) ;
#85 = ORGANIZATION ( 'NEURÈENÝ', 'NEURÈENÝ', '' ) ;
#86 = PERSON_AND_ORGANIZATION_ROLE ( 'design_supplier' ) ;
#87 = DIRECTION ( 'NONE',  ( 1.000000000000000000, 0.000000000000000000, 0.000000000000000000 ) ) ;
#88 = APPROVAL_DATE_TIME ( #64, #102 ) ;
#89 = CC_DESIGN_PERSON_AND_ORGANIZATION_ASSIGNMENT ( #176, #244, ( #150 ) ) ;
#90 = DIRECTION ( 'NONE',  ( -0.000000000000000000, -0.000000000000000000, -1.000000000000000000 ) ) ;
#91 = VERTEX_POINT ( 'NONE', #185 ) ;
#92 = DIRECTION ( 'NONE',  ( 0.000000000000000000, -1.000000000000000000, 0.000000000000000000 ) ) ;
#93 = AXIS2_PLACEMENT_3D ( 'NONE', #261, #237, #21 ) ;
#94 = EDGE_CURVE ( 'NONE', #131, #35, #152, .T. ) ;
#95 = CARTESIAN_POINT ( 'NONE',  ( 3.200000000000000622, 0.000000000000000000, 4.999999999999991118 ) ) ;
#96 = AXIS2_PLACEMENT_3D ( 'NONE', #227, #157, #206 ) ;
#97 = CIRCLE ( 'NONE', #119, 3.000000000000000444 ) ;
#98 = DIRECTION ( 'NONE',  ( 1.000000000000000000, 0.000000000000000000, 0.000000000000000000 ) ) ;
#99 = DIRECTION ( 'NONE',  ( 0.000000000000000000, 0.000000000000000000, 1.000000000000000000 ) ) ;
#100 = LOCAL_TIME ( 11, 57, 49.00000000000000000, #241 ) ;
#101 = DIRECTION ( 'NONE',  ( -1.000000000000000000, 1.224646799147353207E-16, 0.000000000000000000 ) ) ;
#102 = APPROVAL ( #203, 'NEURÈENÝ' ) ;
#103 = APPLICATION_PROTOCOL_DEFINITION ( 'international standard', 'config_control_design', 1994, #18 ) ;
#104 = CIRCLE ( 'NONE', #48, 3.000000000000000444 ) ;
#105 = ADVANCED_FACE ( 'NONE', ( #279 ), #248, .T. ) ;
#106 = DIRECTION ( 'NONE',  ( 1.000000000000000000, 0.000000000000000000, 0.000000000000000000 ) ) ;
#107 = PERSON_AND_ORGANIZATION ( #208, #85 ) ;
#108 = TOROIDAL_SURFACE ( 'NONE', #60, 3.200000000000000622, 0.2000000000000000111 ) ;
#109 = DIRECTION ( 'NONE',  ( 1.000000000000000000, 0.000000000000000000, 0.000000000000000000 ) ) ;
#110 = ORIENTED_EDGE ( 'NONE', *, *, #146, .T. ) ;
#111 = ORIENTED_EDGE ( 'NONE', *, *, #24, .F. ) ;
#112 = ADVANCED_FACE ( 'NONE', ( #158 ), #162, .F. ) ;
#113 = CC_DESIGN_APPROVAL ( #102, ( #139 ) ) ;
#114 = ORIENTED_EDGE ( 'NONE', *, *, #180, .T. ) ;
#115 = EDGE_LOOP ( 'NONE', ( #250, #15, #75, #111 ) ) ;
#116 = CARTESIAN_POINT ( 'NONE',  ( 6.000000000000000888, 7.347880794884120722E-16, 5.000000000000000000 ) ) ;
#117 = DIRECTION ( 'NONE',  ( -0.000000000000000000, -0.000000000000000000, -1.000000000000000000 ) ) ;
#118 = DIRECTION ( 'NONE',  ( 1.000000000000000000, 0.000000000000000000, -0.000000000000000000 ) ) ;
#119 = AXIS2_PLACEMENT_3D ( 'NONE', #305, #196, #166 ) ;
#120 = DIRECTION ( 'NONE',  ( -1.000000000000000000, 0.000000000000000000, 0.000000000000000000 ) ) ;
#121 = DIRECTION ( 'NONE',  ( 1.224646799147353207E-16, 1.000000000000000000, -0.000000000000000000 ) ) ;
#122 = CARTESIAN_POINT ( 'NONE',  ( 0.000000000000000000, 0.000000000000000000, 5.199999999999982414 ) ) ;
#123 = VECTOR ( 'NONE', #82, 1000.000000000000000 ) ;
#124 = APPROVAL_DATE_TIME ( #26, #273 ) ;
#125 = EDGE_CURVE ( 'NONE', #91, #126, #128, .T. ) ;
#126 = VERTEX_POINT ( 'NONE', #72 ) ;
#127 = ORIENTED_EDGE ( 'NONE', *, *, #294, .T. ) ;
#128 = CIRCLE ( 'NONE', #188, 3.000000000000000444 ) ;
#129 = ADVANCED_FACE ( 'NONE', ( #46, #283 ), #302, .T. ) ;
#130 = UNCERTAINTY_MEASURE_WITH_UNIT (LENGTH_MEASURE( 1.000000000000000082E-05 ), #58, 'distance_accuracy_value', 'NONE');
#131 = VERTEX_POINT ( 'NONE', #260 ) ;
#132 = APPROVAL_PERSON_ORGANIZATION ( #83, #288, #272 ) ;
#133 = SHAPE_DEFINITION_REPRESENTATION ( #175, #66 ) ;
#134 = ORIENTED_EDGE ( 'NONE', *, *, #73, .T. ) ;
#135 = PERSON_AND_ORGANIZATION_ROLE ( 'classification_officer' ) ;
#136 = ORIENTED_EDGE ( 'NONE', *, *, #180, .F. ) ;
#137 = COORDINATED_UNIVERSAL_TIME_OFFSET ( 1, 0, .AHEAD. ) ;
#138 = VERTEX_POINT ( 'NONE', #50 ) ;
#139 = PRODUCT_DEFINITION_FORMATION_WITH_SPECIFIED_SOURCE ( 'LIBOVOLNÝ', '', #239, .NOT_KNOWN. ) ;
#140 = ORIENTED_EDGE ( 'NONE', *, *, #76, .T. ) ;
#141 = EDGE_CURVE ( 'NONE', #126, #179, #54, .T. ) ;
#142 = CARTESIAN_POINT ( 'NONE',  ( 0.000000000000000000, 0.000000000000000000, 5.000000000000000000 ) ) ;
#143 = DIRECTION ( 'NONE',  ( -0.000000000000000000, -0.000000000000000000, -1.000000000000000000 ) ) ;
#144 = AXIS2_PLACEMENT_3D ( 'NONE', #258, #117, #71 ) ;
#145 = CARTESIAN_POINT ( 'NONE',  ( 3.200000000000000622, 0.000000000000000000, 5.199999999999982414 ) ) ;
#146 = EDGE_CURVE ( 'NONE', #202, #211, #97, .T. ) ;
#147 = DIRECTION ( 'NONE',  ( 0.000000000000000000, 0.000000000000000000, 1.000000000000000000 ) ) ;
#148 = CARTESIAN_POINT ( 'NONE',  ( 0.000000000000000000, 0.000000000000000000, 0.000000000000000000 ) ) ;
#149 = CIRCLE ( 'NONE', #271, 3.200000000000000622 ) ;
#150 = PRODUCT_DEFINITION ( 'NEZNÁMÝ', '', #139, #33 ) ;
#151 = APPROVAL_ROLE ( '' ) ;
#152 = CIRCLE ( 'NONE', #9, 6.000000000000000888 ) ;
#153 = FACE_OUTER_BOUND ( 'NONE', #11, .T. ) ;
#154 = ORIENTED_EDGE ( 'NONE', *, *, #229, .F. ) ;
#155 = CARTESIAN_POINT ( 'NONE',  ( 3.000000000000000444, 3.673940397442060361E-16, 505.0000000000000000 ) ) ;
#156 = LOCAL_TIME ( 11, 57, 49.00000000000000000, #225 ) ;
#157 = DIRECTION ( 'NONE',  ( 0.000000000000000000, 0.000000000000000000, 1.000000000000000000 ) ) ;
#158 = FACE_OUTER_BOUND ( 'NONE', #41, .T. ) ;
#159 = AXIS2_PLACEMENT_3D ( 'NONE', #145, #92, #193 ) ;
#160 = CALENDAR_DATE ( 2022, 20, 6 ) ;
#161 = CARTESIAN_POINT ( 'NONE',  ( -6.000000000000000888, 0.000000000000000000, 5.000000000000000000 ) ) ;
#162 = PLANE ( 'NONE',  #262 ) ;
#163 = ORIENTED_EDGE ( 'NONE', *, *, #125, .F. ) ;
#164 = CIRCLE ( 'NONE', #276, 6.000000000000000888 ) ;
#165 = CARTESIAN_POINT ( 'NONE',  ( 0.000000000000000000, 0.000000000000000000, 5.000000000000000000 ) ) ;
#166 = DIRECTION ( 'NONE',  ( 1.000000000000000000, 0.000000000000000000, 0.000000000000000000 ) ) ;
#167 = AXIS2_PLACEMENT_3D ( 'NONE', #204, #90, #274 ) ;
#168 = CARTESIAN_POINT ( 'NONE',  ( -3.200000000000000622, 3.918869757271530953E-16, 5.199999999999982414 ) ) ;
#169 = FACE_OUTER_BOUND ( 'NONE', #275, .T. ) ;
#170 = EDGE_CURVE ( 'NONE', #211, #126, #216, .T. ) ;
#171 = DIRECTION ( 'NONE',  ( 1.000000000000000000, 0.000000000000000000, 0.000000000000000000 ) ) ;
#172 = DIRECTION ( 'NONE',  ( 1.000000000000000000, 0.000000000000000000, 0.000000000000000000 ) ) ;
#173 = ADVANCED_FACE ( 'NONE', ( #23 ), #232, .T. ) ;
#174 = APPLICATION_PROTOCOL_DEFINITION ( 'international standard', 'config_control_design', 1994, #247 ) ;
#175 = PRODUCT_DEFINITION_SHAPE ( 'NONE', 'NONE',  #150 ) ;
#176 = PERSON_AND_ORGANIZATION ( #208, #85 ) ;
#177 = VERTEX_POINT ( 'NONE', #95 ) ;
#178 = CC_DESIGN_PERSON_AND_ORGANIZATION_ASSIGNMENT ( #55, #2, ( #239 ) ) ;
#179 = VERTEX_POINT ( 'NONE', #301 ) ;
#180 = EDGE_CURVE ( 'NONE', #91, #177, #259, .T. ) ;
#181 = DATE_AND_TIME ( #160, #13 ) ;
#182 = ORIENTED_EDGE ( 'NONE', *, *, #229, .T. ) ;
#183 = AXIS2_PLACEMENT_3D ( 'NONE', #165, #238, #120 ) ;
#184 = APPROVAL_DATE_TIME ( #40, #288 ) ;
#185 = CARTESIAN_POINT ( 'NONE',  ( 3.000000000000000444, 3.673940397442060361E-16, 5.199999999999982414 ) ) ;
#186 = APPROVAL_STATUS ( 'not_yet_approved' ) ;
#187 = CARTESIAN_POINT ( 'NONE',  ( 0.000000000000000000, 0.000000000000000000, 0.000000000000000000 ) ) ;
#188 = AXIS2_PLACEMENT_3D ( 'NONE', #68, #197, #98 ) ;
#189 = ORIENTED_EDGE ( 'NONE', *, *, #265, .F. ) ;
#190 = CC_DESIGN_DATE_AND_TIME_ASSIGNMENT ( #219, #3, ( #150 ) ) ;
#191 = CC_DESIGN_APPROVAL ( #273, ( #150 ) ) ;
#192 = LINE ( 'NONE', #116, #200 ) ;
#193 = DIRECTION ( 'NONE',  ( 0.000000000000000000, 0.000000000000000000, -1.000000000000000000 ) ) ;
#194 = CARTESIAN_POINT ( 'NONE',  ( 0.000000000000000000, 0.000000000000000000, 505.0000000000000000 ) ) ;
#195 = LOCAL_TIME ( 11, 57, 49.00000000000000000, #10 ) ;
#196 = DIRECTION ( 'NONE',  ( 0.000000000000000000, 0.000000000000000000, 1.000000000000000000 ) ) ;
#197 = DIRECTION ( 'NONE',  ( 0.000000000000000000, 0.000000000000000000, 1.000000000000000000 ) ) ;
#198 = DIRECTION ( 'NONE',  ( -0.000000000000000000, -0.000000000000000000, -1.000000000000000000 ) ) ;
#199 = DIRECTION ( 'NONE',  ( -1.000000000000000000, 0.000000000000000000, 0.000000000000000000 ) ) ;
#200 = VECTOR ( 'NONE', #257, 1000.000000000000000 ) ;
#201 = APPROVAL_STATUS ( 'not_yet_approved' ) ;
#202 = VERTEX_POINT ( 'NONE', #47 ) ;
#203 = APPROVAL_STATUS ( 'not_yet_approved' ) ;
#204 = CARTESIAN_POINT ( 'NONE',  ( 0.000000000000000000, 0.000000000000000000, 5.000000000000000000 ) ) ;
#205 = ADVANCED_FACE ( 'NONE', ( #217 ), #307, .T. ) ;
#206 = DIRECTION ( 'NONE',  ( 1.000000000000000000, 0.000000000000000000, 0.000000000000000000 ) ) ;
#207 = LOCAL_TIME ( 11, 57, 49.00000000000000000, #218 ) ;
#208 = PERSON ( 'NEURÈENÝ', 'NEURÈENÝ', 'NEURÈENÝ', ('NEURÈENÝ'), ('NEURÈENÝ'), ('NEURÈENÝ') ) ;
#209 = ORIENTED_EDGE ( 'NONE', *, *, #76, .F. ) ;
#210 = PRODUCT_RELATED_PRODUCT_CATEGORY ( 'detail', '', ( #239 ) ) ;
#211 = VERTEX_POINT ( 'NONE', #215 ) ;
#212 = DIRECTION ( 'NONE',  ( 0.000000000000000000, 0.000000000000000000, 1.000000000000000000 ) ) ;
#213 = CARTESIAN_POINT ( 'NONE',  ( 6.000000000000000888, 7.347880794884120722E-16, 5.000000000000000000 ) ) ;
#214 = CC_DESIGN_PERSON_AND_ORGANIZATION_ASSIGNMENT ( #251, #86, ( #139 ) ) ;
#215 = CARTESIAN_POINT ( 'NONE',  ( -3.000000000000000444, 0.000000000000000000, 505.0000000000000000 ) ) ;
#216 = LINE ( 'NONE', #70, #289 ) ;
#217 = FACE_OUTER_BOUND ( 'NONE', #7, .T. ) ;
#218 = COORDINATED_UNIVERSAL_TIME_OFFSET ( 1, 0, .AHEAD. ) ;
#219 = DATE_AND_TIME ( #29, #207 ) ;
#220 = EDGE_LOOP ( 'NONE', ( #231, #110 ) ) ;
#221 = SECURITY_CLASSIFICATION_LEVEL ( 'unclassified' ) ;
#222 = ORIENTED_EDGE ( 'NONE', *, *, #235, .F. ) ;
#223 = AXIS2_PLACEMENT_3D ( 'NONE', #303, #284, #45 ) ;
#224 = ORIENTED_EDGE ( 'NONE', *, *, #170, .F. ) ;
#225 = COORDINATED_UNIVERSAL_TIME_OFFSET ( 1, 0, .AHEAD. ) ;
#226 = AXIS2_PLACEMENT_3D ( 'NONE', #168, #121, #101 ) ;
#227 = CARTESIAN_POINT ( 'NONE',  ( 0.000000000000000000, 0.000000000000000000, 5.199999999999982414 ) ) ;
#228 = ORIENTED_EDGE ( 'NONE', *, *, #304, .F. ) ;
#229 = EDGE_CURVE ( 'NONE', #138, #255, #57, .T. ) ;
#230 = PERSON_AND_ORGANIZATION_ROLE ( 'creator' ) ;
#231 = ORIENTED_EDGE ( 'NONE', *, *, #235, .T. ) ;
#232 = PLANE ( 'NONE',  #6 ) ;
#233 = AXIS2_PLACEMENT_3D ( 'NONE', #142, #69, #118 ) ;
#234 = FACE_OUTER_BOUND ( 'NONE', #115, .T. ) ;
#235 = EDGE_CURVE ( 'NONE', #211, #202, #104, .T. ) ;
#236 = AXIS2_PLACEMENT_3D ( 'NONE', #122, #268, #172 ) ;
#237 = DIRECTION ( 'NONE',  ( 0.000000000000000000, 0.000000000000000000, 1.000000000000000000 ) ) ;
#238 = DIRECTION ( 'NONE',  ( -0.000000000000000000, -0.000000000000000000, -1.000000000000000000 ) ) ;
#239 = PRODUCT ( '327e', '327e', '', ( #25 ) ) ;
#240 = EDGE_CURVE ( 'NONE', #255, #131, #192, .T. ) ;
#241 = COORDINATED_UNIVERSAL_TIME_OFFSET ( 1, 0, .AHEAD. ) ;
#242 = CARTESIAN_POINT ( 'NONE',  ( 0.000000000000000000, 0.000000000000000000, 505.0000000000000000 ) ) ;
#243 = ORIENTED_EDGE ( 'NONE', *, *, #73, .F. ) ;
#244 = PERSON_AND_ORGANIZATION_ROLE ( 'creator' ) ;
#245 = APPROVAL_PERSON_ORGANIZATION ( #107, #102, #80 ) ;
#246 = ORIENTED_EDGE ( 'NONE', *, *, #170, .T. ) ;
#247 = APPLICATION_CONTEXT ( 'configuration controlled 3d designs of mechanical parts and assemblies' ) ;
#248 = CYLINDRICAL_SURFACE ( 'NONE', #267, 3.000000000000000444 ) ;
#249 = ORIENTED_EDGE ( 'NONE', *, *, #141, .T. ) ;
#250 = ORIENTED_EDGE ( 'NONE', *, *, #263, .F. ) ;
#251 = PERSON_AND_ORGANIZATION ( #208, #85 ) ;
#252 = CARTESIAN_POINT ( 'NONE',  ( 0.000000000000000000, 0.000000000000000000, 0.000000000000000000 ) ) ;
#253 = ADVANCED_FACE ( 'NONE', ( #234 ), #19, .T. ) ;
#254 = CALENDAR_DATE ( 2022, 20, 6 ) ;
#255 = VERTEX_POINT ( 'NONE', #213 ) ;
#256 = CARTESIAN_POINT ( 'NONE',  ( 0.000000000000000000, 0.000000000000000000, 505.0000000000000000 ) ) ;
#257 = DIRECTION ( 'NONE',  ( -0.000000000000000000, -0.000000000000000000, -1.000000000000000000 ) ) ;
#258 = CARTESIAN_POINT ( 'NONE',  ( 0.000000000000000000, 0.000000000000000000, 5.000000000000000000 ) ) ;
#259 = CIRCLE ( 'NONE', #159, 0.1999999999999996503 ) ;
#260 = CARTESIAN_POINT ( 'NONE',  ( 6.000000000000000888, 7.347880794884120722E-16, 0.000000000000000000 ) ) ;
#261 = CARTESIAN_POINT ( 'NONE',  ( 0.000000000000000000, 0.000000000000000000, 5.000000000000000000 ) ) ;
#262 = AXIS2_PLACEMENT_3D ( 'NONE', #252, #147, #22 ) ;
#263 = EDGE_CURVE ( 'NONE', #255, #138, #62, .T. ) ;
#264 = PERSON_AND_ORGANIZATION ( #208, #85 ) ;
#265 = EDGE_CURVE ( 'NONE', #177, #179, #149, .T. ) ;
#266 = ORIENTED_EDGE ( 'NONE', *, *, #265, .T. ) ;
#267 = AXIS2_PLACEMENT_3D ( 'NONE', #38, #65, #61 ) ;
#268 = DIRECTION ( 'NONE',  ( 0.000000000000000000, 0.000000000000000000, 1.000000000000000000 ) ) ;
#269 = ORIENTED_EDGE ( 'NONE', *, *, #294, .F. ) ;
#270 =( NAMED_UNIT ( * ) PLANE_ANGLE_UNIT ( ) SI_UNIT ( $, .RADIAN. ) );
#271 = AXIS2_PLACEMENT_3D ( 'NONE', #285, #286, #171 ) ;
#272 = APPROVAL_ROLE ( '' ) ;
#273 = APPROVAL ( #201, 'NEURÈENÝ' ) ;
#274 = DIRECTION ( 'NONE',  ( 1.000000000000000000, 0.000000000000000000, 0.000000000000000000 ) ) ;
#275 = EDGE_LOOP ( 'NONE', ( #209, #249, #189, #136 ) ) ;
#276 = AXIS2_PLACEMENT_3D ( 'NONE', #148, #5, #27 ) ;
#277 = ORIENTED_EDGE ( 'NONE', *, *, #304, .T. ) ;
#278 = CIRCLE ( 'NONE', #167, 3.200000000000000622 ) ;
#279 = FACE_OUTER_BOUND ( 'NONE', #39, .T. ) ;
#280 = ORIENTED_EDGE ( 'NONE', *, *, #240, .F. ) ;
#281 = TOROIDAL_SURFACE ( 'NONE', #236, 3.200000000000000622, 0.2000000000000000111 ) ;
#282 = ADVANCED_FACE ( 'NONE', ( #169 ), #281, .F. ) ;
#283 = FACE_OUTER_BOUND ( 'NONE', #79, .T. ) ;
#284 = DIRECTION ( 'NONE',  ( 0.000000000000000000, 0.000000000000000000, 1.000000000000000000 ) ) ;
#285 = CARTESIAN_POINT ( 'NONE',  ( 0.000000000000000000, 0.000000000000000000, 5.000000000000000000 ) ) ;
#286 = DIRECTION ( 'NONE',  ( -0.000000000000000000, -0.000000000000000000, -1.000000000000000000 ) ) ;
#287 = ADVANCED_FACE ( 'NONE', ( #153 ), #51, .T. ) ;
#288 = APPROVAL ( #186, 'NEURÈENÝ' ) ;
#289 = VECTOR ( 'NONE', #143, 1000.000000000000000 ) ;
#290 = CARTESIAN_POINT ( 'NONE',  ( 0.000000000000000000, 0.000000000000000000, 0.000000000000000000 ) ) ;
#291 = ORIENTED_EDGE ( 'NONE', *, *, #94, .F. ) ;
#292 =( NAMED_UNIT ( * ) SI_UNIT ( $, .STERADIAN. ) SOLID_ANGLE_UNIT ( ) );
#293 = DIRECTION ( 'NONE',  ( 0.000000000000000000, 0.000000000000000000, 1.000000000000000000 ) ) ;
#294 = EDGE_CURVE ( 'NONE', #35, #131, #164, .T. ) ;
#295 = ORIENTED_EDGE ( 'NONE', *, *, #146, .F. ) ;
#296 = CARTESIAN_POINT ( 'NONE',  ( 0.000000000000000000, 0.000000000000000000, 5.199999999999982414 ) ) ;
#297 = DIRECTION ( 'NONE',  ( 0.000000000000000000, 0.000000000000000000, 1.000000000000000000 ) ) ;
#298 = APPROVAL_PERSON_ORGANIZATION ( #264, #273, #151 ) ;
#299 = EDGE_LOOP ( 'NONE', ( #67, #163, #114, #243 ) ) ;
#300 = FACE_OUTER_BOUND ( 'NONE', #299, .T. ) ;
#301 = CARTESIAN_POINT ( 'NONE',  ( -3.200000000000000622, 3.918869757271530953E-16, 4.999999999999991118 ) ) ;
#302 = PLANE ( 'NONE',  #233 ) ;
#303 = CARTESIAN_POINT ( 'NONE',  ( 0.000000000000000000, 0.000000000000000000, 5.000000000000000000 ) ) ;
#304 = EDGE_CURVE ( 'NONE', #202, #91, #32, .T. ) ;
#305 = CARTESIAN_POINT ( 'NONE',  ( 0.000000000000000000, 0.000000000000000000, 505.0000000000000000 ) ) ;
#306 = CC_DESIGN_APPROVAL ( #288, ( #52 ) ) ;
#307 = CYLINDRICAL_SURFACE ( 'NONE', #183, 6.000000000000000888 ) ;
ENDSEC;
END-ISO-10303-21;
