ISO-10303-21;
HEADER;
FILE_DESCRIPTION (( 'STEP AP203' ),
    '1' );
FILE_NAME ('b913.STEP',
    '2022-06-20T10:14:04',
    ( '' ),
    ( '' ),
    'SwSTEP 2.0',
    'SolidWorks 2019',
    '' );
FILE_SCHEMA (( 'CONFIG_CONTROL_DESIGN' ));
ENDSEC;

DATA;
#1 = DATE_TIME_ROLE ( 'creation_date' ) ;
#2 = CIRCLE ( 'NONE', #216, 1.600000000000000089 ) ;
#3 = SECURITY_CLASSIFICATION ( '', '', #272 ) ;
#4 =( NAMED_UNIT ( * ) SI_UNIT ( $, .STERADIAN. ) SOLID_ANGLE_UNIT ( ) );
#5 = DIRECTION ( 'NONE',  ( 0.000000000000000000, 0.000000000000000000, 1.000000000000000000 ) ) ;
#6 = DIRECTION ( 'NONE',  ( 1.224646799147353207E-16, 1.000000000000000000, -0.000000000000000000 ) ) ;
#7 = LOCAL_TIME ( 12, 14, 4.000000000000000000, #32 ) ;
#8 = ORIENTED_EDGE ( 'NONE', *, *, #59, .T. ) ;
#9 = APPROVAL_DATE_TIME ( #83, #85 ) ;
#10 = ORIENTED_EDGE ( 'NONE', *, *, #77, .T. ) ;
#11 = VERTEX_POINT ( 'NONE', #278 ) ;
#12 = ADVANCED_FACE ( 'NONE', ( #225, #227 ), #152, .T. ) ;
#13 = DIRECTION ( 'NONE',  ( 0.000000000000000000, -1.000000000000000000, 0.000000000000000000 ) ) ;
#14 = ORIENTED_EDGE ( 'NONE', *, *, #188, .F. ) ;
#15 = APPROVAL ( #245, 'NEURÈENÝ' ) ;
#16 = ORIENTED_EDGE ( 'NONE', *, *, #188, .T. ) ;
#17 = CARTESIAN_POINT ( 'NONE',  ( 0.000000000000000000, 0.000000000000000000, 3.199999999999994404 ) ) ;
#18 = PRODUCT ( 'b913', 'b913', '', ( #289 ) ) ;
#19 = CARTESIAN_POINT ( 'NONE',  ( 0.000000000000000000, 0.000000000000000000, 128.0000000000000000 ) ) ;
#20 = CARTESIAN_POINT ( 'NONE',  ( 3.000000000000000444, 3.673940397442060361E-16, 0.000000000000000000 ) ) ;
#21 = EDGE_CURVE ( 'NONE', #199, #297, #304, .T. ) ;
#22 = CARTESIAN_POINT ( 'NONE',  ( 0.000000000000000000, 0.000000000000000000, 128.0000000000000000 ) ) ;
#23 = AXIS2_PLACEMENT_3D ( 'NONE', #22, #47, #120 ) ;
#24 = DIRECTION ( 'NONE',  ( 1.000000000000000000, 0.000000000000000000, -0.000000000000000000 ) ) ;
#25 = CALENDAR_DATE ( 2022, 20, 6 ) ;
#26 = CIRCLE ( 'NONE', #239, 3.000000000000000444 ) ;
#27 = AXIS2_PLACEMENT_3D ( 'NONE', #300, #49, #302 ) ;
#28 = DIRECTION ( 'NONE',  ( 1.000000000000000000, 0.000000000000000000, 0.000000000000000000 ) ) ;
#29 = PERSON_AND_ORGANIZATION_ROLE ( 'design_owner' ) ;
#30 =( NAMED_UNIT ( * ) PLANE_ANGLE_UNIT ( ) SI_UNIT ( $, .RADIAN. ) );
#31 = EDGE_CURVE ( 'NONE', #36, #80, #290, .T. ) ;
#32 = COORDINATED_UNIVERSAL_TIME_OFFSET ( 1, 0, .AHEAD. ) ;
#33 = CALENDAR_DATE ( 2022, 20, 6 ) ;
#34 = VECTOR ( 'NONE', #140, 1000.000000000000000 ) ;
#35 = CIRCLE ( 'NONE', #234, 3.000000000000000444 ) ;
#36 = VERTEX_POINT ( 'NONE', #41 ) ;
#37 = APPLICATION_PROTOCOL_DEFINITION ( 'international standard', 'config_control_design', 1994, #262 ) ;
#38 = DIRECTION ( 'NONE',  ( 1.000000000000000000, 0.000000000000000000, 0.000000000000000000 ) ) ;
#39 = APPROVAL_STATUS ( 'not_yet_approved' ) ;
#40 = DIRECTION ( 'NONE',  ( -0.000000000000000000, -0.000000000000000000, -1.000000000000000000 ) ) ;
#41 = CARTESIAN_POINT ( 'NONE',  ( 1.800000000000000266, 0.000000000000000000, 2.999999999999997335 ) ) ;
#42 = ADVANCED_BREP_SHAPE_REPRESENTATION ( 'b913', ( #136, #267 ), #169 ) ;
#43 = DIRECTION ( 'NONE',  ( 1.000000000000000000, 0.000000000000000000, 0.000000000000000000 ) ) ;
#44 = ORIENTED_EDGE ( 'NONE', *, *, #64, .T. ) ;
#45 = CYLINDRICAL_SURFACE ( 'NONE', #65, 1.600000000000000089 ) ;
#46 = DIRECTION ( 'NONE',  ( -1.000000000000000000, 0.000000000000000000, 0.000000000000000000 ) ) ;
#47 = DIRECTION ( 'NONE',  ( 0.000000000000000000, 0.000000000000000000, 1.000000000000000000 ) ) ;
#48 = ORIENTED_EDGE ( 'NONE', *, *, #31, .T. ) ;
#49 = DIRECTION ( 'NONE',  ( 0.000000000000000000, 0.000000000000000000, 1.000000000000000000 ) ) ;
#50 = CC_DESIGN_PERSON_AND_ORGANIZATION_ASSIGNMENT ( #192, #286, ( #124 ) ) ;
#51 = APPROVAL_PERSON_ORGANIZATION ( #53, #85, #55 ) ;
#52 = DIRECTION ( 'NONE',  ( 0.000000000000000000, 0.000000000000000000, 1.000000000000000000 ) ) ;
#53 = PERSON_AND_ORGANIZATION ( #105, #292 ) ;
#54 = DIRECTION ( 'NONE',  ( -1.000000000000000000, 1.224646799147354686E-16, 0.000000000000000000 ) ) ;
#55 = APPROVAL_ROLE ( '' ) ;
#56 = CARTESIAN_POINT ( 'NONE',  ( 0.000000000000000000, 0.000000000000000000, 0.000000000000000000 ) ) ;
#57 = EDGE_LOOP ( 'NONE', ( #126, #112 ) ) ;
#58 = ORIENTED_EDGE ( 'NONE', *, *, #106, .F. ) ;
#59 = EDGE_CURVE ( 'NONE', #294, #182, #2, .T. ) ;
#60 = ORIENTED_EDGE ( 'NONE', *, *, #165, .F. ) ;
#61 = PRODUCT_DEFINITION_SHAPE ( 'NONE', 'NONE',  #124 ) ;
#62 = CALENDAR_DATE ( 2022, 20, 6 ) ;
#63 = CALENDAR_DATE ( 2022, 20, 6 ) ;
#64 = EDGE_CURVE ( 'NONE', #276, #199, #201, .T. ) ;
#65 = AXIS2_PLACEMENT_3D ( 'NONE', #19, #268, #99 ) ;
#66 = ORIENTED_EDGE ( 'NONE', *, *, #291, .F. ) ;
#67 = DATE_AND_TIME ( #63, #305 ) ;
#68 = CARTESIAN_POINT ( 'NONE',  ( 1.600000000000000089, 1.959434878635765230E-16, 128.0000000000000000 ) ) ;
#69 = AXIS2_PLACEMENT_3D ( 'NONE', #301, #186, #114 ) ;
#70 = CARTESIAN_POINT ( 'NONE',  ( -1.800000000000000266, 2.204364238465236069E-16, 2.999999999999997335 ) ) ;
#71 = CARTESIAN_POINT ( 'NONE',  ( 0.000000000000000000, 0.000000000000000000, 3.199999999999994404 ) ) ;
#72 = FACE_OUTER_BOUND ( 'NONE', #155, .T. ) ;
#73 = CARTESIAN_POINT ( 'NONE',  ( -1.600000000000000089, 0.000000000000000000, 3.199999999999994404 ) ) ;
#74 = APPROVAL ( #39, 'NEURÈENÝ' ) ;
#75 = FACE_OUTER_BOUND ( 'NONE', #110, .T. ) ;
#76 = ORIENTED_EDGE ( 'NONE', *, *, #291, .T. ) ;
#77 = EDGE_CURVE ( 'NONE', #11, #297, #250, .T. ) ;
#78 = CARTESIAN_POINT ( 'NONE',  ( 0.000000000000000000, 0.000000000000000000, 3.000000000000000000 ) ) ;
#79 = AXIS2_PLACEMENT_3D ( 'NONE', #161, #167, #258 ) ;
#80 = VERTEX_POINT ( 'NONE', #70 ) ;
#81 = CC_DESIGN_SECURITY_CLASSIFICATION ( #3, ( #190 ) ) ;
#82 = CC_DESIGN_PERSON_AND_ORGANIZATION_ASSIGNMENT ( #153, #177, ( #190 ) ) ;
#83 = DATE_AND_TIME ( #33, #98 ) ;
#84 = DIRECTION ( 'NONE',  ( 1.000000000000000000, 0.000000000000000000, 0.000000000000000000 ) ) ;
#85 = APPROVAL ( #171, 'NEURÈENÝ' ) ;
#86 = DIRECTION ( 'NONE',  ( 0.000000000000000000, 0.000000000000000000, 1.000000000000000000 ) ) ;
#87 = PERSON_AND_ORGANIZATION ( #105, #292 ) ;
#88 = CIRCLE ( 'NONE', #206, 3.000000000000000444 ) ;
#89 = CARTESIAN_POINT ( 'NONE',  ( 3.000000000000000444, 3.673940397442060361E-16, 3.000000000000000000 ) ) ;
#90 = APPROVAL_DATE_TIME ( #130, #74 ) ;
#91 = ORIENTED_EDGE ( 'NONE', *, *, #137, .F. ) ;
#92 = ORIENTED_EDGE ( 'NONE', *, *, #77, .F. ) ;
#93 = EDGE_LOOP ( 'NONE', ( #134, #14, #10, #76 ) ) ;
#94 = CYLINDRICAL_SURFACE ( 'NONE', #242, 3.000000000000000444 ) ;
#95 = DIRECTION ( 'NONE',  ( 0.000000000000000000, 0.000000000000000000, 1.000000000000000000 ) ) ;
#96 = PRODUCT_RELATED_PRODUCT_CATEGORY ( 'detail', '', ( #18 ) ) ;
#97 = CARTESIAN_POINT ( 'NONE',  ( 1.600000000000000089, 1.959434878635765230E-16, 128.0000000000000000 ) ) ;
#98 = LOCAL_TIME ( 12, 14, 4.000000000000000000, #156 ) ;
#99 = DIRECTION ( 'NONE',  ( -1.000000000000000000, 0.000000000000000000, 0.000000000000000000 ) ) ;
#100 = APPROVAL_DATE_TIME ( #123, #15 ) ;
#101 = FACE_OUTER_BOUND ( 'NONE', #160, .T. ) ;
#102 = CALENDAR_DATE ( 2022, 20, 6 ) ;
#103 = CC_DESIGN_APPROVAL ( #15, ( #124 ) ) ;
#104 = ORIENTED_EDGE ( 'NONE', *, *, #269, .F. ) ;
#105 = PERSON ( 'NEURÈENÝ', 'NEURÈENÝ', 'NEURÈENÝ', ('NEURÈENÝ'), ('NEURÈENÝ'), ('NEURÈENÝ') ) ;
#106 = EDGE_CURVE ( 'NONE', #294, #36, #119, .T. ) ;
#107 = VERTEX_POINT ( 'NONE', #68 ) ;
#108 = DIRECTION ( 'NONE',  ( 1.000000000000000000, 0.000000000000000000, 0.000000000000000000 ) ) ;
#109 = VECTOR ( 'NONE', #111, 1000.000000000000000 ) ;
#110 = EDGE_LOOP ( 'NONE', ( #91, #271, #172, #246 ) ) ;
#111 = DIRECTION ( 'NONE',  ( -0.000000000000000000, -0.000000000000000000, -1.000000000000000000 ) ) ;
#112 = ORIENTED_EDGE ( 'NONE', *, *, #159, .T. ) ;
#113 = AXIS2_PLACEMENT_3D ( 'NONE', #17, #95, #189 ) ;
#114 = DIRECTION ( 'NONE',  ( -1.000000000000000000, 0.000000000000000000, 0.000000000000000000 ) ) ;
#115 = FACE_OUTER_BOUND ( 'NONE', #296, .T. ) ;
#116 = DIRECTION ( 'NONE',  ( -0.000000000000000000, -0.000000000000000000, -1.000000000000000000 ) ) ;
#117 = CYLINDRICAL_SURFACE ( 'NONE', #69, 3.000000000000000444 ) ;
#118 = AXIS2_PLACEMENT_3D ( 'NONE', #287, #237, #263 ) ;
#119 = CIRCLE ( 'NONE', #259, 0.2000000000000000944 ) ;
#120 = DIRECTION ( 'NONE',  ( 1.000000000000000000, 0.000000000000000000, 0.000000000000000000 ) ) ;
#121 = PERSON_AND_ORGANIZATION ( #105, #292 ) ;
#122 = DIRECTION ( 'NONE',  ( 0.000000000000000000, 0.000000000000000000, 1.000000000000000000 ) ) ;
#123 = DATE_AND_TIME ( #102, #7 ) ;
#124 = PRODUCT_DEFINITION ( 'NEZNÁMÝ', '', #190, #196 ) ;
#125 =( LENGTH_UNIT ( ) NAMED_UNIT ( * ) SI_UNIT ( .MILLI., .METRE. ) );
#126 = ORIENTED_EDGE ( 'NONE', *, *, #142, .T. ) ;
#127 = LOCAL_TIME ( 12, 14, 4.000000000000000000, #181 ) ;
#128 = ORIENTED_EDGE ( 'NONE', *, *, #59, .F. ) ;
#129 = DIRECTION ( 'NONE',  ( 0.000000000000000000, 0.000000000000000000, 1.000000000000000000 ) ) ;
#130 = DATE_AND_TIME ( #62, #127 ) ;
#131 = CARTESIAN_POINT ( 'NONE',  ( 1.800000000000000266, 0.000000000000000000, 3.199999999999994404 ) ) ;
#132 = CLOSED_SHELL ( 'NONE', ( #209, #197, #178, #154, #12, #252, #243, #200, #218 ) ) ;
#133 = AXIS2_PLACEMENT_3D ( 'NONE', #138, #116, #166 ) ;
#134 = ORIENTED_EDGE ( 'NONE', *, *, #64, .F. ) ;
#135 = ORIENTED_EDGE ( 'NONE', *, *, #21, .F. ) ;
#136 = MANIFOLD_SOLID_BREP ( 'Zaoblit1', #132 ) ;
#137 = EDGE_CURVE ( 'NONE', #107, #294, #157, .T. ) ;
#138 = CARTESIAN_POINT ( 'NONE',  ( 0.000000000000000000, 0.000000000000000000, 3.000000000000000000 ) ) ;
#139 = DIRECTION ( 'NONE',  ( -0.000000000000000000, -0.000000000000000000, -1.000000000000000000 ) ) ;
#140 = DIRECTION ( 'NONE',  ( -0.000000000000000000, -0.000000000000000000, -1.000000000000000000 ) ) ;
#141 = PLANE ( 'NONE',  #229 ) ;
#142 = EDGE_CURVE ( 'NONE', #205, #107, #168, .T. ) ;
#143 = CARTESIAN_POINT ( 'NONE',  ( 0.000000000000000000, 0.000000000000000000, 3.000000000000000000 ) ) ;
#144 = AXIS2_PLACEMENT_3D ( 'NONE', #207, #164, #24 ) ;
#145 = APPROVAL_ROLE ( '' ) ;
#146 = CARTESIAN_POINT ( 'NONE',  ( -3.000000000000000444, 0.000000000000000000, 0.000000000000000000 ) ) ;
#147 = CC_DESIGN_PERSON_AND_ORGANIZATION_ASSIGNMENT ( #87, #228, ( #190 ) ) ;
#148 = CIRCLE ( 'NONE', #23, 1.600000000000000089 ) ;
#149 = LOCAL_TIME ( 12, 14, 4.000000000000000000, #241 ) ;
#150 = DATE_TIME_ROLE ( 'classification_date' ) ;
#151 = SHAPE_DEFINITION_REPRESENTATION ( #61, #42 ) ;
#152 = PLANE ( 'NONE',  #194 ) ;
#153 = PERSON_AND_ORGANIZATION ( #105, #292 ) ;
#154 = ADVANCED_FACE ( 'NONE', ( #208 ), #94, .T. ) ;
#155 = EDGE_LOOP ( 'NONE', ( #203, #244, #8, #60 ) ) ;
#156 = COORDINATED_UNIVERSAL_TIME_OFFSET ( 1, 0, .AHEAD. ) ;
#157 = LINE ( 'NONE', #97, #162 ) ;
#158 = ORIENTED_EDGE ( 'NONE', *, *, #170, .F. ) ;
#159 = EDGE_CURVE ( 'NONE', #107, #205, #148, .T. ) ;
#160 = EDGE_LOOP ( 'NONE', ( #221, #44, #230, #92 ) ) ;
#161 = CARTESIAN_POINT ( 'NONE',  ( 0.000000000000000000, 0.000000000000000000, 3.199999999999994404 ) ) ;
#162 = VECTOR ( 'NONE', #212, 1000.000000000000000 ) ;
#163 = DIRECTION ( 'NONE',  ( 0.000000000000000000, 0.000000000000000000, 1.000000000000000000 ) ) ;
#164 = DIRECTION ( 'NONE',  ( 0.000000000000000000, 0.000000000000000000, 1.000000000000000000 ) ) ;
#165 = EDGE_CURVE ( 'NONE', #205, #182, #236, .T. ) ;
#166 = DIRECTION ( 'NONE',  ( 1.000000000000000000, 0.000000000000000000, 0.000000000000000000 ) ) ;
#167 = DIRECTION ( 'NONE',  ( 0.000000000000000000, 0.000000000000000000, 1.000000000000000000 ) ) ;
#168 = CIRCLE ( 'NONE', #118, 1.600000000000000089 ) ;
#169 =( GEOMETRIC_REPRESENTATION_CONTEXT ( 3 ) GLOBAL_UNCERTAINTY_ASSIGNED_CONTEXT ( ( #265 ) ) GLOBAL_UNIT_ASSIGNED_CONTEXT ( ( #125, #30, #4 ) ) REPRESENTATION_CONTEXT ( 'NONE', 'WORKASPACE' ) );
#170 = EDGE_CURVE ( 'NONE', #182, #294, #198, .T. ) ;
#171 = APPROVAL_STATUS ( 'not_yet_approved' ) ;
#172 = ORIENTED_EDGE ( 'NONE', *, *, #165, .T. ) ;
#173 = PERSON_AND_ORGANIZATION ( #105, #292 ) ;
#174 = PERSON_AND_ORGANIZATION ( #105, #292 ) ;
#175 = DIRECTION ( 'NONE',  ( 0.000000000000000000, 0.000000000000000000, 1.000000000000000000 ) ) ;
#176 = AXIS2_PLACEMENT_3D ( 'NONE', #180, #86, #43 ) ;
#177 = PERSON_AND_ORGANIZATION_ROLE ( 'design_supplier' ) ;
#178 = ADVANCED_FACE ( 'NONE', ( #101 ), #117, .T. ) ;
#179 = CARTESIAN_POINT ( 'NONE',  ( -3.000000000000000444, 0.000000000000000000, 3.000000000000000000 ) ) ;
#180 = CARTESIAN_POINT ( 'NONE',  ( 0.000000000000000000, 0.000000000000000000, 0.000000000000000000 ) ) ;
#181 = COORDINATED_UNIVERSAL_TIME_OFFSET ( 1, 0, .AHEAD. ) ;
#182 = VERTEX_POINT ( 'NONE', #73 ) ;
#183 = CIRCLE ( 'NONE', #254, 0.1999999999999998723 ) ;
#184 = CARTESIAN_POINT ( 'NONE',  ( 0.000000000000000000, 0.000000000000000000, 3.000000000000000000 ) ) ;
#185 = APPLICATION_CONTEXT ( 'configuration controlled 3d designs of mechanical parts and assemblies' ) ;
#186 = DIRECTION ( 'NONE',  ( -0.000000000000000000, -0.000000000000000000, -1.000000000000000000 ) ) ;
#187 = DIRECTION ( 'NONE',  ( 1.000000000000000000, 0.000000000000000000, 0.000000000000000000 ) ) ;
#188 = EDGE_CURVE ( 'NONE', #11, #276, #26, .T. ) ;
#189 = DIRECTION ( 'NONE',  ( 1.000000000000000000, 0.000000000000000000, 0.000000000000000000 ) ) ;
#190 = PRODUCT_DEFINITION_FORMATION_WITH_SPECIFIED_SOURCE ( 'LIBOVOLNÝ', '', #18, .NOT_KNOWN. ) ;
#191 = DIRECTION ( 'NONE',  ( 1.000000000000000000, 0.000000000000000000, -0.000000000000000000 ) ) ;
#192 = PERSON_AND_ORGANIZATION ( #105, #292 ) ;
#193 = FACE_OUTER_BOUND ( 'NONE', #57, .T. ) ;
#194 = AXIS2_PLACEMENT_3D ( 'NONE', #184, #175, #224 ) ;
#195 = CARTESIAN_POINT ( 'NONE',  ( 1.600000000000000089, 1.959434878635765230E-16, 3.199999999999994404 ) ) ;
#196 = DESIGN_CONTEXT ( 'detailed design', #185, 'design' ) ;
#197 = ADVANCED_FACE ( 'NONE', ( #72 ), #282, .T. ) ;
#198 = CIRCLE ( 'NONE', #113, 1.600000000000000089 ) ;
#199 = VERTEX_POINT ( 'NONE', #20 ) ;
#200 = ADVANCED_FACE ( 'NONE', ( #193 ), #240, .T. ) ;
#201 = LINE ( 'NONE', #89, #109 ) ;
#202 = COORDINATED_UNIVERSAL_TIME_OFFSET ( 1, 0, .AHEAD. ) ;
#203 = ORIENTED_EDGE ( 'NONE', *, *, #159, .F. ) ;
#204 = ORIENTED_EDGE ( 'NONE', *, *, #257, .T. ) ;
#205 = VERTEX_POINT ( 'NONE', #306 ) ;
#206 = AXIS2_PLACEMENT_3D ( 'NONE', #56, #52, #28 ) ;
#207 = CARTESIAN_POINT ( 'NONE',  ( 0.000000000000000000, 0.000000000000000000, 128.0000000000000000 ) ) ;
#208 = FACE_OUTER_BOUND ( 'NONE', #93, .T. ) ;
#209 = ADVANCED_FACE ( 'NONE', ( #235 ), #222, .F. ) ;
#210 = DIRECTION ( 'NONE',  ( 0.000000000000000000, 0.000000000000000000, 1.000000000000000000 ) ) ;
#211 = CARTESIAN_POINT ( 'NONE',  ( 0.000000000000000000, 0.000000000000000000, 3.000000000000000000 ) ) ;
#212 = DIRECTION ( 'NONE',  ( -0.000000000000000000, -0.000000000000000000, -1.000000000000000000 ) ) ;
#213 = DATE_AND_TIME ( #25, #149 ) ;
#214 = CARTESIAN_POINT ( 'NONE',  ( 3.000000000000000444, 3.673940397442060361E-16, 3.000000000000000000 ) ) ;
#215 = CC_DESIGN_DATE_AND_TIME_ASSIGNMENT ( #67, #150, ( #3 ) ) ;
#216 = AXIS2_PLACEMENT_3D ( 'NONE', #71, #129, #108 ) ;
#217 = CIRCLE ( 'NONE', #133, 1.800000000000000266 ) ;
#218 = ADVANCED_FACE ( 'NONE', ( #285 ), #288, .F. ) ;
#219 = DIRECTION ( 'NONE',  ( 1.000000000000000000, 0.000000000000000000, 0.000000000000000000 ) ) ;
#220 = CARTESIAN_POINT ( 'NONE',  ( -1.800000000000000266, 2.204364238465236069E-16, 3.199999999999994404 ) ) ;
#221 = ORIENTED_EDGE ( 'NONE', *, *, #266, .F. ) ;
#222 = TOROIDAL_SURFACE ( 'NONE', #79, 1.800000000000000266, 0.2000000000000000111 ) ;
#223 = APPROVAL_PERSON_ORGANIZATION ( #275, #74, #226 ) ;
#224 = DIRECTION ( 'NONE',  ( 1.000000000000000000, 0.000000000000000000, -0.000000000000000000 ) ) ;
#225 = FACE_BOUND ( 'NONE', #255, .T. ) ;
#226 = APPROVAL_ROLE ( '' ) ;
#227 = FACE_OUTER_BOUND ( 'NONE', #298, .T. ) ;
#228 = PERSON_AND_ORGANIZATION_ROLE ( 'creator' ) ;
#229 = AXIS2_PLACEMENT_3D ( 'NONE', #283, #163, #191 ) ;
#230 = ORIENTED_EDGE ( 'NONE', *, *, #21, .T. ) ;
#231 = ORIENTED_EDGE ( 'NONE', *, *, #266, .T. ) ;
#232 = CARTESIAN_POINT ( 'NONE',  ( 0.000000000000000000, 0.000000000000000000, 0.000000000000000000 ) ) ;
#233 = CARTESIAN_POINT ( 'NONE',  ( -1.600000000000000089, 0.000000000000000000, 128.0000000000000000 ) ) ;
#234 = AXIS2_PLACEMENT_3D ( 'NONE', #143, #122, #84 ) ;
#235 = FACE_OUTER_BOUND ( 'NONE', #247, .T. ) ;
#236 = LINE ( 'NONE', #233, #34 ) ;
#237 = DIRECTION ( 'NONE',  ( 0.000000000000000000, 0.000000000000000000, 1.000000000000000000 ) ) ;
#238 = CC_DESIGN_PERSON_AND_ORGANIZATION_ASSIGNMENT ( #173, #29, ( #18 ) ) ;
#239 = AXIS2_PLACEMENT_3D ( 'NONE', #78, #210, #187 ) ;
#240 = PLANE ( 'NONE',  #144 ) ;
#241 = COORDINATED_UNIVERSAL_TIME_OFFSET ( 1, 0, .AHEAD. ) ;
#242 = AXIS2_PLACEMENT_3D ( 'NONE', #211, #139, #307 ) ;
#243 = ADVANCED_FACE ( 'NONE', ( #75 ), #45, .T. ) ;
#244 = ORIENTED_EDGE ( 'NONE', *, *, #137, .T. ) ;
#245 = APPROVAL_STATUS ( 'not_yet_approved' ) ;
#246 = ORIENTED_EDGE ( 'NONE', *, *, #170, .T. ) ;
#247 = EDGE_LOOP ( 'NONE', ( #158, #303, #281, #58 ) ) ;
#248 = VECTOR ( 'NONE', #40, 1000.000000000000000 ) ;
#249 = DIRECTION ( 'NONE',  ( -0.000000000000000000, -0.000000000000000000, -1.000000000000000000 ) ) ;
#250 = LINE ( 'NONE', #179, #248 ) ;
#251 = ORIENTED_EDGE ( 'NONE', *, *, #106, .T. ) ;
#252 = ADVANCED_FACE ( 'NONE', ( #115 ), #141, .F. ) ;
#253 = AXIS2_PLACEMENT_3D ( 'NONE', #273, #249, #38 ) ;
#254 = AXIS2_PLACEMENT_3D ( 'NONE', #220, #6, #54 ) ;
#255 = EDGE_LOOP ( 'NONE', ( #48, #204 ) ) ;
#256 = EDGE_LOOP ( 'NONE', ( #104, #128, #251, #295 ) ) ;
#257 = EDGE_CURVE ( 'NONE', #80, #36, #217, .T. ) ;
#258 = DIRECTION ( 'NONE',  ( 1.000000000000000000, 0.000000000000000000, 0.000000000000000000 ) ) ;
#259 = AXIS2_PLACEMENT_3D ( 'NONE', #131, #13, #277 ) ;
#260 = CC_DESIGN_PERSON_AND_ORGANIZATION_ASSIGNMENT ( #174, #293, ( #3 ) ) ;
#261 = DIRECTION ( 'NONE',  ( -0.000000000000000000, -0.000000000000000000, -1.000000000000000000 ) ) ;
#262 = APPLICATION_CONTEXT ( 'configuration controlled 3d designs of mechanical parts and assemblies' ) ;
#263 = DIRECTION ( 'NONE',  ( 1.000000000000000000, 0.000000000000000000, 0.000000000000000000 ) ) ;
#264 = CARTESIAN_POINT ( 'NONE',  ( 0.000000000000000000, 0.000000000000000000, 128.0000000000000000 ) ) ;
#265 = UNCERTAINTY_MEASURE_WITH_UNIT (LENGTH_MEASURE( 1.000000000000000082E-05 ), #125, 'distance_accuracy_value', 'NONE');
#266 = EDGE_CURVE ( 'NONE', #276, #11, #35, .T. ) ;
#267 = AXIS2_PLACEMENT_3D ( 'NONE', #232, #5, #219 ) ;
#268 = DIRECTION ( 'NONE',  ( -0.000000000000000000, -0.000000000000000000, -1.000000000000000000 ) ) ;
#269 = EDGE_CURVE ( 'NONE', #182, #80, #183, .T. ) ;
#270 = APPLICATION_PROTOCOL_DEFINITION ( 'international standard', 'config_control_design', 1994, #185 ) ;
#271 = ORIENTED_EDGE ( 'NONE', *, *, #142, .F. ) ;
#272 = SECURITY_CLASSIFICATION_LEVEL ( 'unclassified' ) ;
#273 = CARTESIAN_POINT ( 'NONE',  ( 0.000000000000000000, 0.000000000000000000, 3.000000000000000000 ) ) ;
#274 = CC_DESIGN_APPROVAL ( #85, ( #190 ) ) ;
#275 = PERSON_AND_ORGANIZATION ( #105, #292 ) ;
#276 = VERTEX_POINT ( 'NONE', #214 ) ;
#277 = DIRECTION ( 'NONE',  ( 0.000000000000000000, 0.000000000000000000, -1.000000000000000000 ) ) ;
#278 = CARTESIAN_POINT ( 'NONE',  ( -3.000000000000000444, 0.000000000000000000, 3.000000000000000000 ) ) ;
#279 = AXIS2_PLACEMENT_3D ( 'NONE', #264, #261, #46 ) ;
#280 = CC_DESIGN_APPROVAL ( #74, ( #3 ) ) ;
#281 = ORIENTED_EDGE ( 'NONE', *, *, #31, .F. ) ;
#282 = CYLINDRICAL_SURFACE ( 'NONE', #279, 1.600000000000000089 ) ;
#283 = CARTESIAN_POINT ( 'NONE',  ( 0.000000000000000000, 0.000000000000000000, 0.000000000000000000 ) ) ;
#284 = APPROVAL_PERSON_ORGANIZATION ( #121, #15, #145 ) ;
#285 = FACE_OUTER_BOUND ( 'NONE', #256, .T. ) ;
#286 = PERSON_AND_ORGANIZATION_ROLE ( 'creator' ) ;
#287 = CARTESIAN_POINT ( 'NONE',  ( 0.000000000000000000, 0.000000000000000000, 128.0000000000000000 ) ) ;
#288 = TOROIDAL_SURFACE ( 'NONE', #27, 1.800000000000000266, 0.2000000000000000111 ) ;
#289 = MECHANICAL_CONTEXT ( 'NONE', #262, 'mechanical' ) ;
#290 = CIRCLE ( 'NONE', #253, 1.800000000000000266 ) ;
#291 = EDGE_CURVE ( 'NONE', #297, #199, #88, .T. ) ;
#292 = ORGANIZATION ( 'NEURÈENÝ', 'NEURÈENÝ', '' ) ;
#293 = PERSON_AND_ORGANIZATION_ROLE ( 'classification_officer' ) ;
#294 = VERTEX_POINT ( 'NONE', #195 ) ;
#295 = ORIENTED_EDGE ( 'NONE', *, *, #257, .F. ) ;
#296 = EDGE_LOOP ( 'NONE', ( #66, #135 ) ) ;
#297 = VERTEX_POINT ( 'NONE', #146 ) ;
#298 = EDGE_LOOP ( 'NONE', ( #16, #231 ) ) ;
#299 = CC_DESIGN_DATE_AND_TIME_ASSIGNMENT ( #213, #1, ( #124 ) ) ;
#300 = CARTESIAN_POINT ( 'NONE',  ( 0.000000000000000000, 0.000000000000000000, 3.199999999999994404 ) ) ;
#301 = CARTESIAN_POINT ( 'NONE',  ( 0.000000000000000000, 0.000000000000000000, 3.000000000000000000 ) ) ;
#302 = DIRECTION ( 'NONE',  ( 1.000000000000000000, 0.000000000000000000, 0.000000000000000000 ) ) ;
#303 = ORIENTED_EDGE ( 'NONE', *, *, #269, .T. ) ;
#304 = CIRCLE ( 'NONE', #176, 3.000000000000000444 ) ;
#305 = LOCAL_TIME ( 12, 14, 4.000000000000000000, #202 ) ;
#306 = CARTESIAN_POINT ( 'NONE',  ( -1.600000000000000089, 0.000000000000000000, 128.0000000000000000 ) ) ;
#307 = DIRECTION ( 'NONE',  ( -1.000000000000000000, 0.000000000000000000, 0.000000000000000000 ) ) ;
ENDSEC;
END-ISO-10303-21;
