ISO-10303-21;
HEADER;
FILE_DESCRIPTION (( 'STEP AP203' ),
    '1' );
FILE_NAME ('dabf.STEP',
    '2022-06-20T10:06:18',
    ( '' ),
    ( '' ),
    'SwSTEP 2.0',
    'SolidWorks 2019',
    '' );
FILE_SCHEMA (( 'CONFIG_CONTROL_DESIGN' ));
ENDSEC;

DATA;
#1 = EDGE_LOOP ( 'NONE', ( #201, #4, #134, #77 ) ) ;
#2 = CIRCLE ( 'NONE', #116, 0.2000000000000000944 ) ;
#3 = CC_DESIGN_APPROVAL ( #239, ( #271 ) ) ;
#4 = ORIENTED_EDGE ( 'NONE', *, *, #95, .T. ) ;
#5 = ADVANCED_FACE ( 'NONE', ( #289 ), #9, .F. ) ;
#6 = PERSON_AND_ORGANIZATION ( #208, #108 ) ;
#7 = EDGE_LOOP ( 'NONE', ( #211, #185 ) ) ;
#8 = CARTESIAN_POINT ( 'NONE',  ( 4.000000000000000000, 4.898587196589412829E-16, 3.000000000000000000 ) ) ;
#9 = TOROIDAL_SURFACE ( 'NONE', #178, 2.449999999999999734, 0.2000000000000000111 ) ;
#10 = AXIS2_PLACEMENT_3D ( 'NONE', #29, #137, #234 ) ;
#11 = APPROVAL_PERSON_ORGANIZATION ( #270, #290, #288 ) ;
#12 = DIRECTION ( 'NONE',  ( -0.000000000000000000, -0.000000000000000000, -1.000000000000000000 ) ) ;
#13 = CARTESIAN_POINT ( 'NONE',  ( 2.250000000000000000, 2.755455298081544285E-16, 3.199999999999994404 ) ) ;
#14 = DIRECTION ( 'NONE',  ( 1.000000000000000000, 0.000000000000000000, 0.000000000000000000 ) ) ;
#15 = CARTESIAN_POINT ( 'NONE',  ( 0.000000000000000000, 0.000000000000000000, 3.000000000000000000 ) ) ;
#16 = APPROVAL_DATE_TIME ( #112, #239 ) ;
#17 = CC_DESIGN_PERSON_AND_ORGANIZATION_ASSIGNMENT ( #159, #43, ( #271 ) ) ;
#18 = CARTESIAN_POINT ( 'NONE',  ( -4.000000000000000000, 0.000000000000000000, 3.000000000000000000 ) ) ;
#19 = PERSON_AND_ORGANIZATION_ROLE ( 'classification_officer' ) ;
#20 = AXIS2_PLACEMENT_3D ( 'NONE', #152, #160, #254 ) ;
#21 = CARTESIAN_POINT ( 'NONE',  ( 0.000000000000000000, 0.000000000000000000, 103.0000000000000142 ) ) ;
#22 = CYLINDRICAL_SURFACE ( 'NONE', #217, 2.250000000000000000 ) ;
#23 = PERSON_AND_ORGANIZATION ( #208, #108 ) ;
#24 = DIRECTION ( 'NONE',  ( 1.000000000000000000, 0.000000000000000000, 0.000000000000000000 ) ) ;
#25 = MANIFOLD_SOLID_BREP ( 'Zaoblit1', #230 ) ;
#26 = VERTEX_POINT ( 'NONE', #260 ) ;
#27 = APPROVAL_STATUS ( 'not_yet_approved' ) ;
#28 = LOCAL_TIME ( 12, 6, 18.00000000000000000, #298 ) ;
#29 = CARTESIAN_POINT ( 'NONE',  ( 0.000000000000000000, 0.000000000000000000, 103.0000000000000142 ) ) ;
#30 = ORIENTED_EDGE ( 'NONE', *, *, #123, .T. ) ;
#31 = CC_DESIGN_PERSON_AND_ORGANIZATION_ASSIGNMENT ( #73, #19, ( #301 ) ) ;
#32 = AXIS2_PLACEMENT_3D ( 'NONE', #149, #272, #248 ) ;
#33 = EDGE_CURVE ( 'NONE', #252, #229, #2, .T. ) ;
#34 = DIRECTION ( 'NONE',  ( -1.000000000000000000, 0.000000000000000000, 0.000000000000000000 ) ) ;
#35 = ORIENTED_EDGE ( 'NONE', *, *, #189, .T. ) ;
#36 = DIRECTION ( 'NONE',  ( 0.000000000000000000, 0.000000000000000000, 1.000000000000000000 ) ) ;
#37 = ORIENTED_EDGE ( 'NONE', *, *, #136, .T. ) ;
#38 = CIRCLE ( 'NONE', #195, 0.2000000000000000944 ) ;
#39 = CC_DESIGN_PERSON_AND_ORGANIZATION_ASSIGNMENT ( #294, #121, ( #231 ) ) ;
#40 = EDGE_LOOP ( 'NONE', ( #133, #187, #284, #238 ) ) ;
#41 = VERTEX_POINT ( 'NONE', #100 ) ;
#42 = CARTESIAN_POINT ( 'NONE',  ( 0.000000000000000000, 0.000000000000000000, 3.000000000000000000 ) ) ;
#43 = PERSON_AND_ORGANIZATION_ROLE ( 'creator' ) ;
#44 = CARTESIAN_POINT ( 'NONE',  ( -4.000000000000000000, 0.000000000000000000, 0.000000000000000000 ) ) ;
#45 = ADVANCED_FACE ( 'NONE', ( #166 ), #144, .T. ) ;
#46 = DATE_TIME_ROLE ( 'classification_date' ) ;
#47 = AXIS2_PLACEMENT_3D ( 'NONE', #261, #62, #57 ) ;
#48 = DIRECTION ( 'NONE',  ( 0.000000000000000000, 0.000000000000000000, 1.000000000000000000 ) ) ;
#49 = CC_DESIGN_SECURITY_CLASSIFICATION ( #301, ( #271 ) ) ;
#50 = COORDINATED_UNIVERSAL_TIME_OFFSET ( 1, 0, .AHEAD. ) ;
#51 = COORDINATED_UNIVERSAL_TIME_OFFSET ( 1, 0, .AHEAD. ) ;
#52 = CARTESIAN_POINT ( 'NONE',  ( 2.449999999999999734, 0.000000000000000000, 2.999999999999997335 ) ) ;
#53 = AXIS2_PLACEMENT_3D ( 'NONE', #150, #36, #84 ) ;
#54 = CARTESIAN_POINT ( 'NONE',  ( -2.250000000000000000, 0.000000000000000000, 103.0000000000000142 ) ) ;
#55 = ORIENTED_EDGE ( 'NONE', *, *, #306, .T. ) ;
#56 = APPLICATION_CONTEXT ( 'configuration controlled 3d designs of mechanical parts and assemblies' ) ;
#57 = DIRECTION ( 'NONE',  ( 1.000000000000000000, 0.000000000000000000, 0.000000000000000000 ) ) ;
#58 = CALENDAR_DATE ( 2022, 20, 6 ) ;
#59 = VERTEX_POINT ( 'NONE', #291 ) ;
#60 = AXIS2_PLACEMENT_3D ( 'NONE', #249, #90, #267 ) ;
#61 = FACE_BOUND ( 'NONE', #202, .T. ) ;
#62 = DIRECTION ( 'NONE',  ( 0.000000000000000000, 0.000000000000000000, 1.000000000000000000 ) ) ;
#63 = DIRECTION ( 'NONE',  ( 0.000000000000000000, 0.000000000000000000, 1.000000000000000000 ) ) ;
#64 = FACE_OUTER_BOUND ( 'NONE', #7, .T. ) ;
#65 = PLANE ( 'NONE',  #82 ) ;
#66 = CC_DESIGN_APPROVAL ( #143, ( #301 ) ) ;
#67 = CARTESIAN_POINT ( 'NONE',  ( 0.000000000000000000, 0.000000000000000000, 3.199999999999994404 ) ) ;
#68 = EDGE_CURVE ( 'NONE', #41, #229, #209, .T. ) ;
#69 = DATE_AND_TIME ( #92, #158 ) ;
#70 = FACE_OUTER_BOUND ( 'NONE', #74, .T. ) ;
#71 = SHAPE_DEFINITION_REPRESENTATION ( #140, #114 ) ;
#72 = AXIS2_PLACEMENT_3D ( 'NONE', #251, #48, #126 ) ;
#73 = PERSON_AND_ORGANIZATION ( #208, #108 ) ;
#74 = EDGE_LOOP ( 'NONE', ( #237, #226 ) ) ;
#75 = LOCAL_TIME ( 12, 6, 18.00000000000000000, #50 ) ;
#76 = DIRECTION ( 'NONE',  ( -1.000000000000000000, 0.000000000000000000, 0.000000000000000000 ) ) ;
#77 = ORIENTED_EDGE ( 'NONE', *, *, #136, .F. ) ;
#78 = CC_DESIGN_APPROVAL ( #290, ( #221 ) ) ;
#79 = DIRECTION ( 'NONE',  ( 1.000000000000000000, 0.000000000000000000, 0.000000000000000000 ) ) ;
#80 = CARTESIAN_POINT ( 'NONE',  ( 2.449999999999999734, 0.000000000000000000, 3.199999999999994404 ) ) ;
#81 = ORIENTED_EDGE ( 'NONE', *, *, #33, .F. ) ;
#82 = AXIS2_PLACEMENT_3D ( 'NONE', #42, #85, #174 ) ;
#83 =( NAMED_UNIT ( * ) PLANE_ANGLE_UNIT ( ) SI_UNIT ( $, .RADIAN. ) );
#84 = DIRECTION ( 'NONE',  ( 1.000000000000000000, 0.000000000000000000, 0.000000000000000000 ) ) ;
#85 = DIRECTION ( 'NONE',  ( 0.000000000000000000, 0.000000000000000000, 1.000000000000000000 ) ) ;
#86 = APPLICATION_PROTOCOL_DEFINITION ( 'international standard', 'config_control_design', 1994, #163 ) ;
#87 = AXIS2_PLACEMENT_3D ( 'NONE', #67, #247, #24 ) ;
#88 = FACE_OUTER_BOUND ( 'NONE', #1, .T. ) ;
#89 = ADVANCED_FACE ( 'NONE', ( #213 ), #153, .F. ) ;
#90 = DIRECTION ( 'NONE',  ( 0.000000000000000000, 0.000000000000000000, 1.000000000000000000 ) ) ;
#91 = CIRCLE ( 'NONE', #258, 4.000000000000000000 ) ;
#92 = CALENDAR_DATE ( 2022, 20, 6 ) ;
#93 = ORIENTED_EDGE ( 'NONE', *, *, #227, .T. ) ;
#94 = ORIENTED_EDGE ( 'NONE', *, *, #111, .F. ) ;
#95 = EDGE_CURVE ( 'NONE', #59, #252, #165, .T. ) ;
#96 = CIRCLE ( 'NONE', #87, 2.250000000000000000 ) ;
#97 = VERTEX_POINT ( 'NONE', #205 ) ;
#98 = DIRECTION ( 'NONE',  ( -1.000000000000000000, 1.224646799147353207E-16, 0.000000000000000000 ) ) ;
#99 = EDGE_LOOP ( 'NONE', ( #55, #35 ) ) ;
#100 = CARTESIAN_POINT ( 'NONE',  ( -2.449999999999999734, 3.000384657911015370E-16, 2.999999999999997335 ) ) ;
#101 = CARTESIAN_POINT ( 'NONE',  ( 0.000000000000000000, 0.000000000000000000, 3.199999999999994404 ) ) ;
#102 = ORIENTED_EDGE ( 'NONE', *, *, #68, .F. ) ;
#103 = CIRCLE ( 'NONE', #10, 2.250000000000000000 ) ;
#104 = CARTESIAN_POINT ( 'NONE',  ( 0.000000000000000000, 0.000000000000000000, 0.000000000000000000 ) ) ;
#105 =( LENGTH_UNIT ( ) NAMED_UNIT ( * ) SI_UNIT ( .MILLI., .METRE. ) );
#106 = DIRECTION ( 'NONE',  ( 1.000000000000000000, 0.000000000000000000, -0.000000000000000000 ) ) ;
#107 = CIRCLE ( 'NONE', #281, 2.449999999999999734 ) ;
#108 = ORGANIZATION ( 'NEURÈENÝ', 'NEURÈENÝ', '' ) ;
#109 = CALENDAR_DATE ( 2022, 20, 6 ) ;
#110 = CARTESIAN_POINT ( 'NONE',  ( 4.000000000000000000, 4.898587196589412829E-16, 0.000000000000000000 ) ) ;
#111 = EDGE_CURVE ( 'NONE', #26, #183, #216, .T. ) ;
#112 = DATE_AND_TIME ( #296, #75 ) ;
#113 = ORIENTED_EDGE ( 'NONE', *, *, #33, .T. ) ;
#114 = ADVANCED_BREP_SHAPE_REPRESENTATION ( 'dabf', ( #25, #53 ), #172 ) ;
#115 = ORIENTED_EDGE ( 'NONE', *, *, #162, .F. ) ;
#116 = AXIS2_PLACEMENT_3D ( 'NONE', #80, #167, #286 ) ;
#117 = CARTESIAN_POINT ( 'NONE',  ( 0.000000000000000000, 0.000000000000000000, 3.000000000000000000 ) ) ;
#118 = VERTEX_POINT ( 'NONE', #54 ) ;
#119 = ORIENTED_EDGE ( 'NONE', *, *, #162, .T. ) ;
#120 = AXIS2_PLACEMENT_3D ( 'NONE', #220, #12, #198 ) ;
#121 = PERSON_AND_ORGANIZATION_ROLE ( 'design_owner' ) ;
#122 = ORIENTED_EDGE ( 'NONE', *, *, #123, .F. ) ;
#123 = EDGE_CURVE ( 'NONE', #278, #41, #38, .T. ) ;
#124 = DIRECTION ( 'NONE',  ( 1.000000000000000000, 0.000000000000000000, 0.000000000000000000 ) ) ;
#125 = APPLICATION_PROTOCOL_DEFINITION ( 'international standard', 'config_control_design', 1994, #56 ) ;
#126 = DIRECTION ( 'NONE',  ( 1.000000000000000000, 0.000000000000000000, -0.000000000000000000 ) ) ;
#127 = CYLINDRICAL_SURFACE ( 'NONE', #120, 4.000000000000000000 ) ;
#128 = DIRECTION ( 'NONE',  ( -0.000000000000000000, -0.000000000000000000, -1.000000000000000000 ) ) ;
#129 = APPROVAL_ROLE ( '' ) ;
#130 = DIRECTION ( 'NONE',  ( -0.000000000000000000, -0.000000000000000000, -1.000000000000000000 ) ) ;
#131 = VECTOR ( 'NONE', #128, 1000.000000000000000 ) ;
#132 = CARTESIAN_POINT ( 'NONE',  ( 0.000000000000000000, 0.000000000000000000, 103.0000000000000142 ) ) ;
#133 = ORIENTED_EDGE ( 'NONE', *, *, #189, .F. ) ;
#134 = ORIENTED_EDGE ( 'NONE', *, *, #268, .T. ) ;
#135 = LOCAL_TIME ( 12, 6, 18.00000000000000000, #262 ) ;
#136 = EDGE_CURVE ( 'NONE', #118, #278, #186, .T. ) ;
#137 = DIRECTION ( 'NONE',  ( 0.000000000000000000, 0.000000000000000000, 1.000000000000000000 ) ) ;
#138 = CARTESIAN_POINT ( 'NONE',  ( -2.250000000000000000, 0.000000000000000000, 3.199999999999994404 ) ) ;
#139 = CIRCLE ( 'NONE', #146, 2.250000000000000000 ) ;
#140 = PRODUCT_DEFINITION_SHAPE ( 'NONE', 'NONE',  #221 ) ;
#141 = CARTESIAN_POINT ( 'NONE',  ( -2.449999999999999734, 3.000384657911015370E-16, 3.199999999999994404 ) ) ;
#142 = DIRECTION ( 'NONE',  ( -0.000000000000000000, -0.000000000000000000, -1.000000000000000000 ) ) ;
#143 = APPROVAL ( #27, 'NEURÈENÝ' ) ;
#144 = CYLINDRICAL_SURFACE ( 'NONE', #222, 4.000000000000000000 ) ;
#145 = DIRECTION ( 'NONE',  ( -0.000000000000000000, -0.000000000000000000, -1.000000000000000000 ) ) ;
#146 = AXIS2_PLACEMENT_3D ( 'NONE', #21, #297, #274 ) ;
#147 = CARTESIAN_POINT ( 'NONE',  ( 0.000000000000000000, 0.000000000000000000, 3.000000000000000000 ) ) ;
#148 = CARTESIAN_POINT ( 'NONE',  ( 2.250000000000000000, 2.755455298081544285E-16, 103.0000000000000142 ) ) ;
#149 = CARTESIAN_POINT ( 'NONE',  ( 0.000000000000000000, 0.000000000000000000, 3.199999999999994404 ) ) ;
#150 = CARTESIAN_POINT ( 'NONE',  ( 0.000000000000000000, 0.000000000000000000, 0.000000000000000000 ) ) ;
#151 = CARTESIAN_POINT ( 'NONE',  ( 0.000000000000000000, 0.000000000000000000, 103.0000000000000142 ) ) ;
#152 = CARTESIAN_POINT ( 'NONE',  ( 0.000000000000000000, 0.000000000000000000, 0.000000000000000000 ) ) ;
#153 = TOROIDAL_SURFACE ( 'NONE', #47, 2.449999999999999734, 0.2000000000000000111 ) ;
#154 = LINE ( 'NONE', #18, #131 ) ;
#155 = DIRECTION ( 'NONE',  ( 0.000000000000000000, 0.000000000000000000, 1.000000000000000000 ) ) ;
#156 = APPROVAL_STATUS ( 'not_yet_approved' ) ;
#157 = AXIS2_PLACEMENT_3D ( 'NONE', #246, #155, #106 ) ;
#158 = LOCAL_TIME ( 12, 6, 18.00000000000000000, #51 ) ;
#159 = PERSON_AND_ORGANIZATION ( #208, #108 ) ;
#160 = DIRECTION ( 'NONE',  ( 0.000000000000000000, 0.000000000000000000, 1.000000000000000000 ) ) ;
#161 = DIRECTION ( 'NONE',  ( -0.000000000000000000, -0.000000000000000000, -1.000000000000000000 ) ) ;
#162 = EDGE_CURVE ( 'NONE', #278, #252, #96, .T. ) ;
#163 = APPLICATION_CONTEXT ( 'configuration controlled 3d designs of mechanical parts and assemblies' ) ;
#164 = EDGE_LOOP ( 'NONE', ( #115, #30, #257, #81 ) ) ;
#165 = LINE ( 'NONE', #148, #292 ) ;
#166 = FACE_OUTER_BOUND ( 'NONE', #199, .T. ) ;
#167 = DIRECTION ( 'NONE',  ( 0.000000000000000000, -1.000000000000000000, 0.000000000000000000 ) ) ;
#168 = FACE_OUTER_BOUND ( 'NONE', #99, .T. ) ;
#169 = DIRECTION ( 'NONE',  ( 0.000000000000000000, 0.000000000000000000, 1.000000000000000000 ) ) ;
#170 = DIRECTION ( 'NONE',  ( -0.000000000000000000, -0.000000000000000000, -1.000000000000000000 ) ) ;
#171 = ADVANCED_FACE ( 'NONE', ( #194 ), #127, .T. ) ;
#172 =( GEOMETRIC_REPRESENTATION_CONTEXT ( 3 ) GLOBAL_UNCERTAINTY_ASSIGNED_CONTEXT ( ( #282 ) ) GLOBAL_UNIT_ASSIGNED_CONTEXT ( ( #105, #83, #215 ) ) REPRESENTATION_CONTEXT ( 'NONE', 'WORKASPACE' ) );
#173 = DIRECTION ( 'NONE',  ( -0.000000000000000000, -0.000000000000000000, -1.000000000000000000 ) ) ;
#174 = DIRECTION ( 'NONE',  ( 1.000000000000000000, 0.000000000000000000, -0.000000000000000000 ) ) ;
#175 = EDGE_CURVE ( 'NONE', #97, #190, #154, .T. ) ;
#176 = APPROVAL_ROLE ( '' ) ;
#177 = CYLINDRICAL_SURFACE ( 'NONE', #200, 2.250000000000000000 ) ;
#178 = AXIS2_PLACEMENT_3D ( 'NONE', #101, #188, #79 ) ;
#179 = LOCAL_TIME ( 12, 6, 18.00000000000000000, #180 ) ;
#180 = COORDINATED_UNIVERSAL_TIME_OFFSET ( 1, 0, .AHEAD. ) ;
#181 = ADVANCED_FACE ( 'NONE', ( #88 ), #177, .T. ) ;
#182 = DATE_AND_TIME ( #279, #28 ) ;
#183 = VERTEX_POINT ( 'NONE', #110 ) ;
#184 = EDGE_LOOP ( 'NONE', ( #122, #300, #113, #102 ) ) ;
#185 = ORIENTED_EDGE ( 'NONE', *, *, #206, .T. ) ;
#186 = LINE ( 'NONE', #285, #191 ) ;
#187 = ORIENTED_EDGE ( 'NONE', *, *, #111, .T. ) ;
#188 = DIRECTION ( 'NONE',  ( 0.000000000000000000, 0.000000000000000000, 1.000000000000000000 ) ) ;
#189 = EDGE_CURVE ( 'NONE', #26, #97, #240, .T. ) ;
#190 = VERTEX_POINT ( 'NONE', #44 ) ;
#191 = VECTOR ( 'NONE', #170, 1000.000000000000000 ) ;
#192 = MECHANICAL_CONTEXT ( 'NONE', #56, 'mechanical' ) ;
#193 = CC_DESIGN_PERSON_AND_ORGANIZATION_ASSIGNMENT ( #23, #219, ( #271 ) ) ;
#194 = FACE_OUTER_BOUND ( 'NONE', #40, .T. ) ;
#195 = AXIS2_PLACEMENT_3D ( 'NONE', #141, #307, #98 ) ;
#196 = DIRECTION ( 'NONE',  ( 1.000000000000000000, 0.000000000000000000, 0.000000000000000000 ) ) ;
#197 = DIRECTION ( 'NONE',  ( -0.000000000000000000, -0.000000000000000000, -1.000000000000000000 ) ) ;
#198 = DIRECTION ( 'NONE',  ( -1.000000000000000000, 0.000000000000000000, 0.000000000000000000 ) ) ;
#199 = EDGE_LOOP ( 'NONE', ( #94, #280, #233, #93 ) ) ;
#200 = AXIS2_PLACEMENT_3D ( 'NONE', #151, #173, #273 ) ;
#201 = ORIENTED_EDGE ( 'NONE', *, *, #206, .F. ) ;
#202 = EDGE_LOOP ( 'NONE', ( #302, #235 ) ) ;
#203 = EDGE_CURVE ( 'NONE', #229, #41, #107, .T. ) ;
#204 = CIRCLE ( 'NONE', #20, 4.000000000000000000 ) ;
#205 = CARTESIAN_POINT ( 'NONE',  ( -4.000000000000000000, 0.000000000000000000, 3.000000000000000000 ) ) ;
#206 = EDGE_CURVE ( 'NONE', #59, #118, #139, .T. ) ;
#207 = ORIENTED_EDGE ( 'NONE', *, *, #287, .F. ) ;
#208 = PERSON ( 'NEURÈENÝ', 'NEURÈENÝ', 'NEURÈENÝ', ('NEURÈENÝ'), ('NEURÈENÝ'), ('NEURÈENÝ') ) ;
#209 = CIRCLE ( 'NONE', #295, 2.449999999999999734 ) ;
#210 = APPROVAL_STATUS ( 'not_yet_approved' ) ;
#211 = ORIENTED_EDGE ( 'NONE', *, *, #287, .T. ) ;
#212 = APPROVAL_DATE_TIME ( #241, #290 ) ;
#213 = FACE_OUTER_BOUND ( 'NONE', #184, .T. ) ;
#214 = ADVANCED_FACE ( 'NONE', ( #64 ), #243, .T. ) ;
#215 =( NAMED_UNIT ( * ) SI_UNIT ( $, .STERADIAN. ) SOLID_ANGLE_UNIT ( ) );
#216 = LINE ( 'NONE', #8, #264 ) ;
#217 = AXIS2_PLACEMENT_3D ( 'NONE', #132, #197, #76 ) ;
#218 = DATE_AND_TIME ( #109, #179 ) ;
#219 = PERSON_AND_ORGANIZATION_ROLE ( 'design_supplier' ) ;
#220 = CARTESIAN_POINT ( 'NONE',  ( 0.000000000000000000, 0.000000000000000000, 3.000000000000000000 ) ) ;
#221 = PRODUCT_DEFINITION ( 'NEZNÁMÝ', '', #271, #256 ) ;
#222 = AXIS2_PLACEMENT_3D ( 'NONE', #117, #142, #34 ) ;
#223 = FACE_OUTER_BOUND ( 'NONE', #242, .T. ) ;
#224 = PERSON_AND_ORGANIZATION_ROLE ( 'creator' ) ;
#225 = SECURITY_CLASSIFICATION_LEVEL ( 'unclassified' ) ;
#226 = ORIENTED_EDGE ( 'NONE', *, *, #305, .F. ) ;
#227 = EDGE_CURVE ( 'NONE', #190, #183, #204, .T. ) ;
#228 = APPROVAL_DATE_TIME ( #182, #143 ) ;
#229 = VERTEX_POINT ( 'NONE', #52 ) ;
#230 = CLOSED_SHELL ( 'NONE', ( #5, #181, #171, #45, #236, #255, #275, #214, #89 ) ) ;
#231 = PRODUCT ( 'dabf', 'dabf', '', ( #192 ) ) ;
#232 = CC_DESIGN_PERSON_AND_ORGANIZATION_ASSIGNMENT ( #6, #224, ( #221 ) ) ;
#233 = ORIENTED_EDGE ( 'NONE', *, *, #175, .T. ) ;
#234 = DIRECTION ( 'NONE',  ( 1.000000000000000000, 0.000000000000000000, 0.000000000000000000 ) ) ;
#235 = ORIENTED_EDGE ( 'NONE', *, *, #68, .T. ) ;
#236 = ADVANCED_FACE ( 'NONE', ( #61, #168 ), #65, .T. ) ;
#237 = ORIENTED_EDGE ( 'NONE', *, *, #227, .F. ) ;
#238 = ORIENTED_EDGE ( 'NONE', *, *, #175, .F. ) ;
#239 = APPROVAL ( #156, 'NEURÈENÝ' ) ;
#240 = CIRCLE ( 'NONE', #60, 4.000000000000000000 ) ;
#241 = DATE_AND_TIME ( #58, #135 ) ;
#242 = EDGE_LOOP ( 'NONE', ( #266, #207, #37, #119 ) ) ;
#243 = PLANE ( 'NONE',  #72 ) ;
#244 = CC_DESIGN_DATE_AND_TIME_ASSIGNMENT ( #218, #277, ( #221 ) ) ;
#245 = DIRECTION ( 'NONE',  ( 1.000000000000000000, 0.000000000000000000, 0.000000000000000000 ) ) ;
#246 = CARTESIAN_POINT ( 'NONE',  ( 0.000000000000000000, 0.000000000000000000, 0.000000000000000000 ) ) ;
#247 = DIRECTION ( 'NONE',  ( 0.000000000000000000, 0.000000000000000000, 1.000000000000000000 ) ) ;
#248 = DIRECTION ( 'NONE',  ( 1.000000000000000000, 0.000000000000000000, 0.000000000000000000 ) ) ;
#249 = CARTESIAN_POINT ( 'NONE',  ( 0.000000000000000000, 0.000000000000000000, 3.000000000000000000 ) ) ;
#250 = PERSON_AND_ORGANIZATION ( #208, #108 ) ;
#251 = CARTESIAN_POINT ( 'NONE',  ( 0.000000000000000000, 0.000000000000000000, 103.0000000000000142 ) ) ;
#252 = VERTEX_POINT ( 'NONE', #13 ) ;
#253 = PERSON_AND_ORGANIZATION ( #208, #108 ) ;
#254 = DIRECTION ( 'NONE',  ( 1.000000000000000000, 0.000000000000000000, 0.000000000000000000 ) ) ;
#255 = ADVANCED_FACE ( 'NONE', ( #70 ), #269, .F. ) ;
#256 = DESIGN_CONTEXT ( 'detailed design', #163, 'design' ) ;
#257 = ORIENTED_EDGE ( 'NONE', *, *, #203, .F. ) ;
#258 = AXIS2_PLACEMENT_3D ( 'NONE', #104, #169, #14 ) ;
#259 = AXIS2_PLACEMENT_3D ( 'NONE', #147, #63, #245 ) ;
#260 = CARTESIAN_POINT ( 'NONE',  ( 4.000000000000000000, 4.898587196589412829E-16, 3.000000000000000000 ) ) ;
#261 = CARTESIAN_POINT ( 'NONE',  ( 0.000000000000000000, 0.000000000000000000, 3.199999999999994404 ) ) ;
#262 = COORDINATED_UNIVERSAL_TIME_OFFSET ( 1, 0, .AHEAD. ) ;
#263 = CARTESIAN_POINT ( 'NONE',  ( 0.000000000000000000, 0.000000000000000000, 3.000000000000000000 ) ) ;
#264 = VECTOR ( 'NONE', #293, 1000.000000000000000 ) ;
#265 = APPROVAL_PERSON_ORGANIZATION ( #250, #143, #176 ) ;
#266 = ORIENTED_EDGE ( 'NONE', *, *, #95, .F. ) ;
#267 = DIRECTION ( 'NONE',  ( 1.000000000000000000, 0.000000000000000000, 0.000000000000000000 ) ) ;
#268 = EDGE_CURVE ( 'NONE', #252, #278, #276, .T. ) ;
#269 = PLANE ( 'NONE',  #157 ) ;
#270 = PERSON_AND_ORGANIZATION ( #208, #108 ) ;
#271 = PRODUCT_DEFINITION_FORMATION_WITH_SPECIFIED_SOURCE ( 'LIBOVOLNÝ', '', #231, .NOT_KNOWN. ) ;
#272 = DIRECTION ( 'NONE',  ( 0.000000000000000000, 0.000000000000000000, 1.000000000000000000 ) ) ;
#273 = DIRECTION ( 'NONE',  ( -1.000000000000000000, 0.000000000000000000, 0.000000000000000000 ) ) ;
#274 = DIRECTION ( 'NONE',  ( 1.000000000000000000, 0.000000000000000000, 0.000000000000000000 ) ) ;
#275 = ADVANCED_FACE ( 'NONE', ( #223 ), #22, .T. ) ;
#276 = CIRCLE ( 'NONE', #32, 2.250000000000000000 ) ;
#277 = DATE_TIME_ROLE ( 'creation_date' ) ;
#278 = VERTEX_POINT ( 'NONE', #138 ) ;
#279 = CALENDAR_DATE ( 2022, 20, 6 ) ;
#280 = ORIENTED_EDGE ( 'NONE', *, *, #306, .F. ) ;
#281 = AXIS2_PLACEMENT_3D ( 'NONE', #15, #130, #196 ) ;
#282 = UNCERTAINTY_MEASURE_WITH_UNIT (LENGTH_MEASURE( 1.000000000000000082E-05 ), #105, 'distance_accuracy_value', 'NONE');
#283 = PRODUCT_RELATED_PRODUCT_CATEGORY ( 'detail', '', ( #231 ) ) ;
#284 = ORIENTED_EDGE ( 'NONE', *, *, #305, .T. ) ;
#285 = CARTESIAN_POINT ( 'NONE',  ( -2.250000000000000000, 0.000000000000000000, 103.0000000000000142 ) ) ;
#286 = DIRECTION ( 'NONE',  ( 0.000000000000000000, 0.000000000000000000, -1.000000000000000000 ) ) ;
#287 = EDGE_CURVE ( 'NONE', #118, #59, #103, .T. ) ;
#288 = APPROVAL_ROLE ( '' ) ;
#289 = FACE_OUTER_BOUND ( 'NONE', #164, .T. ) ;
#290 = APPROVAL ( #210, 'NEURÈENÝ' ) ;
#291 = CARTESIAN_POINT ( 'NONE',  ( 2.250000000000000000, 2.755455298081544285E-16, 103.0000000000000142 ) ) ;
#292 = VECTOR ( 'NONE', #161, 1000.000000000000000 ) ;
#293 = DIRECTION ( 'NONE',  ( -0.000000000000000000, -0.000000000000000000, -1.000000000000000000 ) ) ;
#294 = PERSON_AND_ORGANIZATION ( #208, #108 ) ;
#295 = AXIS2_PLACEMENT_3D ( 'NONE', #263, #145, #124 ) ;
#296 = CALENDAR_DATE ( 2022, 20, 6 ) ;
#297 = DIRECTION ( 'NONE',  ( 0.000000000000000000, 0.000000000000000000, 1.000000000000000000 ) ) ;
#298 = COORDINATED_UNIVERSAL_TIME_OFFSET ( 1, 0, .AHEAD. ) ;
#299 = CIRCLE ( 'NONE', #259, 4.000000000000000000 ) ;
#300 = ORIENTED_EDGE ( 'NONE', *, *, #268, .F. ) ;
#301 = SECURITY_CLASSIFICATION ( '', '', #225 ) ;
#302 = ORIENTED_EDGE ( 'NONE', *, *, #203, .T. ) ;
#303 = CC_DESIGN_DATE_AND_TIME_ASSIGNMENT ( #69, #46, ( #301 ) ) ;
#304 = APPROVAL_PERSON_ORGANIZATION ( #253, #239, #129 ) ;
#305 = EDGE_CURVE ( 'NONE', #183, #190, #91, .T. ) ;
#306 = EDGE_CURVE ( 'NONE', #97, #26, #299, .T. ) ;
#307 = DIRECTION ( 'NONE',  ( 1.224646799147353207E-16, 1.000000000000000000, -0.000000000000000000 ) ) ;
ENDSEC;
END-ISO-10303-21;
