ISO-10303-21;
HEADER;
FILE_DESCRIPTION (( 'STEP AP203' ),
    '1' );
FILE_NAME ('5ca5.STEP',
    '2022-07-07T17:18:32',
    ( '' ),
    ( '' ),
    'SwSTEP 2.0',
    'SolidWorks 2019',
    '' );
FILE_SCHEMA (( 'CONFIG_CONTROL_DESIGN' ));
ENDSEC;

DATA;
#1 = CYLINDRICAL_SURFACE ( 'NONE', #118, 6.250000000000000000 ) ;
#2 = CARTESIAN_POINT ( 'NONE',  ( 0.000000000000000000, 0.000000000000000000, 7.000000000000000000 ) ) ;
#3 = AXIS2_PLACEMENT_3D ( 'NONE', #196, #240, #148 ) ;
#4 = VERTEX_POINT ( 'NONE', #237 ) ;
#5 = CARTESIAN_POINT ( 'NONE',  ( 0.000000000000000000, 0.000000000000000000, 167.0000000000000000 ) ) ;
#6 = AXIS2_PLACEMENT_3D ( 'NONE', #32, #111, #23 ) ;
#7 = CYLINDRICAL_SURFACE ( 'NONE', #57, 9.000000000000000000 ) ;
#8 = ORIENTED_EDGE ( 'NONE', *, *, #40, .F. ) ;
#9 = LINE ( 'NONE', #146, #91 ) ;
#10 = ADVANCED_FACE ( 'NONE', ( #87 ), #30, .F. ) ;
#11 =( GEOMETRIC_REPRESENTATION_CONTEXT ( 3 ) GLOBAL_UNCERTAINTY_ASSIGNED_CONTEXT ( ( #77 ) ) GLOBAL_UNIT_ASSIGNED_CONTEXT ( ( #131, #66, #197 ) ) REPRESENTATION_CONTEXT ( 'NONE', 'WORKASPACE' ) );
#12 = LOCAL_TIME ( 19, 18, 32.00000000000000000, #171 ) ;
#13 = ORIENTED_EDGE ( 'NONE', *, *, #33, .F. ) ;
#14 = EDGE_CURVE ( 'NONE', #108, #34, #235, .T. ) ;
#15 = APPROVAL_PERSON_ORGANIZATION ( #16, #248, #250 ) ;
#16 = PERSON_AND_ORGANIZATION ( #138, #152 ) ;
#17 = AXIS2_PLACEMENT_3D ( 'NONE', #218, #128, #101 ) ;
#18 = PERSON_AND_ORGANIZATION_ROLE ( 'classification_officer' ) ;
#19 = EDGE_CURVE ( 'NONE', #120, #4, #80, .T. ) ;
#20 = SHAPE_DEFINITION_REPRESENTATION ( #88, #90 ) ;
#21 = DIRECTION ( 'NONE',  ( -0.000000000000000000, -0.000000000000000000, -1.000000000000000000 ) ) ;
#22 = DIRECTION ( 'NONE',  ( -1.000000000000000000, 0.000000000000000000, 0.000000000000000000 ) ) ;
#23 = DIRECTION ( 'NONE',  ( -1.000000000000000000, 0.000000000000000000, 0.000000000000000000 ) ) ;
#24 = FACE_OUTER_BOUND ( 'NONE', #59, .T. ) ;
#25 = DIRECTION ( 'NONE',  ( -0.000000000000000000, -0.000000000000000000, -1.000000000000000000 ) ) ;
#26 = CIRCLE ( 'NONE', #17, 6.250000000000000000 ) ;
#27 = VERTEX_POINT ( 'NONE', #62 ) ;
#28 = DIRECTION ( 'NONE',  ( 0.000000000000000000, 0.000000000000000000, 1.000000000000000000 ) ) ;
#29 = LINE ( 'NONE', #123, #115 ) ;
#30 = PLANE ( 'NONE',  #156 ) ;
#31 = DIRECTION ( 'NONE',  ( 1.000000000000000000, 0.000000000000000000, 0.000000000000000000 ) ) ;
#32 = CARTESIAN_POINT ( 'NONE',  ( 0.000000000000000000, 0.000000000000000000, 167.0000000000000000 ) ) ;
#33 = EDGE_CURVE ( 'NONE', #27, #251, #29, .T. ) ;
#34 = VERTEX_POINT ( 'NONE', #233 ) ;
#35 = VECTOR ( 'NONE', #21, 1000.000000000000000 ) ;
#36 = CC_DESIGN_APPROVAL ( #248, ( #179 ) ) ;
#37 = ADVANCED_FACE ( 'NONE', ( #236, #56 ), #193, .T. ) ;
#38 = DATE_AND_TIME ( #60, #208 ) ;
#39 = CIRCLE ( 'NONE', #211, 9.000000000000000000 ) ;
#40 = EDGE_CURVE ( 'NONE', #120, #108, #39, .T. ) ;
#41 = COORDINATED_UNIVERSAL_TIME_OFFSET ( 1, 0, .AHEAD. ) ;
#42 = EDGE_LOOP ( 'NONE', ( #178, #74 ) ) ;
#43 = COORDINATED_UNIVERSAL_TIME_OFFSET ( 1, 0, .AHEAD. ) ;
#44 = DIRECTION ( 'NONE',  ( 1.000000000000000000, 0.000000000000000000, 0.000000000000000000 ) ) ;
#45 = CC_DESIGN_PERSON_AND_ORGANIZATION_ASSIGNMENT ( #94, #18, ( #179 ) ) ;
#46 = APPLICATION_PROTOCOL_DEFINITION ( 'international standard', 'config_control_design', 1994, #222 ) ;
#47 = ORIENTED_EDGE ( 'NONE', *, *, #205, .T. ) ;
#48 = CARTESIAN_POINT ( 'NONE',  ( 9.000000000000000000, 1.102182119232617714E-15, 7.000000000000000000 ) ) ;
#49 = CARTESIAN_POINT ( 'NONE',  ( 0.000000000000000000, 0.000000000000000000, 167.0000000000000000 ) ) ;
#50 = ORIENTED_EDGE ( 'NONE', *, *, #202, .T. ) ;
#51 = DIRECTION ( 'NONE',  ( 1.000000000000000000, 0.000000000000000000, 0.000000000000000000 ) ) ;
#52 = CARTESIAN_POINT ( 'NONE',  ( 6.250000000000000000, 7.654042494670957606E-16, 167.0000000000000000 ) ) ;
#53 = AXIS2_PLACEMENT_3D ( 'NONE', #163, #61, #31 ) ;
#54 = CALENDAR_DATE ( 2022, 7, 7 ) ;
#55 = EDGE_CURVE ( 'NONE', #93, #82, #9, .T. ) ;
#56 = FACE_OUTER_BOUND ( 'NONE', #98, .T. ) ;
#57 = AXIS2_PLACEMENT_3D ( 'NONE', #83, #71, #217 ) ;
#58 = CIRCLE ( 'NONE', #81, 6.250000000000000000 ) ;
#59 = EDGE_LOOP ( 'NONE', ( #161, #190, #150, #47 ) ) ;
#60 = CALENDAR_DATE ( 2022, 7, 7 ) ;
#61 = DIRECTION ( 'NONE',  ( 0.000000000000000000, 0.000000000000000000, 1.000000000000000000 ) ) ;
#62 = CARTESIAN_POINT ( 'NONE',  ( -6.250000000000000000, 0.000000000000000000, 167.0000000000000000 ) ) ;
#63 = CARTESIAN_POINT ( 'NONE',  ( 0.000000000000000000, 0.000000000000000000, 7.000000000000000000 ) ) ;
#64 = CARTESIAN_POINT ( 'NONE',  ( 0.000000000000000000, 0.000000000000000000, 7.000000000000000000 ) ) ;
#65 = EDGE_LOOP ( 'NONE', ( #50, #238 ) ) ;
#66 =( NAMED_UNIT ( * ) PLANE_ANGLE_UNIT ( ) SI_UNIT ( $, .RADIAN. ) );
#67 = DIRECTION ( 'NONE',  ( 0.000000000000000000, 0.000000000000000000, 1.000000000000000000 ) ) ;
#68 = APPROVAL ( #116, 'NEURÈENÝ' ) ;
#69 = EDGE_LOOP ( 'NONE', ( #206, #137, #254, #13 ) ) ;
#70 = APPROVAL_ROLE ( '' ) ;
#71 = DIRECTION ( 'NONE',  ( -0.000000000000000000, -0.000000000000000000, -1.000000000000000000 ) ) ;
#72 = CC_DESIGN_APPROVAL ( #126, ( #200 ) ) ;
#73 = CLOSED_SHELL ( 'NONE', ( #184, #165, #89, #37, #10, #231, #168 ) ) ;
#74 = ORIENTED_EDGE ( 'NONE', *, *, #228, .F. ) ;
#75 = CALENDAR_DATE ( 2022, 7, 7 ) ;
#76 = COORDINATED_UNIVERSAL_TIME_OFFSET ( 1, 0, .AHEAD. ) ;
#77 = UNCERTAINTY_MEASURE_WITH_UNIT (LENGTH_MEASURE( 1.000000000000000082E-05 ), #131, 'distance_accuracy_value', 'NONE');
#78 = ORIENTED_EDGE ( 'NONE', *, *, #185, .T. ) ;
#79 = DIRECTION ( 'NONE',  ( -0.000000000000000000, -0.000000000000000000, -1.000000000000000000 ) ) ;
#80 = LINE ( 'NONE', #201, #35 ) ;
#81 = AXIS2_PLACEMENT_3D ( 'NONE', #5, #28, #142 ) ;
#82 = VERTEX_POINT ( 'NONE', #225 ) ;
#83 = CARTESIAN_POINT ( 'NONE',  ( 0.000000000000000000, 0.000000000000000000, 7.000000000000000000 ) ) ;
#84 = EDGE_CURVE ( 'NONE', #82, #251, #232, .T. ) ;
#85 = EDGE_LOOP ( 'NONE', ( #8, #246, #170, #230 ) ) ;
#86 = DIRECTION ( 'NONE',  ( 0.000000000000000000, 0.000000000000000000, 1.000000000000000000 ) ) ;
#87 = FACE_OUTER_BOUND ( 'NONE', #42, .T. ) ;
#88 = PRODUCT_DEFINITION_SHAPE ( 'NONE', 'NONE',  #200 ) ;
#89 = ADVANCED_FACE ( 'NONE', ( #180 ), #7, .T. ) ;
#90 = ADVANCED_BREP_SHAPE_REPRESENTATION ( '5ca5', ( #243, #53 ), #11 ) ;
#91 = VECTOR ( 'NONE', #79, 1000.000000000000000 ) ;
#92 = CC_DESIGN_DATE_AND_TIME_ASSIGNMENT ( #38, #213, ( #200 ) ) ;
#93 = VERTEX_POINT ( 'NONE', #52 ) ;
#94 = PERSON_AND_ORGANIZATION ( #138, #152 ) ;
#95 = AXIS2_PLACEMENT_3D ( 'NONE', #107, #86, #141 ) ;
#96 = PERSON_AND_ORGANIZATION ( #138, #152 ) ;
#97 = DATE_AND_TIME ( #75, #12 ) ;
#98 = EDGE_LOOP ( 'NONE', ( #78, #114 ) ) ;
#99 = APPROVAL_DATE_TIME ( #210, #68 ) ;
#100 = PRODUCT_DEFINITION_FORMATION_WITH_SPECIFIED_SOURCE ( 'LIBOVOLNÝ', '', #133, .NOT_KNOWN. ) ;
#101 = DIRECTION ( 'NONE',  ( 1.000000000000000000, 0.000000000000000000, 0.000000000000000000 ) ) ;
#102 = CARTESIAN_POINT ( 'NONE',  ( 0.000000000000000000, 0.000000000000000000, 0.000000000000000000 ) ) ;
#103 = APPROVAL_DATE_TIME ( #226, #126 ) ;
#104 = DIRECTION ( 'NONE',  ( -0.000000000000000000, -0.000000000000000000, -1.000000000000000000 ) ) ;
#105 = ORIENTED_EDGE ( 'NONE', *, *, #14, .T. ) ;
#106 = MECHANICAL_CONTEXT ( 'NONE', #222, 'mechanical' ) ;
#107 = CARTESIAN_POINT ( 'NONE',  ( 0.000000000000000000, 0.000000000000000000, 7.000000000000000000 ) ) ;
#108 = VERTEX_POINT ( 'NONE', #155 ) ;
#109 = APPLICATION_PROTOCOL_DEFINITION ( 'international standard', 'config_control_design', 1994, #209 ) ;
#110 = FACE_OUTER_BOUND ( 'NONE', #85, .T. ) ;
#111 = DIRECTION ( 'NONE',  ( -0.000000000000000000, -0.000000000000000000, -1.000000000000000000 ) ) ;
#112 = APPROVAL_PERSON_ORGANIZATION ( #191, #68, #151 ) ;
#113 = CC_DESIGN_PERSON_AND_ORGANIZATION_ASSIGNMENT ( #157, #234, ( #200 ) ) ;
#114 = ORIENTED_EDGE ( 'NONE', *, *, #40, .T. ) ;
#115 = VECTOR ( 'NONE', #104, 1000.000000000000000 ) ;
#116 = APPROVAL_STATUS ( 'not_yet_approved' ) ;
#117 = AXIS2_PLACEMENT_3D ( 'NONE', #102, #159, #129 ) ;
#118 = AXIS2_PLACEMENT_3D ( 'NONE', #49, #145, #22 ) ;
#119 = DATE_AND_TIME ( #186, #158 ) ;
#120 = VERTEX_POINT ( 'NONE', #48 ) ;
#121 = CALENDAR_DATE ( 2022, 7, 7 ) ;
#122 = DIRECTION ( 'NONE',  ( 1.000000000000000000, 0.000000000000000000, 0.000000000000000000 ) ) ;
#123 = CARTESIAN_POINT ( 'NONE',  ( -6.250000000000000000, 0.000000000000000000, 167.0000000000000000 ) ) ;
#124 = DIRECTION ( 'NONE',  ( 0.000000000000000000, 0.000000000000000000, 1.000000000000000000 ) ) ;
#125 = CARTESIAN_POINT ( 'NONE',  ( 0.000000000000000000, 0.000000000000000000, 7.000000000000000000 ) ) ;
#126 = APPROVAL ( #239, 'NEURÈENÝ' ) ;
#127 = CARTESIAN_POINT ( 'NONE',  ( 0.000000000000000000, 0.000000000000000000, 7.000000000000000000 ) ) ;
#128 = DIRECTION ( 'NONE',  ( 0.000000000000000000, 0.000000000000000000, 1.000000000000000000 ) ) ;
#129 = DIRECTION ( 'NONE',  ( 1.000000000000000000, 0.000000000000000000, 0.000000000000000000 ) ) ;
#130 = AXIS2_PLACEMENT_3D ( 'NONE', #125, #177, #164 ) ;
#131 =( LENGTH_UNIT ( ) NAMED_UNIT ( * ) SI_UNIT ( .MILLI., .METRE. ) );
#132 = DIRECTION ( 'NONE',  ( 1.000000000000000000, 0.000000000000000000, -0.000000000000000000 ) ) ;
#133 = PRODUCT ( '5ca5', '5ca5', '', ( #106 ) ) ;
#134 = CARTESIAN_POINT ( 'NONE',  ( 0.000000000000000000, 0.000000000000000000, 0.000000000000000000 ) ) ;
#135 = VECTOR ( 'NONE', #25, 1000.000000000000000 ) ;
#136 = EDGE_CURVE ( 'NONE', #34, #4, #187, .T. ) ;
#137 = ORIENTED_EDGE ( 'NONE', *, *, #55, .T. ) ;
#138 = PERSON ( 'NEURÈENÝ', 'NEURÈENÝ', 'NEURÈENÝ', ('NEURÈENÝ'), ('NEURÈENÝ'), ('NEURÈENÝ') ) ;
#139 = PERSON_AND_ORGANIZATION ( #138, #152 ) ;
#140 = CIRCLE ( 'NONE', #244, 9.000000000000000000 ) ;
#141 = DIRECTION ( 'NONE',  ( 1.000000000000000000, 0.000000000000000000, 0.000000000000000000 ) ) ;
#142 = DIRECTION ( 'NONE',  ( 1.000000000000000000, 0.000000000000000000, 0.000000000000000000 ) ) ;
#143 = CARTESIAN_POINT ( 'NONE',  ( -9.000000000000000000, 0.000000000000000000, 7.000000000000000000 ) ) ;
#144 = EDGE_LOOP ( 'NONE', ( #216, #174, #105, #219 ) ) ;
#145 = DIRECTION ( 'NONE',  ( -0.000000000000000000, -0.000000000000000000, -1.000000000000000000 ) ) ;
#146 = CARTESIAN_POINT ( 'NONE',  ( 6.250000000000000000, 7.654042494670957606E-16, 167.0000000000000000 ) ) ;
#147 = EDGE_LOOP ( 'NONE', ( #223, #214 ) ) ;
#148 = DIRECTION ( 'NONE',  ( 1.000000000000000000, 0.000000000000000000, -0.000000000000000000 ) ) ;
#149 = CIRCLE ( 'NONE', #166, 9.000000000000000000 ) ;
#150 = ORIENTED_EDGE ( 'NONE', *, *, #33, .T. ) ;
#151 = APPROVAL_ROLE ( '' ) ;
#152 = ORGANIZATION ( 'NEURÈENÝ', 'NEURÈENÝ', '' ) ;
#153 = CARTESIAN_POINT ( 'NONE',  ( 0.000000000000000000, 0.000000000000000000, 0.000000000000000000 ) ) ;
#154 = CC_DESIGN_PERSON_AND_ORGANIZATION_ASSIGNMENT ( #96, #189, ( #100 ) ) ;
#155 = CARTESIAN_POINT ( 'NONE',  ( -9.000000000000000000, 0.000000000000000000, 7.000000000000000000 ) ) ;
#156 = AXIS2_PLACEMENT_3D ( 'NONE', #134, #247, #162 ) ;
#157 = PERSON_AND_ORGANIZATION ( #138, #152 ) ;
#158 = LOCAL_TIME ( 19, 18, 32.00000000000000000, #76 ) ;
#159 = DIRECTION ( 'NONE',  ( 0.000000000000000000, 0.000000000000000000, 1.000000000000000000 ) ) ;
#160 = AXIS2_PLACEMENT_3D ( 'NONE', #63, #124, #51 ) ;
#161 = ORIENTED_EDGE ( 'NONE', *, *, #55, .F. ) ;
#162 = DIRECTION ( 'NONE',  ( 1.000000000000000000, 0.000000000000000000, -0.000000000000000000 ) ) ;
#163 = CARTESIAN_POINT ( 'NONE',  ( 0.000000000000000000, 0.000000000000000000, 0.000000000000000000 ) ) ;
#164 = DIRECTION ( 'NONE',  ( -1.000000000000000000, 0.000000000000000000, 0.000000000000000000 ) ) ;
#165 = ADVANCED_FACE ( 'NONE', ( #110 ), #183, .T. ) ;
#166 = AXIS2_PLACEMENT_3D ( 'NONE', #153, #192, #122 ) ;
#167 = APPROVAL_STATUS ( 'not_yet_approved' ) ;
#168 = ADVANCED_FACE ( 'NONE', ( #255 ), #204, .T. ) ;
#169 = APPROVAL_DATE_TIME ( #119, #248 ) ;
#170 = ORIENTED_EDGE ( 'NONE', *, *, #228, .T. ) ;
#171 = COORDINATED_UNIVERSAL_TIME_OFFSET ( 1, 0, .AHEAD. ) ;
#172 = APPROVAL_PERSON_ORGANIZATION ( #195, #126, #70 ) ;
#173 = CC_DESIGN_SECURITY_CLASSIFICATION ( #179, ( #100 ) ) ;
#174 = ORIENTED_EDGE ( 'NONE', *, *, #185, .F. ) ;
#175 = CYLINDRICAL_SURFACE ( 'NONE', #6, 6.250000000000000000 ) ;
#176 = COORDINATED_UNIVERSAL_TIME_OFFSET ( 1, 0, .AHEAD. ) ;
#177 = DIRECTION ( 'NONE',  ( -0.000000000000000000, -0.000000000000000000, -1.000000000000000000 ) ) ;
#178 = ORIENTED_EDGE ( 'NONE', *, *, #136, .F. ) ;
#179 = SECURITY_CLASSIFICATION ( '', '', #252 ) ;
#180 = FACE_OUTER_BOUND ( 'NONE', #144, .T. ) ;
#181 = LOCAL_TIME ( 19, 18, 32.00000000000000000, #176 ) ;
#182 = CARTESIAN_POINT ( 'NONE',  ( -6.250000000000000000, 0.000000000000000000, 7.000000000000000000 ) ) ;
#183 = CYLINDRICAL_SURFACE ( 'NONE', #130, 9.000000000000000000 ) ;
#184 = ADVANCED_FACE ( 'NONE', ( #227 ), #175, .T. ) ;
#185 = EDGE_CURVE ( 'NONE', #108, #120, #140, .T. ) ;
#186 = CALENDAR_DATE ( 2022, 7, 7 ) ;
#187 = CIRCLE ( 'NONE', #117, 9.000000000000000000 ) ;
#188 = DATE_TIME_ROLE ( 'classification_date' ) ;
#189 = PERSON_AND_ORGANIZATION_ROLE ( 'creator' ) ;
#190 = ORIENTED_EDGE ( 'NONE', *, *, #202, .F. ) ;
#191 = PERSON_AND_ORGANIZATION ( #138, #152 ) ;
#192 = DIRECTION ( 'NONE',  ( 0.000000000000000000, 0.000000000000000000, 1.000000000000000000 ) ) ;
#193 = PLANE ( 'NONE',  #229 ) ;
#194 = DESIGN_CONTEXT ( 'detailed design', #209, 'design' ) ;
#195 = PERSON_AND_ORGANIZATION ( #138, #152 ) ;
#196 = CARTESIAN_POINT ( 'NONE',  ( 0.000000000000000000, 0.000000000000000000, 167.0000000000000000 ) ) ;
#197 =( NAMED_UNIT ( * ) SI_UNIT ( $, .STERADIAN. ) SOLID_ANGLE_UNIT ( ) );
#198 = DIRECTION ( 'NONE',  ( 0.000000000000000000, 0.000000000000000000, 1.000000000000000000 ) ) ;
#199 = PERSON_AND_ORGANIZATION_ROLE ( 'design_owner' ) ;
#200 = PRODUCT_DEFINITION ( 'NEZNÁMÝ', '', #100, #194 ) ;
#201 = CARTESIAN_POINT ( 'NONE',  ( 9.000000000000000000, 1.102182119232617714E-15, 7.000000000000000000 ) ) ;
#202 = EDGE_CURVE ( 'NONE', #27, #93, #26, .T. ) ;
#203 = DIRECTION ( 'NONE',  ( 0.000000000000000000, 0.000000000000000000, 1.000000000000000000 ) ) ;
#204 = PLANE ( 'NONE',  #3 ) ;
#205 = EDGE_CURVE ( 'NONE', #251, #82, #212, .T. ) ;
#206 = ORIENTED_EDGE ( 'NONE', *, *, #221, .F. ) ;
#207 = PRODUCT_RELATED_PRODUCT_CATEGORY ( 'detail', '', ( #133 ) ) ;
#208 = LOCAL_TIME ( 19, 18, 32.00000000000000000, #43 ) ;
#209 = APPLICATION_CONTEXT ( 'configuration controlled 3d designs of mechanical parts and assemblies' ) ;
#210 = DATE_AND_TIME ( #121, #241 ) ;
#211 = AXIS2_PLACEMENT_3D ( 'NONE', #127, #67, #220 ) ;
#212 = CIRCLE ( 'NONE', #160, 6.250000000000000000 ) ;
#213 = DATE_TIME_ROLE ( 'creation_date' ) ;
#214 = ORIENTED_EDGE ( 'NONE', *, *, #84, .F. ) ;
#215 = PERSON_AND_ORGANIZATION_ROLE ( 'design_supplier' ) ;
#216 = ORIENTED_EDGE ( 'NONE', *, *, #19, .F. ) ;
#217 = DIRECTION ( 'NONE',  ( -1.000000000000000000, 0.000000000000000000, 0.000000000000000000 ) ) ;
#218 = CARTESIAN_POINT ( 'NONE',  ( 0.000000000000000000, 0.000000000000000000, 167.0000000000000000 ) ) ;
#219 = ORIENTED_EDGE ( 'NONE', *, *, #136, .T. ) ;
#220 = DIRECTION ( 'NONE',  ( 1.000000000000000000, 0.000000000000000000, 0.000000000000000000 ) ) ;
#221 = EDGE_CURVE ( 'NONE', #93, #27, #58, .T. ) ;
#222 = APPLICATION_CONTEXT ( 'configuration controlled 3d designs of mechanical parts and assemblies' ) ;
#223 = ORIENTED_EDGE ( 'NONE', *, *, #205, .F. ) ;
#224 = PERSON_AND_ORGANIZATION ( #138, #152 ) ;
#225 = CARTESIAN_POINT ( 'NONE',  ( 6.250000000000000000, 7.654042494670957606E-16, 7.000000000000000000 ) ) ;
#226 = DATE_AND_TIME ( #54, #181 ) ;
#227 = FACE_OUTER_BOUND ( 'NONE', #69, .T. ) ;
#228 = EDGE_CURVE ( 'NONE', #4, #34, #149, .T. ) ;
#229 = AXIS2_PLACEMENT_3D ( 'NONE', #64, #198, #132 ) ;
#230 = ORIENTED_EDGE ( 'NONE', *, *, #14, .F. ) ;
#231 = ADVANCED_FACE ( 'NONE', ( #24 ), #1, .T. ) ;
#232 = CIRCLE ( 'NONE', #95, 6.250000000000000000 ) ;
#233 = CARTESIAN_POINT ( 'NONE',  ( -9.000000000000000000, 0.000000000000000000, 0.000000000000000000 ) ) ;
#234 = PERSON_AND_ORGANIZATION_ROLE ( 'creator' ) ;
#235 = LINE ( 'NONE', #143, #135 ) ;
#236 = FACE_BOUND ( 'NONE', #147, .T. ) ;
#237 = CARTESIAN_POINT ( 'NONE',  ( 9.000000000000000000, 1.102182119232617714E-15, 0.000000000000000000 ) ) ;
#238 = ORIENTED_EDGE ( 'NONE', *, *, #221, .T. ) ;
#239 = APPROVAL_STATUS ( 'not_yet_approved' ) ;
#240 = DIRECTION ( 'NONE',  ( 0.000000000000000000, 0.000000000000000000, 1.000000000000000000 ) ) ;
#241 = LOCAL_TIME ( 19, 18, 32.00000000000000000, #41 ) ;
#242 = CC_DESIGN_PERSON_AND_ORGANIZATION_ASSIGNMENT ( #139, #215, ( #100 ) ) ;
#243 = MANIFOLD_SOLID_BREP ( 'Pøidat vysunutím3', #73 ) ;
#244 = AXIS2_PLACEMENT_3D ( 'NONE', #2, #203, #44 ) ;
#245 = CC_DESIGN_PERSON_AND_ORGANIZATION_ASSIGNMENT ( #224, #199, ( #133 ) ) ;
#246 = ORIENTED_EDGE ( 'NONE', *, *, #19, .T. ) ;
#247 = DIRECTION ( 'NONE',  ( 0.000000000000000000, 0.000000000000000000, 1.000000000000000000 ) ) ;
#248 = APPROVAL ( #167, 'NEURÈENÝ' ) ;
#249 = CC_DESIGN_APPROVAL ( #68, ( #100 ) ) ;
#250 = APPROVAL_ROLE ( '' ) ;
#251 = VERTEX_POINT ( 'NONE', #182 ) ;
#252 = SECURITY_CLASSIFICATION_LEVEL ( 'unclassified' ) ;
#253 = CC_DESIGN_DATE_AND_TIME_ASSIGNMENT ( #97, #188, ( #179 ) ) ;
#254 = ORIENTED_EDGE ( 'NONE', *, *, #84, .T. ) ;
#255 = FACE_OUTER_BOUND ( 'NONE', #65, .T. ) ;
ENDSEC;
END-ISO-10303-21;
