ISO-10303-21;
HEADER;
FILE_DESCRIPTION (( 'STEP AP203' ),
    '1' );
FILE_NAME ('22ae.STEP',
    '2022-07-07T17:53:34',
    ( '' ),
    ( '' ),
    'SwSTEP 2.0',
    'SolidWorks 2019',
    '' );
FILE_SCHEMA (( 'CONFIG_CONTROL_DESIGN' ));
ENDSEC;

DATA;
#1 = ADVANCED_FACE ( 'NONE', ( #25 ), #147, .T. ) ;
#2 = VERTEX_POINT ( 'NONE', #239 ) ;
#3 = CIRCLE ( 'NONE', #199, 1.750000000000000000 ) ;
#4 = DIRECTION ( 'NONE',  ( -0.000000000000000000, -0.000000000000000000, -1.000000000000000000 ) ) ;
#5 = CC_DESIGN_PERSON_AND_ORGANIZATION_ASSIGNMENT ( #99, #250, ( #125 ) ) ;
#6 = APPLICATION_CONTEXT ( 'configuration controlled 3d designs of mechanical parts and assemblies' ) ;
#7 = LOCAL_TIME ( 19, 53, 34.00000000000000000, #80 ) ;
#8 = ORIENTED_EDGE ( 'NONE', *, *, #148, .T. ) ;
#9 = VERTEX_POINT ( 'NONE', #189 ) ;
#10 = DIRECTION ( 'NONE',  ( 1.000000000000000000, 0.000000000000000000, -0.000000000000000000 ) ) ;
#11 = LOCAL_TIME ( 19, 53, 34.00000000000000000, #177 ) ;
#12 = PLANE ( 'NONE',  #26 ) ;
#13 = APPLICATION_PROTOCOL_DEFINITION ( 'international standard', 'config_control_design', 1994, #6 ) ;
#14 = ADVANCED_FACE ( 'NONE', ( #131 ), #104, .T. ) ;
#15 = FACE_OUTER_BOUND ( 'NONE', #103, .T. ) ;
#16 = DATE_TIME_ROLE ( 'creation_date' ) ;
#17 = DIRECTION ( 'NONE',  ( 1.000000000000000000, 0.000000000000000000, 0.000000000000000000 ) ) ;
#18 = CALENDAR_DATE ( 2022, 7, 7 ) ;
#19 = APPROVAL_STATUS ( 'not_yet_approved' ) ;
#20 = EDGE_LOOP ( 'NONE', ( #129, #165, #149, #238 ) ) ;
#21 = CIRCLE ( 'NONE', #94, 3.500000000000000000 ) ;
#22 = PRODUCT_DEFINITION_SHAPE ( 'NONE', 'NONE',  #81 ) ;
#23 = EDGE_CURVE ( 'NONE', #87, #164, #93, .T. ) ;
#24 = EDGE_LOOP ( 'NONE', ( #244, #64 ) ) ;
#25 = FACE_OUTER_BOUND ( 'NONE', #85, .T. ) ;
#26 = AXIS2_PLACEMENT_3D ( 'NONE', #209, #190, #137 ) ;
#27 = APPROVAL_STATUS ( 'not_yet_approved' ) ;
#28 = ORIENTED_EDGE ( 'NONE', *, *, #197, .F. ) ;
#29 = LOCAL_TIME ( 19, 53, 34.00000000000000000, #132 ) ;
#30 = CARTESIAN_POINT ( 'NONE',  ( -3.500000000000000000, 0.000000000000000000, 3.000000000000000000 ) ) ;
#31 = APPROVAL ( #218, 'NEURÈENÝ' ) ;
#32 = VERTEX_POINT ( 'NONE', #30 ) ;
#33 = DIRECTION ( 'NONE',  ( 1.000000000000000000, 0.000000000000000000, 0.000000000000000000 ) ) ;
#34 = ORIENTED_EDGE ( 'NONE', *, *, #44, .F. ) ;
#35 = CYLINDRICAL_SURFACE ( 'NONE', #230, 1.750000000000000000 ) ;
#36 = PRODUCT_DEFINITION_FORMATION_WITH_SPECIFIED_SOURCE ( 'LIBOVOLNÝ', '', #69, .NOT_KNOWN. ) ;
#37 =( NAMED_UNIT ( * ) PLANE_ANGLE_UNIT ( ) SI_UNIT ( $, .RADIAN. ) );
#38 = DIRECTION ( 'NONE',  ( -1.000000000000000000, 0.000000000000000000, 0.000000000000000000 ) ) ;
#39 = PERSON_AND_ORGANIZATION_ROLE ( 'creator' ) ;
#40 = LINE ( 'NONE', #225, #207 ) ;
#41 = DATE_AND_TIME ( #18, #11 ) ;
#42 = VERTEX_POINT ( 'NONE', #241 ) ;
#43 = EDGE_CURVE ( 'NONE', #164, #65, #71, .T. ) ;
#44 = EDGE_CURVE ( 'NONE', #87, #2, #3, .T. ) ;
#45 = CARTESIAN_POINT ( 'NONE',  ( -1.750000000000000000, 0.000000000000000000, 3.000000000000000000 ) ) ;
#46 = CARTESIAN_POINT ( 'NONE',  ( 0.000000000000000000, 0.000000000000000000, 3.000000000000000000 ) ) ;
#47 = ORIENTED_EDGE ( 'NONE', *, *, #23, .T. ) ;
#48 = DIRECTION ( 'NONE',  ( -0.000000000000000000, -0.000000000000000000, -1.000000000000000000 ) ) ;
#49 = VECTOR ( 'NONE', #98, 1000.000000000000000 ) ;
#50 = AXIS2_PLACEMENT_3D ( 'NONE', #232, #78, #176 ) ;
#51 = DIRECTION ( 'NONE',  ( 0.000000000000000000, 0.000000000000000000, 1.000000000000000000 ) ) ;
#52 = AXIS2_PLACEMENT_3D ( 'NONE', #184, #154, #224 ) ;
#53 = DIRECTION ( 'NONE',  ( 0.000000000000000000, 0.000000000000000000, 1.000000000000000000 ) ) ;
#54 = LINE ( 'NONE', #138, #90 ) ;
#55 = EDGE_CURVE ( 'NONE', #2, #65, #54, .T. ) ;
#56 = CARTESIAN_POINT ( 'NONE',  ( 1.750000000000000000, 2.143131898507868297E-16, 203.0000000000000000 ) ) ;
#57 = CARTESIAN_POINT ( 'NONE',  ( 0.000000000000000000, 0.000000000000000000, 0.000000000000000000 ) ) ;
#58 = APPROVAL_PERSON_ORGANIZATION ( #141, #31, #196 ) ;
#59 = CARTESIAN_POINT ( 'NONE',  ( 0.000000000000000000, 0.000000000000000000, 0.000000000000000000 ) ) ;
#60 = CARTESIAN_POINT ( 'NONE',  ( 3.500000000000000000, 4.286263797015736595E-16, 3.000000000000000000 ) ) ;
#61 = COORDINATED_UNIVERSAL_TIME_OFFSET ( 1, 0, .AHEAD. ) ;
#62 = PERSON_AND_ORGANIZATION ( #113, #130 ) ;
#63 = PERSON_AND_ORGANIZATION ( #113, #130 ) ;
#64 = ORIENTED_EDGE ( 'NONE', *, *, #86, .F. ) ;
#65 = VERTEX_POINT ( 'NONE', #45 ) ;
#66 = ORIENTED_EDGE ( 'NONE', *, *, #145, .T. ) ;
#67 = EDGE_LOOP ( 'NONE', ( #128, #150, #161, #182 ) ) ;
#68 = DIRECTION ( 'NONE',  ( -1.000000000000000000, 0.000000000000000000, 0.000000000000000000 ) ) ;
#69 = PRODUCT ( '22ae', '22ae', '', ( #119 ) ) ;
#70 = AXIS2_PLACEMENT_3D ( 'NONE', #194, #242, #33 ) ;
#71 = CIRCLE ( 'NONE', #215, 1.750000000000000000 ) ;
#72 = DATE_AND_TIME ( #222, #29 ) ;
#73 = MANIFOLD_SOLID_BREP ( 'Pøidat vysunutím3', #122 ) ;
#74 = DIRECTION ( 'NONE',  ( 0.000000000000000000, 0.000000000000000000, 1.000000000000000000 ) ) ;
#75 = FACE_OUTER_BOUND ( 'NONE', #24, .T. ) ;
#76 = EDGE_LOOP ( 'NONE', ( #34, #47, #188, #166 ) ) ;
#77 = DIRECTION ( 'NONE',  ( 0.000000000000000000, 0.000000000000000000, 1.000000000000000000 ) ) ;
#78 = DIRECTION ( 'NONE',  ( 0.000000000000000000, 0.000000000000000000, 1.000000000000000000 ) ) ;
#79 = DIRECTION ( 'NONE',  ( -1.000000000000000000, 0.000000000000000000, 0.000000000000000000 ) ) ;
#80 = COORDINATED_UNIVERSAL_TIME_OFFSET ( 1, 0, .AHEAD. ) ;
#81 = PRODUCT_DEFINITION ( 'NEZNÁMÝ', '', #36, #236 ) ;
#82 = CARTESIAN_POINT ( 'NONE',  ( 0.000000000000000000, 0.000000000000000000, 203.0000000000000000 ) ) ;
#83 = APPROVAL_ROLE ( '' ) ;
#84 = DATE_TIME_ROLE ( 'classification_date' ) ;
#85 = EDGE_LOOP ( 'NONE', ( #28, #200, #8, #203 ) ) ;
#86 = EDGE_CURVE ( 'NONE', #9, #202, #121, .T. ) ;
#87 = VERTEX_POINT ( 'NONE', #56 ) ;
#88 = APPROVAL_ROLE ( '' ) ;
#89 = LOCAL_TIME ( 19, 53, 34.00000000000000000, #61 ) ;
#90 = VECTOR ( 'NONE', #210, 1000.000000000000000 ) ;
#91 = ORIENTED_EDGE ( 'NONE', *, *, #187, .T. ) ;
#92 = DIRECTION ( 'NONE',  ( -0.000000000000000000, -0.000000000000000000, -1.000000000000000000 ) ) ;
#93 = LINE ( 'NONE', #221, #181 ) ;
#94 = AXIS2_PLACEMENT_3D ( 'NONE', #95, #245, #212 ) ;
#95 = CARTESIAN_POINT ( 'NONE',  ( 0.000000000000000000, 0.000000000000000000, 3.000000000000000000 ) ) ;
#96 = CC_DESIGN_DATE_AND_TIME_ASSIGNMENT ( #143, #84, ( #125 ) ) ;
#97 = APPROVAL_DATE_TIME ( #41, #31 ) ;
#98 = DIRECTION ( 'NONE',  ( -0.000000000000000000, -0.000000000000000000, -1.000000000000000000 ) ) ;
#99 = PERSON_AND_ORGANIZATION ( #113, #130 ) ;
#100 = DIRECTION ( 'NONE',  ( -0.000000000000000000, -0.000000000000000000, -1.000000000000000000 ) ) ;
#101 = DATE_AND_TIME ( #214, #151 ) ;
#102 = APPROVAL ( #19, 'NEURÈENÝ' ) ;
#103 = EDGE_LOOP ( 'NONE', ( #91, #107 ) ) ;
#104 = CYLINDRICAL_SURFACE ( 'NONE', #234, 3.500000000000000000 ) ;
#105 = ORIENTED_EDGE ( 'NONE', *, *, #43, .F. ) ;
#106 = CIRCLE ( 'NONE', #178, 3.500000000000000000 ) ;
#107 = ORIENTED_EDGE ( 'NONE', *, *, #44, .T. ) ;
#108 = CC_DESIGN_PERSON_AND_ORGANIZATION_ASSIGNMENT ( #159, #123, ( #69 ) ) ;
#109 = CARTESIAN_POINT ( 'NONE',  ( 0.000000000000000000, 0.000000000000000000, 0.000000000000000000 ) ) ;
#110 = AXIS2_PLACEMENT_3D ( 'NONE', #117, #53, #140 ) ;
#111 = DIRECTION ( 'NONE',  ( 1.000000000000000000, 0.000000000000000000, 0.000000000000000000 ) ) ;
#112 =( NAMED_UNIT ( * ) SI_UNIT ( $, .STERADIAN. ) SOLID_ANGLE_UNIT ( ) );
#113 = PERSON ( 'NEURÈENÝ', 'NEURÈENÝ', 'NEURÈENÝ', ('NEURÈENÝ'), ('NEURÈENÝ'), ('NEURÈENÝ') ) ;
#114 = CARTESIAN_POINT ( 'NONE',  ( 0.000000000000000000, 0.000000000000000000, 203.0000000000000000 ) ) ;
#115 = SECURITY_CLASSIFICATION_LEVEL ( 'unclassified' ) ;
#116 = ADVANCED_FACE ( 'NONE', ( #227 ), #246, .T. ) ;
#117 = CARTESIAN_POINT ( 'NONE',  ( 0.000000000000000000, 0.000000000000000000, 3.000000000000000000 ) ) ;
#118 = CIRCLE ( 'NONE', #50, 1.750000000000000000 ) ;
#119 = MECHANICAL_CONTEXT ( 'NONE', #6, 'mechanical' ) ;
#120 = APPLICATION_PROTOCOL_DEFINITION ( 'international standard', 'config_control_design', 1994, #240 ) ;
#121 = CIRCLE ( 'NONE', #126, 3.500000000000000000 ) ;
#122 = CLOSED_SHELL ( 'NONE', ( #116, #14, #1, #201, #220, #162, #195 ) ) ;
#123 = PERSON_AND_ORGANIZATION_ROLE ( 'design_owner' ) ;
#124 = ORIENTED_EDGE ( 'NONE', *, *, #231, .T. ) ;
#125 = SECURITY_CLASSIFICATION ( '', '', #115 ) ;
#126 = AXIS2_PLACEMENT_3D ( 'NONE', #57, #139, #155 ) ;
#127 = CC_DESIGN_DATE_AND_TIME_ASSIGNMENT ( #101, #16, ( #81 ) ) ;
#128 = ORIENTED_EDGE ( 'NONE', *, *, #23, .F. ) ;
#129 = ORIENTED_EDGE ( 'NONE', *, *, #145, .F. ) ;
#130 = ORGANIZATION ( 'NEURÈENÝ', 'NEURÈENÝ', '' ) ;
#131 = FACE_OUTER_BOUND ( 'NONE', #20, .T. ) ;
#132 = COORDINATED_UNIVERSAL_TIME_OFFSET ( 1, 0, .AHEAD. ) ;
#133 = UNCERTAINTY_MEASURE_WITH_UNIT (LENGTH_MEASURE( 1.000000000000000082E-05 ), #213, 'distance_accuracy_value', 'NONE');
#134 = CC_DESIGN_APPROVAL ( #172, ( #125 ) ) ;
#135 = EDGE_LOOP ( 'NONE', ( #124, #66 ) ) ;
#136 = CC_DESIGN_PERSON_AND_ORGANIZATION_ASSIGNMENT ( #62, #39, ( #81 ) ) ;
#137 = DIRECTION ( 'NONE',  ( 1.000000000000000000, 0.000000000000000000, -0.000000000000000000 ) ) ;
#138 = CARTESIAN_POINT ( 'NONE',  ( -1.750000000000000000, 0.000000000000000000, 203.0000000000000000 ) ) ;
#139 = DIRECTION ( 'NONE',  ( 0.000000000000000000, 0.000000000000000000, 1.000000000000000000 ) ) ;
#140 = DIRECTION ( 'NONE',  ( 1.000000000000000000, 0.000000000000000000, -0.000000000000000000 ) ) ;
#141 = PERSON_AND_ORGANIZATION ( #113, #130 ) ;
#142 = FACE_BOUND ( 'NONE', #170, .T. ) ;
#143 = DATE_AND_TIME ( #233, #7 ) ;
#144 = PERSON_AND_ORGANIZATION ( #113, #130 ) ;
#145 = EDGE_CURVE ( 'NONE', #42, #32, #106, .T. ) ;
#146 = APPROVAL_PERSON_ORGANIZATION ( #144, #172, #88 ) ;
#147 = CYLINDRICAL_SURFACE ( 'NONE', #52, 3.500000000000000000 ) ;
#148 = EDGE_CURVE ( 'NONE', #32, #202, #40, .T. ) ;
#149 = ORIENTED_EDGE ( 'NONE', *, *, #86, .T. ) ;
#150 = ORIENTED_EDGE ( 'NONE', *, *, #187, .F. ) ;
#151 = LOCAL_TIME ( 19, 53, 34.00000000000000000, #252 ) ;
#152 = CARTESIAN_POINT ( 'NONE',  ( 0.000000000000000000, 0.000000000000000000, 203.0000000000000000 ) ) ;
#153 = CARTESIAN_POINT ( 'NONE',  ( 0.000000000000000000, 0.000000000000000000, 3.000000000000000000 ) ) ;
#154 = DIRECTION ( 'NONE',  ( -0.000000000000000000, -0.000000000000000000, -1.000000000000000000 ) ) ;
#155 = DIRECTION ( 'NONE',  ( 1.000000000000000000, 0.000000000000000000, 0.000000000000000000 ) ) ;
#156 = FACE_OUTER_BOUND ( 'NONE', #67, .T. ) ;
#157 = PERSON_AND_ORGANIZATION ( #113, #130 ) ;
#158 = CARTESIAN_POINT ( 'NONE',  ( 1.750000000000000000, 2.143131898507868297E-16, 3.000000000000000000 ) ) ;
#159 = PERSON_AND_ORGANIZATION ( #113, #130 ) ;
#160 = APPROVAL_DATE_TIME ( #235, #102 ) ;
#161 = ORIENTED_EDGE ( 'NONE', *, *, #55, .T. ) ;
#162 = ADVANCED_FACE ( 'NONE', ( #156 ), #35, .T. ) ;
#163 = CC_DESIGN_SECURITY_CLASSIFICATION ( #125, ( #36 ) ) ;
#164 = VERTEX_POINT ( 'NONE', #158 ) ;
#165 = ORIENTED_EDGE ( 'NONE', *, *, #197, .T. ) ;
#166 = ORIENTED_EDGE ( 'NONE', *, *, #55, .F. ) ;
#167 = AXIS2_PLACEMENT_3D ( 'NONE', #59, #219, #174 ) ;
#168 = CARTESIAN_POINT ( 'NONE',  ( 0.000000000000000000, 0.000000000000000000, 3.000000000000000000 ) ) ;
#169 = DIRECTION ( 'NONE',  ( -0.000000000000000000, -0.000000000000000000, -1.000000000000000000 ) ) ;
#170 = EDGE_LOOP ( 'NONE', ( #206, #105 ) ) ;
#171 = PLANE ( 'NONE',  #110 ) ;
#172 = APPROVAL ( #27, 'NEURÈENÝ' ) ;
#173 = ADVANCED_BREP_SHAPE_REPRESENTATION ( '22ae', ( #73, #167 ), #191 ) ;
#174 = DIRECTION ( 'NONE',  ( 1.000000000000000000, 0.000000000000000000, 0.000000000000000000 ) ) ;
#175 = LINE ( 'NONE', #60, #49 ) ;
#176 = DIRECTION ( 'NONE',  ( 1.000000000000000000, 0.000000000000000000, 0.000000000000000000 ) ) ;
#177 = COORDINATED_UNIVERSAL_TIME_OFFSET ( 1, 0, .AHEAD. ) ;
#178 = AXIS2_PLACEMENT_3D ( 'NONE', #193, #249, #111 ) ;
#179 = PERSON_AND_ORGANIZATION_ROLE ( 'creator' ) ;
#180 = PRODUCT_RELATED_PRODUCT_CATEGORY ( 'detail', '', ( #69 ) ) ;
#181 = VECTOR ( 'NONE', #48, 1000.000000000000000 ) ;
#182 = ORIENTED_EDGE ( 'NONE', *, *, #211, .T. ) ;
#183 = CIRCLE ( 'NONE', #70, 3.500000000000000000 ) ;
#184 = CARTESIAN_POINT ( 'NONE',  ( 0.000000000000000000, 0.000000000000000000, 3.000000000000000000 ) ) ;
#185 = SHAPE_DEFINITION_REPRESENTATION ( #22, #173 ) ;
#186 = CIRCLE ( 'NONE', #223, 1.750000000000000000 ) ;
#187 = EDGE_CURVE ( 'NONE', #2, #87, #118, .T. ) ;
#188 = ORIENTED_EDGE ( 'NONE', *, *, #43, .T. ) ;
#189 = CARTESIAN_POINT ( 'NONE',  ( 3.500000000000000000, 4.286263797015736595E-16, 0.000000000000000000 ) ) ;
#190 = DIRECTION ( 'NONE',  ( 0.000000000000000000, 0.000000000000000000, 1.000000000000000000 ) ) ;
#191 =( GEOMETRIC_REPRESENTATION_CONTEXT ( 3 ) GLOBAL_UNCERTAINTY_ASSIGNED_CONTEXT ( ( #133 ) ) GLOBAL_UNIT_ASSIGNED_CONTEXT ( ( #213, #37, #112 ) ) REPRESENTATION_CONTEXT ( 'NONE', 'WORKASPACE' ) );
#192 = PLANE ( 'NONE',  #255 ) ;
#193 = CARTESIAN_POINT ( 'NONE',  ( 0.000000000000000000, 0.000000000000000000, 3.000000000000000000 ) ) ;
#194 = CARTESIAN_POINT ( 'NONE',  ( 0.000000000000000000, 0.000000000000000000, 0.000000000000000000 ) ) ;
#195 = ADVANCED_FACE ( 'NONE', ( #15 ), #12, .T. ) ;
#196 = APPROVAL_ROLE ( '' ) ;
#197 = EDGE_CURVE ( 'NONE', #42, #9, #175, .T. ) ;
#198 = APPROVAL_PERSON_ORGANIZATION ( #63, #102, #83 ) ;
#199 = AXIS2_PLACEMENT_3D ( 'NONE', #152, #51, #208 ) ;
#200 = ORIENTED_EDGE ( 'NONE', *, *, #231, .F. ) ;
#201 = ADVANCED_FACE ( 'NONE', ( #142, #216 ), #171, .T. ) ;
#202 = VERTEX_POINT ( 'NONE', #228 ) ;
#203 = ORIENTED_EDGE ( 'NONE', *, *, #217, .T. ) ;
#204 = APPROVAL_DATE_TIME ( #72, #172 ) ;
#205 = CC_DESIGN_APPROVAL ( #102, ( #36 ) ) ;
#206 = ORIENTED_EDGE ( 'NONE', *, *, #211, .F. ) ;
#207 = VECTOR ( 'NONE', #169, 1000.000000000000000 ) ;
#208 = DIRECTION ( 'NONE',  ( 1.000000000000000000, 0.000000000000000000, 0.000000000000000000 ) ) ;
#209 = CARTESIAN_POINT ( 'NONE',  ( 0.000000000000000000, 0.000000000000000000, 203.0000000000000000 ) ) ;
#210 = DIRECTION ( 'NONE',  ( -0.000000000000000000, -0.000000000000000000, -1.000000000000000000 ) ) ;
#211 = EDGE_CURVE ( 'NONE', #65, #164, #186, .T. ) ;
#212 = DIRECTION ( 'NONE',  ( 1.000000000000000000, 0.000000000000000000, 0.000000000000000000 ) ) ;
#213 =( LENGTH_UNIT ( ) NAMED_UNIT ( * ) SI_UNIT ( .MILLI., .METRE. ) );
#214 = CALENDAR_DATE ( 2022, 7, 7 ) ;
#215 = AXIS2_PLACEMENT_3D ( 'NONE', #46, #74, #226 ) ;
#216 = FACE_OUTER_BOUND ( 'NONE', #135, .T. ) ;
#217 = EDGE_CURVE ( 'NONE', #202, #9, #183, .T. ) ;
#218 = APPROVAL_STATUS ( 'not_yet_approved' ) ;
#219 = DIRECTION ( 'NONE',  ( 0.000000000000000000, 0.000000000000000000, 1.000000000000000000 ) ) ;
#220 = ADVANCED_FACE ( 'NONE', ( #75 ), #192, .F. ) ;
#221 = CARTESIAN_POINT ( 'NONE',  ( 1.750000000000000000, 2.143131898507868297E-16, 203.0000000000000000 ) ) ;
#222 = CALENDAR_DATE ( 2022, 7, 7 ) ;
#223 = AXIS2_PLACEMENT_3D ( 'NONE', #153, #251, #17 ) ;
#224 = DIRECTION ( 'NONE',  ( -1.000000000000000000, 0.000000000000000000, 0.000000000000000000 ) ) ;
#225 = CARTESIAN_POINT ( 'NONE',  ( -3.500000000000000000, 0.000000000000000000, 3.000000000000000000 ) ) ;
#226 = DIRECTION ( 'NONE',  ( 1.000000000000000000, 0.000000000000000000, 0.000000000000000000 ) ) ;
#227 = FACE_OUTER_BOUND ( 'NONE', #76, .T. ) ;
#228 = CARTESIAN_POINT ( 'NONE',  ( -3.500000000000000000, 0.000000000000000000, 0.000000000000000000 ) ) ;
#229 = PERSON_AND_ORGANIZATION ( #113, #130 ) ;
#230 = AXIS2_PLACEMENT_3D ( 'NONE', #82, #92, #79 ) ;
#231 = EDGE_CURVE ( 'NONE', #32, #42, #21, .T. ) ;
#232 = CARTESIAN_POINT ( 'NONE',  ( 0.000000000000000000, 0.000000000000000000, 203.0000000000000000 ) ) ;
#233 = CALENDAR_DATE ( 2022, 7, 7 ) ;
#234 = AXIS2_PLACEMENT_3D ( 'NONE', #168, #4, #68 ) ;
#235 = DATE_AND_TIME ( #254, #89 ) ;
#236 = DESIGN_CONTEXT ( 'detailed design', #240, 'design' ) ;
#237 = CC_DESIGN_APPROVAL ( #31, ( #81 ) ) ;
#238 = ORIENTED_EDGE ( 'NONE', *, *, #148, .F. ) ;
#239 = CARTESIAN_POINT ( 'NONE',  ( -1.750000000000000000, 0.000000000000000000, 203.0000000000000000 ) ) ;
#240 = APPLICATION_CONTEXT ( 'configuration controlled 3d designs of mechanical parts and assemblies' ) ;
#241 = CARTESIAN_POINT ( 'NONE',  ( 3.500000000000000000, 4.286263797015736595E-16, 3.000000000000000000 ) ) ;
#242 = DIRECTION ( 'NONE',  ( 0.000000000000000000, 0.000000000000000000, 1.000000000000000000 ) ) ;
#243 = CC_DESIGN_PERSON_AND_ORGANIZATION_ASSIGNMENT ( #229, #179, ( #36 ) ) ;
#244 = ORIENTED_EDGE ( 'NONE', *, *, #217, .F. ) ;
#245 = DIRECTION ( 'NONE',  ( 0.000000000000000000, 0.000000000000000000, 1.000000000000000000 ) ) ;
#246 = CYLINDRICAL_SURFACE ( 'NONE', #253, 1.750000000000000000 ) ;
#247 = PERSON_AND_ORGANIZATION_ROLE ( 'design_supplier' ) ;
#248 = CC_DESIGN_PERSON_AND_ORGANIZATION_ASSIGNMENT ( #157, #247, ( #36 ) ) ;
#249 = DIRECTION ( 'NONE',  ( 0.000000000000000000, 0.000000000000000000, 1.000000000000000000 ) ) ;
#250 = PERSON_AND_ORGANIZATION_ROLE ( 'classification_officer' ) ;
#251 = DIRECTION ( 'NONE',  ( 0.000000000000000000, 0.000000000000000000, 1.000000000000000000 ) ) ;
#252 = COORDINATED_UNIVERSAL_TIME_OFFSET ( 1, 0, .AHEAD. ) ;
#253 = AXIS2_PLACEMENT_3D ( 'NONE', #114, #100, #38 ) ;
#254 = CALENDAR_DATE ( 2022, 7, 7 ) ;
#255 = AXIS2_PLACEMENT_3D ( 'NONE', #109, #77, #10 ) ;
ENDSEC;
END-ISO-10303-21;
