ISO-10303-21;
HEADER;
FILE_DESCRIPTION (( 'STEP AP203' ),
    '1' );
FILE_NAME ('c6b7.STEP',
    '2022-07-07T17:49:49',
    ( '' ),
    ( '' ),
    'SwSTEP 2.0',
    'SolidWorks 2019',
    '' );
FILE_SCHEMA (( 'CONFIG_CONTROL_DESIGN' ));
ENDSEC;

DATA;
#1 = EDGE_CURVE ( 'NONE', #203, #90, #116, .T. ) ;
#2 = DIRECTION ( 'NONE',  ( -0.000000000000000000, -0.000000000000000000, -1.000000000000000000 ) ) ;
#3 = PLANE ( 'NONE',  #87 ) ;
#4 = PERSON_AND_ORGANIZATION_ROLE ( 'classification_officer' ) ;
#5 = CARTESIAN_POINT ( 'NONE',  ( 0.000000000000000000, 0.000000000000000000, 3.000000000000000000 ) ) ;
#6 = AXIS2_PLACEMENT_3D ( 'NONE', #86, #84, #141 ) ;
#7 = AXIS2_PLACEMENT_3D ( 'NONE', #205, #88, #130 ) ;
#8 = CYLINDRICAL_SURFACE ( 'NONE', #7, 4.000000000000000000 ) ;
#9 = CARTESIAN_POINT ( 'NONE',  ( 0.000000000000000000, 0.000000000000000000, 403.0000000000000000 ) ) ;
#10 = PERSON_AND_ORGANIZATION ( #233, #39 ) ;
#11 = CARTESIAN_POINT ( 'NONE',  ( 4.000000000000000000, 4.898587196589412829E-16, 0.000000000000000000 ) ) ;
#12 = VERTEX_POINT ( 'NONE', #152 ) ;
#13 = COORDINATED_UNIVERSAL_TIME_OFFSET ( 1, 0, .AHEAD. ) ;
#14 = ORIENTED_EDGE ( 'NONE', *, *, #252, .F. ) ;
#15 = DIRECTION ( 'NONE',  ( 1.000000000000000000, 0.000000000000000000, 0.000000000000000000 ) ) ;
#16 = AXIS2_PLACEMENT_3D ( 'NONE', #70, #188, #184 ) ;
#17 = EDGE_CURVE ( 'NONE', #178, #91, #96, .T. ) ;
#18 = AXIS2_PLACEMENT_3D ( 'NONE', #5, #125, #127 ) ;
#19 = CC_DESIGN_PERSON_AND_ORGANIZATION_ASSIGNMENT ( #169, #176, ( #117 ) ) ;
#20 = CIRCLE ( 'NONE', #18, 4.000000000000000000 ) ;
#21 = CARTESIAN_POINT ( 'NONE',  ( 2.100000000000000089, 2.571758278209441957E-16, 403.0000000000000000 ) ) ;
#22 = APPROVAL ( #204, 'NEURÈENÝ' ) ;
#23 = DIRECTION ( 'NONE',  ( 1.000000000000000000, 0.000000000000000000, 0.000000000000000000 ) ) ;
#24 = VERTEX_POINT ( 'NONE', #54 ) ;
#25 = CARTESIAN_POINT ( 'NONE',  ( 0.000000000000000000, 0.000000000000000000, 403.0000000000000000 ) ) ;
#26 = PERSON_AND_ORGANIZATION ( #233, #39 ) ;
#27 = CARTESIAN_POINT ( 'NONE',  ( 0.000000000000000000, 0.000000000000000000, 3.000000000000000000 ) ) ;
#28 = DIRECTION ( 'NONE',  ( 0.000000000000000000, 0.000000000000000000, 1.000000000000000000 ) ) ;
#29 = CALENDAR_DATE ( 2022, 7, 7 ) ;
#30 = CC_DESIGN_SECURITY_CLASSIFICATION ( #217, ( #46 ) ) ;
#31 = APPLICATION_PROTOCOL_DEFINITION ( 'international standard', 'config_control_design', 1994, #133 ) ;
#32 = CARTESIAN_POINT ( 'NONE',  ( 4.000000000000000000, 4.898587196589412829E-16, 3.000000000000000000 ) ) ;
#33 = DIRECTION ( 'NONE',  ( 0.000000000000000000, 0.000000000000000000, 1.000000000000000000 ) ) ;
#34 =( NAMED_UNIT ( * ) PLANE_ANGLE_UNIT ( ) SI_UNIT ( $, .RADIAN. ) );
#35 = ORIENTED_EDGE ( 'NONE', *, *, #1, .T. ) ;
#36 = CC_DESIGN_DATE_AND_TIME_ASSIGNMENT ( #49, #206, ( #217 ) ) ;
#37 = PERSON_AND_ORGANIZATION_ROLE ( 'creator' ) ;
#38 = CYLINDRICAL_SURFACE ( 'NONE', #92, 4.000000000000000000 ) ;
#39 = ORGANIZATION ( 'NEURÈENÝ', 'NEURÈENÝ', '' ) ;
#40 = ADVANCED_FACE ( 'NONE', ( #59 ), #79, .F. ) ;
#41 = LOCAL_TIME ( 19, 49, 49.00000000000000000, #242 ) ;
#42 = APPROVAL_PERSON_ORGANIZATION ( #174, #122, #220 ) ;
#43 = VERTEX_POINT ( 'NONE', #128 ) ;
#44 = ADVANCED_FACE ( 'NONE', ( #57 ), #208, .T. ) ;
#45 = CARTESIAN_POINT ( 'NONE',  ( 0.000000000000000000, 0.000000000000000000, 403.0000000000000000 ) ) ;
#46 = PRODUCT_DEFINITION_FORMATION_WITH_SPECIFIED_SOURCE ( 'LIBOVOLNÝ', '', #117, .NOT_KNOWN. ) ;
#47 = SECURITY_CLASSIFICATION_LEVEL ( 'unclassified' ) ;
#48 =( LENGTH_UNIT ( ) NAMED_UNIT ( * ) SI_UNIT ( .MILLI., .METRE. ) );
#49 = DATE_AND_TIME ( #143, #41 ) ;
#50 = DIRECTION ( 'NONE',  ( -0.000000000000000000, -0.000000000000000000, -1.000000000000000000 ) ) ;
#51 = COORDINATED_UNIVERSAL_TIME_OFFSET ( 1, 0, .AHEAD. ) ;
#52 = CARTESIAN_POINT ( 'NONE',  ( -2.100000000000000089, 0.000000000000000000, 403.0000000000000000 ) ) ;
#53 = VECTOR ( 'NONE', #2, 1000.000000000000000 ) ;
#54 = CARTESIAN_POINT ( 'NONE',  ( 2.100000000000000089, 2.571758278209441957E-16, 3.000000000000000000 ) ) ;
#55 = AXIS2_PLACEMENT_3D ( 'NONE', #25, #202, #23 ) ;
#56 = DIRECTION ( 'NONE',  ( 1.000000000000000000, 0.000000000000000000, 0.000000000000000000 ) ) ;
#57 = FACE_OUTER_BOUND ( 'NONE', #175, .T. ) ;
#58 = PRODUCT_DEFINITION ( 'NEZNÁMÝ', '', #46, #234 ) ;
#59 = FACE_OUTER_BOUND ( 'NONE', #251, .T. ) ;
#60 = ORIENTED_EDGE ( 'NONE', *, *, #155, .T. ) ;
#61 = CIRCLE ( 'NONE', #16, 2.100000000000000089 ) ;
#62 = CLOSED_SHELL ( 'NONE', ( #77, #81, #182, #146, #40, #236, #44 ) ) ;
#63 = APPROVAL ( #147, 'NEURÈENÝ' ) ;
#64 = VECTOR ( 'NONE', #100, 1000.000000000000000 ) ;
#65 = EDGE_LOOP ( 'NONE', ( #98, #161, #74, #249 ) ) ;
#66 = DIRECTION ( 'NONE',  ( 1.000000000000000000, 0.000000000000000000, 0.000000000000000000 ) ) ;
#67 = CC_DESIGN_PERSON_AND_ORGANIZATION_ASSIGNMENT ( #183, #4, ( #217 ) ) ;
#68 = DIRECTION ( 'NONE',  ( 1.000000000000000000, 0.000000000000000000, 0.000000000000000000 ) ) ;
#69 = PERSON_AND_ORGANIZATION ( #233, #39 ) ;
#70 = CARTESIAN_POINT ( 'NONE',  ( 0.000000000000000000, 0.000000000000000000, 3.000000000000000000 ) ) ;
#71 = ORIENTED_EDGE ( 'NONE', *, *, #97, .F. ) ;
#72 = CALENDAR_DATE ( 2022, 7, 7 ) ;
#73 = CYLINDRICAL_SURFACE ( 'NONE', #162, 2.100000000000000089 ) ;
#74 = ORIENTED_EDGE ( 'NONE', *, *, #252, .T. ) ;
#75 = CARTESIAN_POINT ( 'NONE',  ( 0.000000000000000000, 0.000000000000000000, 0.000000000000000000 ) ) ;
#76 = ORIENTED_EDGE ( 'NONE', *, *, #218, .T. ) ;
#77 = ADVANCED_FACE ( 'NONE', ( #134 ), #131, .T. ) ;
#78 = APPROVAL_DATE_TIME ( #166, #122 ) ;
#79 = PLANE ( 'NONE',  #241 ) ;
#80 = DIRECTION ( 'NONE',  ( 1.000000000000000000, 0.000000000000000000, -0.000000000000000000 ) ) ;
#81 = ADVANCED_FACE ( 'NONE', ( #177 ), #38, .T. ) ;
#82 = CC_DESIGN_APPROVAL ( #122, ( #46 ) ) ;
#83 = CC_DESIGN_PERSON_AND_ORGANIZATION_ASSIGNMENT ( #69, #148, ( #46 ) ) ;
#84 = DIRECTION ( 'NONE',  ( 0.000000000000000000, 0.000000000000000000, 1.000000000000000000 ) ) ;
#85 = PRODUCT_RELATED_PRODUCT_CATEGORY ( 'detail', '', ( #117 ) ) ;
#86 = CARTESIAN_POINT ( 'NONE',  ( 0.000000000000000000, 0.000000000000000000, 3.000000000000000000 ) ) ;
#87 = AXIS2_PLACEMENT_3D ( 'NONE', #27, #168, #144 ) ;
#88 = DIRECTION ( 'NONE',  ( -0.000000000000000000, -0.000000000000000000, -1.000000000000000000 ) ) ;
#89 = LINE ( 'NONE', #165, #64 ) ;
#90 = VERTEX_POINT ( 'NONE', #103 ) ;
#91 = VERTEX_POINT ( 'NONE', #185 ) ;
#92 = AXIS2_PLACEMENT_3D ( 'NONE', #112, #111, #106 ) ;
#93 = ORIENTED_EDGE ( 'NONE', *, *, #17, .T. ) ;
#94 = ORIENTED_EDGE ( 'NONE', *, *, #95, .F. ) ;
#95 = EDGE_CURVE ( 'NONE', #43, #24, #61, .T. ) ;
#96 = CIRCLE ( 'NONE', #235, 4.000000000000000000 ) ;
#97 = EDGE_CURVE ( 'NONE', #12, #135, #139, .T. ) ;
#98 = ORIENTED_EDGE ( 'NONE', *, *, #17, .F. ) ;
#99 = ORIENTED_EDGE ( 'NONE', *, *, #1, .F. ) ;
#100 = DIRECTION ( 'NONE',  ( -0.000000000000000000, -0.000000000000000000, -1.000000000000000000 ) ) ;
#101 = CC_DESIGN_PERSON_AND_ORGANIZATION_ASSIGNMENT ( #230, #37, ( #46 ) ) ;
#102 = APPROVAL_DATE_TIME ( #223, #63 ) ;
#103 = CARTESIAN_POINT ( 'NONE',  ( -2.100000000000000089, 0.000000000000000000, 403.0000000000000000 ) ) ;
#104 = COORDINATED_UNIVERSAL_TIME_OFFSET ( 1, 0, .AHEAD. ) ;
#105 = DIRECTION ( 'NONE',  ( -0.000000000000000000, -0.000000000000000000, -1.000000000000000000 ) ) ;
#106 = DIRECTION ( 'NONE',  ( -1.000000000000000000, 0.000000000000000000, 0.000000000000000000 ) ) ;
#107 = DIRECTION ( 'NONE',  ( -1.000000000000000000, 0.000000000000000000, 0.000000000000000000 ) ) ;
#108 = CC_DESIGN_APPROVAL ( #22, ( #58 ) ) ;
#109 = DATE_AND_TIME ( #190, #115 ) ;
#110 = EDGE_CURVE ( 'NONE', #90, #43, #209, .T. ) ;
#111 = DIRECTION ( 'NONE',  ( -0.000000000000000000, -0.000000000000000000, -1.000000000000000000 ) ) ;
#112 = CARTESIAN_POINT ( 'NONE',  ( 0.000000000000000000, 0.000000000000000000, 3.000000000000000000 ) ) ;
#113 = DIRECTION ( 'NONE',  ( 1.000000000000000000, 0.000000000000000000, -0.000000000000000000 ) ) ;
#114 = CARTESIAN_POINT ( 'NONE',  ( 0.000000000000000000, 0.000000000000000000, 403.0000000000000000 ) ) ;
#115 = LOCAL_TIME ( 19, 49, 49.00000000000000000, #104 ) ;
#116 = CIRCLE ( 'NONE', #158, 2.100000000000000089 ) ;
#117 = PRODUCT ( 'c6b7', 'c6b7', '', ( #151 ) ) ;
#118 = EDGE_CURVE ( 'NONE', #203, #24, #221, .T. ) ;
#119 = AXIS2_PLACEMENT_3D ( 'NONE', #211, #210, #107 ) ;
#120 = CIRCLE ( 'NONE', #55, 2.100000000000000089 ) ;
#121 = ORIENTED_EDGE ( 'NONE', *, *, #118, .F. ) ;
#122 = APPROVAL ( #248, 'NEURÈENÝ' ) ;
#123 = DIRECTION ( 'NONE',  ( -1.000000000000000000, 0.000000000000000000, 0.000000000000000000 ) ) ;
#124 = PERSON_AND_ORGANIZATION_ROLE ( 'creator' ) ;
#125 = DIRECTION ( 'NONE',  ( 0.000000000000000000, 0.000000000000000000, 1.000000000000000000 ) ) ;
#126 = DIRECTION ( 'NONE',  ( 0.000000000000000000, 0.000000000000000000, 1.000000000000000000 ) ) ;
#127 = DIRECTION ( 'NONE',  ( 1.000000000000000000, 0.000000000000000000, 0.000000000000000000 ) ) ;
#128 = CARTESIAN_POINT ( 'NONE',  ( -2.100000000000000089, 0.000000000000000000, 3.000000000000000000 ) ) ;
#129 = APPROVAL_DATE_TIME ( #187, #22 ) ;
#130 = DIRECTION ( 'NONE',  ( -1.000000000000000000, 0.000000000000000000, 0.000000000000000000 ) ) ;
#131 = CYLINDRICAL_SURFACE ( 'NONE', #119, 2.100000000000000089 ) ;
#132 = APPLICATION_PROTOCOL_DEFINITION ( 'international standard', 'config_control_design', 1994, #199 ) ;
#133 = APPLICATION_CONTEXT ( 'configuration controlled 3d designs of mechanical parts and assemblies' ) ;
#134 = FACE_OUTER_BOUND ( 'NONE', #213, .T. ) ;
#135 = VERTEX_POINT ( 'NONE', #11 ) ;
#136 = AXIS2_PLACEMENT_3D ( 'NONE', #9, #28, #113 ) ;
#137 = LOCAL_TIME ( 19, 49, 49.00000000000000000, #227 ) ;
#138 = CC_DESIGN_PERSON_AND_ORGANIZATION_ASSIGNMENT ( #10, #124, ( #58 ) ) ;
#139 = CIRCLE ( 'NONE', #197, 4.000000000000000000 ) ;
#140 = CC_DESIGN_APPROVAL ( #63, ( #217 ) ) ;
#141 = DIRECTION ( 'NONE',  ( 1.000000000000000000, 0.000000000000000000, 0.000000000000000000 ) ) ;
#142 = APPROVAL_PERSON_ORGANIZATION ( #244, #22, #212 ) ;
#143 = CALENDAR_DATE ( 2022, 7, 7 ) ;
#144 = DIRECTION ( 'NONE',  ( 1.000000000000000000, 0.000000000000000000, -0.000000000000000000 ) ) ;
#145 = ORIENTED_EDGE ( 'NONE', *, *, #194, .F. ) ;
#146 = ADVANCED_FACE ( 'NONE', ( #149, #181 ), #3, .T. ) ;
#147 = APPROVAL_STATUS ( 'not_yet_approved' ) ;
#148 = PERSON_AND_ORGANIZATION_ROLE ( 'design_supplier' ) ;
#149 = FACE_BOUND ( 'NONE', #150, .T. ) ;
#150 = EDGE_LOOP ( 'NONE', ( #94, #191 ) ) ;
#151 = MECHANICAL_CONTEXT ( 'NONE', #133, 'mechanical' ) ;
#152 = CARTESIAN_POINT ( 'NONE',  ( -4.000000000000000000, 0.000000000000000000, 0.000000000000000000 ) ) ;
#153 = CIRCLE ( 'NONE', #237, 4.000000000000000000 ) ;
#154 = DATE_TIME_ROLE ( 'creation_date' ) ;
#155 = EDGE_CURVE ( 'NONE', #24, #43, #254, .T. ) ;
#156 = ORIENTED_EDGE ( 'NONE', *, *, #118, .T. ) ;
#157 = DIRECTION ( 'NONE',  ( 0.000000000000000000, 0.000000000000000000, 1.000000000000000000 ) ) ;
#158 = AXIS2_PLACEMENT_3D ( 'NONE', #114, #157, #15 ) ;
#159 = AXIS2_PLACEMENT_3D ( 'NONE', #75, #126, #56 ) ;
#160 = ORIENTED_EDGE ( 'NONE', *, *, #110, .T. ) ;
#161 = ORIENTED_EDGE ( 'NONE', *, *, #194, .T. ) ;
#162 = AXIS2_PLACEMENT_3D ( 'NONE', #45, #180, #123 ) ;
#163 = CARTESIAN_POINT ( 'NONE',  ( 2.100000000000000089, 2.571758278209441957E-16, 403.0000000000000000 ) ) ;
#164 = APPROVAL_ROLE ( '' ) ;
#165 = CARTESIAN_POINT ( 'NONE',  ( -4.000000000000000000, 0.000000000000000000, 3.000000000000000000 ) ) ;
#166 = DATE_AND_TIME ( #250, #193 ) ;
#167 = CC_DESIGN_DATE_AND_TIME_ASSIGNMENT ( #109, #154, ( #58 ) ) ;
#168 = DIRECTION ( 'NONE',  ( 0.000000000000000000, 0.000000000000000000, 1.000000000000000000 ) ) ;
#169 = PERSON_AND_ORGANIZATION ( #233, #39 ) ;
#170 = FACE_OUTER_BOUND ( 'NONE', #186, .T. ) ;
#171 = ORIENTED_EDGE ( 'NONE', *, *, #110, .F. ) ;
#172 = UNCERTAINTY_MEASURE_WITH_UNIT (LENGTH_MEASURE( 1.000000000000000082E-05 ), #48, 'distance_accuracy_value', 'NONE');
#173 = SHAPE_DEFINITION_REPRESENTATION ( #255, #216 ) ;
#174 = PERSON_AND_ORGANIZATION ( #233, #39 ) ;
#175 = EDGE_LOOP ( 'NONE', ( #192, #35 ) ) ;
#176 = PERSON_AND_ORGANIZATION_ROLE ( 'design_owner' ) ;
#177 = FACE_OUTER_BOUND ( 'NONE', #65, .T. ) ;
#178 = VERTEX_POINT ( 'NONE', #245 ) ;
#179 = ORIENTED_EDGE ( 'NONE', *, *, #95, .T. ) ;
#180 = DIRECTION ( 'NONE',  ( -0.000000000000000000, -0.000000000000000000, -1.000000000000000000 ) ) ;
#181 = FACE_OUTER_BOUND ( 'NONE', #246, .T. ) ;
#182 = ADVANCED_FACE ( 'NONE', ( #239 ), #8, .T. ) ;
#183 = PERSON_AND_ORGANIZATION ( #233, #39 ) ;
#184 = DIRECTION ( 'NONE',  ( 1.000000000000000000, 0.000000000000000000, 0.000000000000000000 ) ) ;
#185 = CARTESIAN_POINT ( 'NONE',  ( -4.000000000000000000, 0.000000000000000000, 3.000000000000000000 ) ) ;
#186 = EDGE_LOOP ( 'NONE', ( #121, #195, #160, #179 ) ) ;
#187 = DATE_AND_TIME ( #72, #228 ) ;
#188 = DIRECTION ( 'NONE',  ( 0.000000000000000000, 0.000000000000000000, 1.000000000000000000 ) ) ;
#189 = ORIENTED_EDGE ( 'NONE', *, *, #214, .T. ) ;
#190 = CALENDAR_DATE ( 2022, 7, 7 ) ;
#191 = ORIENTED_EDGE ( 'NONE', *, *, #155, .F. ) ;
#192 = ORIENTED_EDGE ( 'NONE', *, *, #247, .T. ) ;
#193 = LOCAL_TIME ( 19, 49, 49.00000000000000000, #13 ) ;
#194 = EDGE_CURVE ( 'NONE', #178, #135, #243, .T. ) ;
#195 = ORIENTED_EDGE ( 'NONE', *, *, #247, .F. ) ;
#196 = VECTOR ( 'NONE', #50, 1000.000000000000000 ) ;
#197 = AXIS2_PLACEMENT_3D ( 'NONE', #207, #219, #66 ) ;
#198 =( GEOMETRIC_REPRESENTATION_CONTEXT ( 3 ) GLOBAL_UNCERTAINTY_ASSIGNED_CONTEXT ( ( #172 ) ) GLOBAL_UNIT_ASSIGNED_CONTEXT ( ( #48, #34, #224 ) ) REPRESENTATION_CONTEXT ( 'NONE', 'WORKASPACE' ) );
#199 = APPLICATION_CONTEXT ( 'configuration controlled 3d designs of mechanical parts and assemblies' ) ;
#200 = ORIENTED_EDGE ( 'NONE', *, *, #97, .T. ) ;
#201 = VECTOR ( 'NONE', #105, 1000.000000000000000 ) ;
#202 = DIRECTION ( 'NONE',  ( 0.000000000000000000, 0.000000000000000000, 1.000000000000000000 ) ) ;
#203 = VERTEX_POINT ( 'NONE', #21 ) ;
#204 = APPROVAL_STATUS ( 'not_yet_approved' ) ;
#205 = CARTESIAN_POINT ( 'NONE',  ( 0.000000000000000000, 0.000000000000000000, 3.000000000000000000 ) ) ;
#206 = DATE_TIME_ROLE ( 'classification_date' ) ;
#207 = CARTESIAN_POINT ( 'NONE',  ( 0.000000000000000000, 0.000000000000000000, 0.000000000000000000 ) ) ;
#208 = PLANE ( 'NONE',  #136 ) ;
#209 = LINE ( 'NONE', #52, #53 ) ;
#210 = DIRECTION ( 'NONE',  ( -0.000000000000000000, -0.000000000000000000, -1.000000000000000000 ) ) ;
#211 = CARTESIAN_POINT ( 'NONE',  ( 0.000000000000000000, 0.000000000000000000, 403.0000000000000000 ) ) ;
#212 = APPROVAL_ROLE ( '' ) ;
#213 = EDGE_LOOP ( 'NONE', ( #99, #156, #60, #171 ) ) ;
#214 = EDGE_CURVE ( 'NONE', #91, #12, #89, .T. ) ;
#215 = APPROVAL_PERSON_ORGANIZATION ( #26, #63, #164 ) ;
#216 = ADVANCED_BREP_SHAPE_REPRESENTATION ( 'c6b7', ( #238, #159 ), #198 ) ;
#217 = SECURITY_CLASSIFICATION ( '', '', #47 ) ;
#218 = EDGE_CURVE ( 'NONE', #91, #178, #20, .T. ) ;
#219 = DIRECTION ( 'NONE',  ( 0.000000000000000000, 0.000000000000000000, 1.000000000000000000 ) ) ;
#220 = APPROVAL_ROLE ( '' ) ;
#221 = LINE ( 'NONE', #163, #201 ) ;
#222 = ORIENTED_EDGE ( 'NONE', *, *, #218, .F. ) ;
#223 = DATE_AND_TIME ( #29, #137 ) ;
#224 =( NAMED_UNIT ( * ) SI_UNIT ( $, .STERADIAN. ) SOLID_ANGLE_UNIT ( ) );
#225 = CARTESIAN_POINT ( 'NONE',  ( 0.000000000000000000, 0.000000000000000000, 0.000000000000000000 ) ) ;
#226 = EDGE_LOOP ( 'NONE', ( #145, #222, #189, #200 ) ) ;
#227 = COORDINATED_UNIVERSAL_TIME_OFFSET ( 1, 0, .AHEAD. ) ;
#228 = LOCAL_TIME ( 19, 49, 49.00000000000000000, #51 ) ;
#229 = DIRECTION ( 'NONE',  ( 0.000000000000000000, 0.000000000000000000, 1.000000000000000000 ) ) ;
#230 = PERSON_AND_ORGANIZATION ( #233, #39 ) ;
#231 = DIRECTION ( 'NONE',  ( 1.000000000000000000, 0.000000000000000000, 0.000000000000000000 ) ) ;
#232 = CARTESIAN_POINT ( 'NONE',  ( 0.000000000000000000, 0.000000000000000000, 0.000000000000000000 ) ) ;
#233 = PERSON ( 'NEURÈENÝ', 'NEURÈENÝ', 'NEURÈENÝ', ('NEURÈENÝ'), ('NEURÈENÝ'), ('NEURÈENÝ') ) ;
#234 = DESIGN_CONTEXT ( 'detailed design', #199, 'design' ) ;
#235 = AXIS2_PLACEMENT_3D ( 'NONE', #253, #33, #231 ) ;
#236 = ADVANCED_FACE ( 'NONE', ( #170 ), #73, .T. ) ;
#237 = AXIS2_PLACEMENT_3D ( 'NONE', #225, #240, #68 ) ;
#238 = MANIFOLD_SOLID_BREP ( 'Pøidat vysunutím3', #62 ) ;
#239 = FACE_OUTER_BOUND ( 'NONE', #226, .T. ) ;
#240 = DIRECTION ( 'NONE',  ( 0.000000000000000000, 0.000000000000000000, 1.000000000000000000 ) ) ;
#241 = AXIS2_PLACEMENT_3D ( 'NONE', #232, #229, #80 ) ;
#242 = COORDINATED_UNIVERSAL_TIME_OFFSET ( 1, 0, .AHEAD. ) ;
#243 = LINE ( 'NONE', #32, #196 ) ;
#244 = PERSON_AND_ORGANIZATION ( #233, #39 ) ;
#245 = CARTESIAN_POINT ( 'NONE',  ( 4.000000000000000000, 4.898587196589412829E-16, 3.000000000000000000 ) ) ;
#246 = EDGE_LOOP ( 'NONE', ( #76, #93 ) ) ;
#247 = EDGE_CURVE ( 'NONE', #90, #203, #120, .T. ) ;
#248 = APPROVAL_STATUS ( 'not_yet_approved' ) ;
#249 = ORIENTED_EDGE ( 'NONE', *, *, #214, .F. ) ;
#250 = CALENDAR_DATE ( 2022, 7, 7 ) ;
#251 = EDGE_LOOP ( 'NONE', ( #71, #14 ) ) ;
#252 = EDGE_CURVE ( 'NONE', #135, #12, #153, .T. ) ;
#253 = CARTESIAN_POINT ( 'NONE',  ( 0.000000000000000000, 0.000000000000000000, 3.000000000000000000 ) ) ;
#254 = CIRCLE ( 'NONE', #6, 2.100000000000000089 ) ;
#255 = PRODUCT_DEFINITION_SHAPE ( 'NONE', 'NONE',  #58 ) ;
ENDSEC;
END-ISO-10303-21;
