ISO-10303-21;
HEADER;
FILE_DESCRIPTION (( 'STEP AP203' ),
    '1' );
FILE_NAME ('972b.STEP',
    '2022-07-07T17:50:29',
    ( '' ),
    ( '' ),
    'SwSTEP 2.0',
    'SolidWorks 2019',
    '' );
FILE_SCHEMA (( 'CONFIG_CONTROL_DESIGN' ));
ENDSEC;

DATA;
#1 =( NAMED_UNIT ( * ) PLANE_ANGLE_UNIT ( ) SI_UNIT ( $, .RADIAN. ) );
#2 = CARTESIAN_POINT ( 'NONE',  ( -2.100000000000000089, 0.000000000000000000, 3.000000000000000000 ) ) ;
#3 = LINE ( 'NONE', #104, #182 ) ;
#4 = CARTESIAN_POINT ( 'NONE',  ( 0.000000000000000000, 0.000000000000000000, 3.000000000000000000 ) ) ;
#5 = VERTEX_POINT ( 'NONE', #247 ) ;
#6 = PERSON_AND_ORGANIZATION ( #253, #22 ) ;
#7 = FACE_BOUND ( 'NONE', #49, .T. ) ;
#8 = CARTESIAN_POINT ( 'NONE',  ( -4.000000000000000000, 0.000000000000000000, 0.000000000000000000 ) ) ;
#9 = AXIS2_PLACEMENT_3D ( 'NONE', #12, #72, #223 ) ;
#10 = DIRECTION ( 'NONE',  ( 0.000000000000000000, 0.000000000000000000, 1.000000000000000000 ) ) ;
#11 = EDGE_CURVE ( 'NONE', #66, #129, #242, .T. ) ;
#12 = CARTESIAN_POINT ( 'NONE',  ( 0.000000000000000000, 0.000000000000000000, 3.000000000000000000 ) ) ;
#13 = APPROVAL_STATUS ( 'not_yet_approved' ) ;
#14 = PRODUCT_DEFINITION_FORMATION_WITH_SPECIFIED_SOURCE ( 'LIBOVOLNÝ', '', #184, .NOT_KNOWN. ) ;
#15 = PERSON_AND_ORGANIZATION ( #253, #22 ) ;
#16 = PRODUCT_DEFINITION_SHAPE ( 'NONE', 'NONE',  #227 ) ;
#17 = CC_DESIGN_DATE_AND_TIME_ASSIGNMENT ( #194, #98, ( #207 ) ) ;
#18 = DESIGN_CONTEXT ( 'detailed design', #96, 'design' ) ;
#19 = DIRECTION ( 'NONE',  ( -0.000000000000000000, -0.000000000000000000, -1.000000000000000000 ) ) ;
#20 = LINE ( 'NONE', #239, #61 ) ;
#21 = DIRECTION ( 'NONE',  ( 0.000000000000000000, 0.000000000000000000, 1.000000000000000000 ) ) ;
#22 = ORGANIZATION ( 'NEURÈENÝ', 'NEURÈENÝ', '' ) ;
#23 = ORIENTED_EDGE ( 'NONE', *, *, #254, .T. ) ;
#24 = ORIENTED_EDGE ( 'NONE', *, *, #220, .T. ) ;
#25 = ADVANCED_FACE ( 'NONE', ( #31 ), #115, .T. ) ;
#26 = ORIENTED_EDGE ( 'NONE', *, *, #158, .T. ) ;
#27 = CIRCLE ( 'NONE', #166, 2.100000000000000089 ) ;
#28 = CARTESIAN_POINT ( 'NONE',  ( 0.000000000000000000, 0.000000000000000000, 163.0000000000000000 ) ) ;
#29 = CARTESIAN_POINT ( 'NONE',  ( 2.100000000000000089, 2.571758278209441957E-16, 163.0000000000000000 ) ) ;
#30 = DIRECTION ( 'NONE',  ( 0.000000000000000000, 0.000000000000000000, 1.000000000000000000 ) ) ;
#31 = FACE_OUTER_BOUND ( 'NONE', #241, .T. ) ;
#32 = PERSON_AND_ORGANIZATION_ROLE ( 'creator' ) ;
#33 = SECURITY_CLASSIFICATION_LEVEL ( 'unclassified' ) ;
#34 = APPROVAL_PERSON_ORGANIZATION ( #193, #197, #56 ) ;
#35 = LOCAL_TIME ( 19, 50, 29.00000000000000000, #188 ) ;
#36 = EDGE_CURVE ( 'NONE', #214, #5, #139, .T. ) ;
#37 = CIRCLE ( 'NONE', #212, 4.000000000000000000 ) ;
#38 = APPLICATION_CONTEXT ( 'configuration controlled 3d designs of mechanical parts and assemblies' ) ;
#39 = ORIENTED_EDGE ( 'NONE', *, *, #110, .T. ) ;
#40 = MECHANICAL_CONTEXT ( 'NONE', #38, 'mechanical' ) ;
#41 = APPROVAL ( #13, 'NEURÈENÝ' ) ;
#42 = DIRECTION ( 'NONE',  ( -1.000000000000000000, 0.000000000000000000, 0.000000000000000000 ) ) ;
#43 = DIRECTION ( 'NONE',  ( 0.000000000000000000, 0.000000000000000000, 1.000000000000000000 ) ) ;
#44 = CIRCLE ( 'NONE', #57, 4.000000000000000000 ) ;
#45 = EDGE_LOOP ( 'NONE', ( #109, #83, #229, #64 ) ) ;
#46 = EDGE_LOOP ( 'NONE', ( #24, #26 ) ) ;
#47 = EDGE_CURVE ( 'NONE', #93, #66, #131, .T. ) ;
#48 = VERTEX_POINT ( 'NONE', #8 ) ;
#49 = EDGE_LOOP ( 'NONE', ( #255, #224 ) ) ;
#50 = CARTESIAN_POINT ( 'NONE',  ( 0.000000000000000000, 0.000000000000000000, 3.000000000000000000 ) ) ;
#51 = CARTESIAN_POINT ( 'NONE',  ( 0.000000000000000000, 0.000000000000000000, 3.000000000000000000 ) ) ;
#52 = EDGE_LOOP ( 'NONE', ( #101, #189 ) ) ;
#53 = DIRECTION ( 'NONE',  ( 1.000000000000000000, 0.000000000000000000, 0.000000000000000000 ) ) ;
#54 = DIRECTION ( 'NONE',  ( 0.000000000000000000, 0.000000000000000000, 1.000000000000000000 ) ) ;
#55 = PERSON_AND_ORGANIZATION ( #253, #22 ) ;
#56 = APPROVAL_ROLE ( '' ) ;
#57 = AXIS2_PLACEMENT_3D ( 'NONE', #4, #21, #218 ) ;
#58 = DATE_TIME_ROLE ( 'creation_date' ) ;
#59 = CIRCLE ( 'NONE', #76, 4.000000000000000000 ) ;
#60 = DIRECTION ( 'NONE',  ( 0.000000000000000000, 0.000000000000000000, 1.000000000000000000 ) ) ;
#61 = VECTOR ( 'NONE', #19, 1000.000000000000000 ) ;
#62 = DIRECTION ( 'NONE',  ( -0.000000000000000000, -0.000000000000000000, -1.000000000000000000 ) ) ;
#63 = PLANE ( 'NONE',  #251 ) ;
#64 = ORIENTED_EDGE ( 'NONE', *, *, #254, .F. ) ;
#65 = AXIS2_PLACEMENT_3D ( 'NONE', #201, #217, #42 ) ;
#66 = VERTEX_POINT ( 'NONE', #134 ) ;
#67 = CC_DESIGN_PERSON_AND_ORGANIZATION_ASSIGNMENT ( #15, #112, ( #207 ) ) ;
#68 = APPROVAL_DATE_TIME ( #99, #137 ) ;
#69 = DIRECTION ( 'NONE',  ( 0.000000000000000000, 0.000000000000000000, 1.000000000000000000 ) ) ;
#70 = LINE ( 'NONE', #226, #157 ) ;
#71 = FACE_OUTER_BOUND ( 'NONE', #219, .T. ) ;
#72 = DIRECTION ( 'NONE',  ( -0.000000000000000000, -0.000000000000000000, -1.000000000000000000 ) ) ;
#73 = PERSON_AND_ORGANIZATION_ROLE ( 'creator' ) ;
#74 = LOCAL_TIME ( 19, 50, 29.00000000000000000, #232 ) ;
#75 = APPROVAL_DATE_TIME ( #206, #197 ) ;
#76 = AXIS2_PLACEMENT_3D ( 'NONE', #89, #169, #244 ) ;
#77 = ORIENTED_EDGE ( 'NONE', *, *, #141, .F. ) ;
#78 = CC_DESIGN_APPROVAL ( #197, ( #14 ) ) ;
#79 = DIRECTION ( 'NONE',  ( -0.000000000000000000, -0.000000000000000000, -1.000000000000000000 ) ) ;
#80 = DIRECTION ( 'NONE',  ( 0.000000000000000000, 0.000000000000000000, 1.000000000000000000 ) ) ;
#81 = FACE_OUTER_BOUND ( 'NONE', #240, .T. ) ;
#82 = AXIS2_PLACEMENT_3D ( 'NONE', #145, #80, #200 ) ;
#83 = ORIENTED_EDGE ( 'NONE', *, *, #47, .T. ) ;
#84 = CC_DESIGN_PERSON_AND_ORGANIZATION_ASSIGNMENT ( #211, #149, ( #14 ) ) ;
#85 = CALENDAR_DATE ( 2022, 7, 7 ) ;
#86 = ORIENTED_EDGE ( 'NONE', *, *, #100, .F. ) ;
#87 = CC_DESIGN_PERSON_AND_ORGANIZATION_ASSIGNMENT ( #6, #152, ( #184 ) ) ;
#88 = PLANE ( 'NONE',  #95 ) ;
#89 = CARTESIAN_POINT ( 'NONE',  ( 0.000000000000000000, 0.000000000000000000, 0.000000000000000000 ) ) ;
#90 = CALENDAR_DATE ( 2022, 7, 7 ) ;
#91 = ORIENTED_EDGE ( 'NONE', *, *, #141, .T. ) ;
#92 = DIRECTION ( 'NONE',  ( 1.000000000000000000, 0.000000000000000000, -0.000000000000000000 ) ) ;
#93 = VERTEX_POINT ( 'NONE', #209 ) ;
#94 = DATE_AND_TIME ( #85, #35 ) ;
#95 = AXIS2_PLACEMENT_3D ( 'NONE', #168, #243, #150 ) ;
#96 = APPLICATION_CONTEXT ( 'configuration controlled 3d designs of mechanical parts and assemblies' ) ;
#97 = EDGE_CURVE ( 'NONE', #183, #48, #59, .T. ) ;
#98 = DATE_TIME_ROLE ( 'classification_date' ) ;
#99 = DATE_AND_TIME ( #249, #216 ) ;
#100 = EDGE_CURVE ( 'NONE', #214, #183, #70, .T. ) ;
#101 = ORIENTED_EDGE ( 'NONE', *, *, #195, .F. ) ;
#102 = ORIENTED_EDGE ( 'NONE', *, *, #195, .T. ) ;
#103 = CC_DESIGN_APPROVAL ( #41, ( #207 ) ) ;
#104 = CARTESIAN_POINT ( 'NONE',  ( -2.100000000000000089, 0.000000000000000000, 163.0000000000000000 ) ) ;
#105 = CARTESIAN_POINT ( 'NONE',  ( 0.000000000000000000, 0.000000000000000000, 163.0000000000000000 ) ) ;
#106 = ADVANCED_BREP_SHAPE_REPRESENTATION ( '972b', ( #160, #140 ), #248 ) ;
#107 = DIRECTION ( 'NONE',  ( -0.000000000000000000, -0.000000000000000000, -1.000000000000000000 ) ) ;
#108 = ADVANCED_FACE ( 'NONE', ( #81 ), #164, .T. ) ;
#109 = ORIENTED_EDGE ( 'NONE', *, *, #158, .F. ) ;
#110 = EDGE_CURVE ( 'NONE', #5, #214, #44, .T. ) ;
#111 = DIRECTION ( 'NONE',  ( 1.000000000000000000, 0.000000000000000000, 0.000000000000000000 ) ) ;
#112 = PERSON_AND_ORGANIZATION_ROLE ( 'classification_officer' ) ;
#113 = ORIENTED_EDGE ( 'NONE', *, *, #120, .T. ) ;
#114 = CARTESIAN_POINT ( 'NONE',  ( 4.000000000000000000, 4.898587196589412829E-16, 0.000000000000000000 ) ) ;
#115 = CYLINDRICAL_SURFACE ( 'NONE', #9, 4.000000000000000000 ) ;
#116 = APPROVAL_STATUS ( 'not_yet_approved' ) ;
#117 = APPROVAL_STATUS ( 'not_yet_approved' ) ;
#118 = DATE_AND_TIME ( #90, #126 ) ;
#119 = CC_DESIGN_PERSON_AND_ORGANIZATION_ASSIGNMENT ( #55, #73, ( #14 ) ) ;
#120 = EDGE_CURVE ( 'NONE', #129, #66, #196, .T. ) ;
#121 = AXIS2_PLACEMENT_3D ( 'NONE', #225, #190, #170 ) ;
#122 = CC_DESIGN_PERSON_AND_ORGANIZATION_ASSIGNMENT ( #245, #32, ( #227 ) ) ;
#123 = EDGE_LOOP ( 'NONE', ( #86, #202, #91, #102 ) ) ;
#124 = FACE_OUTER_BOUND ( 'NONE', #123, .T. ) ;
#125 = CYLINDRICAL_SURFACE ( 'NONE', #65, 2.100000000000000089 ) ;
#126 = LOCAL_TIME ( 19, 50, 29.00000000000000000, #230 ) ;
#127 = ORIENTED_EDGE ( 'NONE', *, *, #97, .T. ) ;
#128 = CLOSED_SHELL ( 'NONE', ( #144, #25, #147, #161, #233, #108, #138 ) ) ;
#129 = VERTEX_POINT ( 'NONE', #2 ) ;
#130 = CARTESIAN_POINT ( 'NONE',  ( -2.100000000000000089, 0.000000000000000000, 163.0000000000000000 ) ) ;
#131 = LINE ( 'NONE', #29, #175 ) ;
#132 = PERSON_AND_ORGANIZATION ( #253, #22 ) ;
#133 = CYLINDRICAL_SURFACE ( 'NONE', #121, 4.000000000000000000 ) ;
#134 = CARTESIAN_POINT ( 'NONE',  ( 2.100000000000000089, 2.571758278209441957E-16, 3.000000000000000000 ) ) ;
#135 = APPROVAL_ROLE ( '' ) ;
#136 = COORDINATED_UNIVERSAL_TIME_OFFSET ( 1, 0, .AHEAD. ) ;
#137 = APPROVAL ( #117, 'NEURÈENÝ' ) ;
#138 = ADVANCED_FACE ( 'NONE', ( #162 ), #63, .T. ) ;
#139 = CIRCLE ( 'NONE', #234, 4.000000000000000000 ) ;
#140 = AXIS2_PLACEMENT_3D ( 'NONE', #237, #60, #142 ) ;
#141 = EDGE_CURVE ( 'NONE', #5, #48, #20, .T. ) ;
#142 = DIRECTION ( 'NONE',  ( 1.000000000000000000, 0.000000000000000000, 0.000000000000000000 ) ) ;
#143 = DIRECTION ( 'NONE',  ( 1.000000000000000000, 0.000000000000000000, -0.000000000000000000 ) ) ;
#144 = ADVANCED_FACE ( 'NONE', ( #181 ), #125, .T. ) ;
#145 = CARTESIAN_POINT ( 'NONE',  ( 0.000000000000000000, 0.000000000000000000, 3.000000000000000000 ) ) ;
#146 = AXIS2_PLACEMENT_3D ( 'NONE', #154, #30, #246 ) ;
#147 = ADVANCED_FACE ( 'NONE', ( #124 ), #133, .T. ) ;
#148 = PLANE ( 'NONE',  #153 ) ;
#149 = PERSON_AND_ORGANIZATION_ROLE ( 'design_supplier' ) ;
#150 = DIRECTION ( 'NONE',  ( 1.000000000000000000, 0.000000000000000000, -0.000000000000000000 ) ) ;
#151 = DIRECTION ( 'NONE',  ( 0.000000000000000000, 0.000000000000000000, 1.000000000000000000 ) ) ;
#152 = PERSON_AND_ORGANIZATION_ROLE ( 'design_owner' ) ;
#153 = AXIS2_PLACEMENT_3D ( 'NONE', #50, #10, #92 ) ;
#154 = CARTESIAN_POINT ( 'NONE',  ( 0.000000000000000000, 0.000000000000000000, 163.0000000000000000 ) ) ;
#155 = DIRECTION ( 'NONE',  ( 1.000000000000000000, 0.000000000000000000, 0.000000000000000000 ) ) ;
#156 = APPROVAL_ROLE ( '' ) ;
#157 = VECTOR ( 'NONE', #62, 1000.000000000000000 ) ;
#158 = EDGE_CURVE ( 'NONE', #93, #171, #185, .T. ) ;
#159 = AXIS2_PLACEMENT_3D ( 'NONE', #191, #151, #155 ) ;
#160 = MANIFOLD_SOLID_BREP ( 'Pøidat vysunutím3', #128 ) ;
#161 = ADVANCED_FACE ( 'NONE', ( #7, #71 ), #148, .T. ) ;
#162 = FACE_OUTER_BOUND ( 'NONE', #46, .T. ) ;
#163 =( LENGTH_UNIT ( ) NAMED_UNIT ( * ) SI_UNIT ( .MILLI., .METRE. ) );
#164 = CYLINDRICAL_SURFACE ( 'NONE', #231, 2.100000000000000089 ) ;
#165 = ORIENTED_EDGE ( 'NONE', *, *, #100, .T. ) ;
#166 = AXIS2_PLACEMENT_3D ( 'NONE', #28, #69, #111 ) ;
#167 = ORIENTED_EDGE ( 'NONE', *, *, #36, .T. ) ;
#168 = CARTESIAN_POINT ( 'NONE',  ( 0.000000000000000000, 0.000000000000000000, 0.000000000000000000 ) ) ;
#169 = DIRECTION ( 'NONE',  ( 0.000000000000000000, 0.000000000000000000, 1.000000000000000000 ) ) ;
#170 = DIRECTION ( 'NONE',  ( -1.000000000000000000, 0.000000000000000000, 0.000000000000000000 ) ) ;
#171 = VERTEX_POINT ( 'NONE', #130 ) ;
#172 = APPROVAL_PERSON_ORGANIZATION ( #132, #137, #156 ) ;
#173 = SHAPE_DEFINITION_REPRESENTATION ( #16, #106 ) ;
#174 = PERSON_AND_ORGANIZATION ( #253, #22 ) ;
#175 = VECTOR ( 'NONE', #205, 1000.000000000000000 ) ;
#176 = CALENDAR_DATE ( 2022, 7, 7 ) ;
#177 = ORIENTED_EDGE ( 'NONE', *, *, #47, .F. ) ;
#178 = LOCAL_TIME ( 19, 50, 29.00000000000000000, #136 ) ;
#179 = CC_DESIGN_SECURITY_CLASSIFICATION ( #207, ( #14 ) ) ;
#180 = DIRECTION ( 'NONE',  ( -1.000000000000000000, 0.000000000000000000, 0.000000000000000000 ) ) ;
#181 = FACE_OUTER_BOUND ( 'NONE', #45, .T. ) ;
#182 = VECTOR ( 'NONE', #79, 1000.000000000000000 ) ;
#183 = VERTEX_POINT ( 'NONE', #114 ) ;
#184 = PRODUCT ( '972b', '972b', '', ( #40 ) ) ;
#185 = CIRCLE ( 'NONE', #146, 2.100000000000000089 ) ;
#186 = FACE_OUTER_BOUND ( 'NONE', #52, .T. ) ;
#187 = DIRECTION ( 'NONE',  ( 1.000000000000000000, 0.000000000000000000, 0.000000000000000000 ) ) ;
#188 = COORDINATED_UNIVERSAL_TIME_OFFSET ( 1, 0, .AHEAD. ) ;
#189 = ORIENTED_EDGE ( 'NONE', *, *, #97, .F. ) ;
#190 = DIRECTION ( 'NONE',  ( -0.000000000000000000, -0.000000000000000000, -1.000000000000000000 ) ) ;
#191 = CARTESIAN_POINT ( 'NONE',  ( 0.000000000000000000, 0.000000000000000000, 3.000000000000000000 ) ) ;
#192 = CALENDAR_DATE ( 2022, 7, 7 ) ;
#193 = PERSON_AND_ORGANIZATION ( #253, #22 ) ;
#194 = DATE_AND_TIME ( #192, #74 ) ;
#195 = EDGE_CURVE ( 'NONE', #48, #183, #37, .T. ) ;
#196 = CIRCLE ( 'NONE', #82, 2.100000000000000089 ) ;
#197 = APPROVAL ( #116, 'NEURÈENÝ' ) ;
#198 = ORIENTED_EDGE ( 'NONE', *, *, #36, .F. ) ;
#199 =( NAMED_UNIT ( * ) SI_UNIT ( $, .STERADIAN. ) SOLID_ANGLE_UNIT ( ) );
#200 = DIRECTION ( 'NONE',  ( 1.000000000000000000, 0.000000000000000000, 0.000000000000000000 ) ) ;
#201 = CARTESIAN_POINT ( 'NONE',  ( 0.000000000000000000, 0.000000000000000000, 163.0000000000000000 ) ) ;
#202 = ORIENTED_EDGE ( 'NONE', *, *, #110, .F. ) ;
#203 = CC_DESIGN_DATE_AND_TIME_ASSIGNMENT ( #118, #58, ( #227 ) ) ;
#204 = DIRECTION ( 'NONE',  ( 0.000000000000000000, 0.000000000000000000, 1.000000000000000000 ) ) ;
#205 = DIRECTION ( 'NONE',  ( -0.000000000000000000, -0.000000000000000000, -1.000000000000000000 ) ) ;
#206 = DATE_AND_TIME ( #176, #178 ) ;
#207 = SECURITY_CLASSIFICATION ( '', '', #33 ) ;
#208 = CARTESIAN_POINT ( 'NONE',  ( 4.000000000000000000, 4.898587196589412829E-16, 3.000000000000000000 ) ) ;
#209 = CARTESIAN_POINT ( 'NONE',  ( 2.100000000000000089, 2.571758278209441957E-16, 163.0000000000000000 ) ) ;
#210 = APPLICATION_PROTOCOL_DEFINITION ( 'international standard', 'config_control_design', 1994, #96 ) ;
#211 = PERSON_AND_ORGANIZATION ( #253, #22 ) ;
#212 = AXIS2_PLACEMENT_3D ( 'NONE', #222, #204, #53 ) ;
#213 = APPROVAL_PERSON_ORGANIZATION ( #174, #41, #135 ) ;
#214 = VERTEX_POINT ( 'NONE', #208 ) ;
#215 = APPLICATION_PROTOCOL_DEFINITION ( 'international standard', 'config_control_design', 1994, #38 ) ;
#216 = LOCAL_TIME ( 19, 50, 29.00000000000000000, #228 ) ;
#217 = DIRECTION ( 'NONE',  ( -0.000000000000000000, -0.000000000000000000, -1.000000000000000000 ) ) ;
#218 = DIRECTION ( 'NONE',  ( 1.000000000000000000, 0.000000000000000000, 0.000000000000000000 ) ) ;
#219 = EDGE_LOOP ( 'NONE', ( #39, #167 ) ) ;
#220 = EDGE_CURVE ( 'NONE', #171, #93, #27, .T. ) ;
#221 = ORIENTED_EDGE ( 'NONE', *, *, #220, .F. ) ;
#222 = CARTESIAN_POINT ( 'NONE',  ( 0.000000000000000000, 0.000000000000000000, 0.000000000000000000 ) ) ;
#223 = DIRECTION ( 'NONE',  ( -1.000000000000000000, 0.000000000000000000, 0.000000000000000000 ) ) ;
#224 = ORIENTED_EDGE ( 'NONE', *, *, #11, .F. ) ;
#225 = CARTESIAN_POINT ( 'NONE',  ( 0.000000000000000000, 0.000000000000000000, 3.000000000000000000 ) ) ;
#226 = CARTESIAN_POINT ( 'NONE',  ( 4.000000000000000000, 4.898587196589412829E-16, 3.000000000000000000 ) ) ;
#227 = PRODUCT_DEFINITION ( 'NEZNÁMÝ', '', #14, #18 ) ;
#228 = COORDINATED_UNIVERSAL_TIME_OFFSET ( 1, 0, .AHEAD. ) ;
#229 = ORIENTED_EDGE ( 'NONE', *, *, #11, .T. ) ;
#230 = COORDINATED_UNIVERSAL_TIME_OFFSET ( 1, 0, .AHEAD. ) ;
#231 = AXIS2_PLACEMENT_3D ( 'NONE', #105, #107, #180 ) ;
#232 = COORDINATED_UNIVERSAL_TIME_OFFSET ( 1, 0, .AHEAD. ) ;
#233 = ADVANCED_FACE ( 'NONE', ( #186 ), #88, .F. ) ;
#234 = AXIS2_PLACEMENT_3D ( 'NONE', #51, #54, #187 ) ;
#235 = UNCERTAINTY_MEASURE_WITH_UNIT (LENGTH_MEASURE( 1.000000000000000082E-05 ), #163, 'distance_accuracy_value', 'NONE');
#236 = CC_DESIGN_APPROVAL ( #137, ( #227 ) ) ;
#237 = CARTESIAN_POINT ( 'NONE',  ( 0.000000000000000000, 0.000000000000000000, 0.000000000000000000 ) ) ;
#238 = CARTESIAN_POINT ( 'NONE',  ( 0.000000000000000000, 0.000000000000000000, 163.0000000000000000 ) ) ;
#239 = CARTESIAN_POINT ( 'NONE',  ( -4.000000000000000000, 0.000000000000000000, 3.000000000000000000 ) ) ;
#240 = EDGE_LOOP ( 'NONE', ( #177, #221, #23, #113 ) ) ;
#241 = EDGE_LOOP ( 'NONE', ( #198, #165, #127, #77 ) ) ;
#242 = CIRCLE ( 'NONE', #159, 2.100000000000000089 ) ;
#243 = DIRECTION ( 'NONE',  ( 0.000000000000000000, 0.000000000000000000, 1.000000000000000000 ) ) ;
#244 = DIRECTION ( 'NONE',  ( 1.000000000000000000, 0.000000000000000000, 0.000000000000000000 ) ) ;
#245 = PERSON_AND_ORGANIZATION ( #253, #22 ) ;
#246 = DIRECTION ( 'NONE',  ( 1.000000000000000000, 0.000000000000000000, 0.000000000000000000 ) ) ;
#247 = CARTESIAN_POINT ( 'NONE',  ( -4.000000000000000000, 0.000000000000000000, 3.000000000000000000 ) ) ;
#248 =( GEOMETRIC_REPRESENTATION_CONTEXT ( 3 ) GLOBAL_UNCERTAINTY_ASSIGNED_CONTEXT ( ( #235 ) ) GLOBAL_UNIT_ASSIGNED_CONTEXT ( ( #163, #1, #199 ) ) REPRESENTATION_CONTEXT ( 'NONE', 'WORKASPACE' ) );
#249 = CALENDAR_DATE ( 2022, 7, 7 ) ;
#250 = APPROVAL_DATE_TIME ( #94, #41 ) ;
#251 = AXIS2_PLACEMENT_3D ( 'NONE', #238, #43, #143 ) ;
#252 = PRODUCT_RELATED_PRODUCT_CATEGORY ( 'detail', '', ( #184 ) ) ;
#253 = PERSON ( 'NEURÈENÝ', 'NEURÈENÝ', 'NEURÈENÝ', ('NEURÈENÝ'), ('NEURÈENÝ'), ('NEURÈENÝ') ) ;
#254 = EDGE_CURVE ( 'NONE', #171, #129, #3, .T. ) ;
#255 = ORIENTED_EDGE ( 'NONE', *, *, #120, .F. ) ;
ENDSEC;
END-ISO-10303-21;
