ISO-10303-21;
HEADER;
FILE_DESCRIPTION (( 'STEP AP203' ),
    '1' );
FILE_NAME ('537e.STEP',
    '2022-07-07T17:49:31',
    ( '' ),
    ( '' ),
    'SwSTEP 2.0',
    'SolidWorks 2019',
    '' );
FILE_SCHEMA (( 'CONFIG_CONTROL_DESIGN' ));
ENDSEC;

DATA;
#1 = DIRECTION ( 'NONE',  ( 1.000000000000000000, 0.000000000000000000, 0.000000000000000000 ) ) ;
#2 = CARTESIAN_POINT ( 'NONE',  ( -2.250000000000000000, 0.000000000000000000, 103.0000000000000142 ) ) ;
#3 = DIRECTION ( 'NONE',  ( -0.000000000000000000, -0.000000000000000000, -1.000000000000000000 ) ) ;
#4 = DIRECTION ( 'NONE',  ( -0.000000000000000000, -0.000000000000000000, -1.000000000000000000 ) ) ;
#5 = DATE_AND_TIME ( #196, #245 ) ;
#6 = DIRECTION ( 'NONE',  ( -0.000000000000000000, -0.000000000000000000, -1.000000000000000000 ) ) ;
#7 = DATE_AND_TIME ( #32, #89 ) ;
#8 = CARTESIAN_POINT ( 'NONE',  ( 0.000000000000000000, 0.000000000000000000, 103.0000000000000142 ) ) ;
#9 = DATE_AND_TIME ( #27, #132 ) ;
#10 = EDGE_CURVE ( 'NONE', #151, #19, #57, .T. ) ;
#11 = DIRECTION ( 'NONE',  ( 1.000000000000000000, 0.000000000000000000, -0.000000000000000000 ) ) ;
#12 = CARTESIAN_POINT ( 'NONE',  ( 4.000000000000000000, 4.898587196589412829E-16, 0.000000000000000000 ) ) ;
#13 = APPROVAL ( #85, 'NEURÈENÝ' ) ;
#14 = PERSON ( 'NEURÈENÝ', 'NEURÈENÝ', 'NEURÈENÝ', ('NEURÈENÝ'), ('NEURÈENÝ'), ('NEURÈENÝ') ) ;
#15 = CIRCLE ( 'NONE', #114, 4.000000000000000000 ) ;
#16 = VERTEX_POINT ( 'NONE', #150 ) ;
#17 = CARTESIAN_POINT ( 'NONE',  ( 2.250000000000000000, 2.755455298081544285E-16, 103.0000000000000142 ) ) ;
#18 = EDGE_CURVE ( 'NONE', #54, #16, #137, .T. ) ;
#19 = VERTEX_POINT ( 'NONE', #153 ) ;
#20 = DIRECTION ( 'NONE',  ( 0.000000000000000000, 0.000000000000000000, 1.000000000000000000 ) ) ;
#21 =( NAMED_UNIT ( * ) SI_UNIT ( $, .STERADIAN. ) SOLID_ANGLE_UNIT ( ) );
#22 = CC_DESIGN_DATE_AND_TIME_ASSIGNMENT ( #28, #101, ( #145 ) ) ;
#23 = CARTESIAN_POINT ( 'NONE',  ( 0.000000000000000000, 0.000000000000000000, 3.000000000000000000 ) ) ;
#24 = AXIS2_PLACEMENT_3D ( 'NONE', #113, #76, #138 ) ;
#25 = DIRECTION ( 'NONE',  ( 0.000000000000000000, 0.000000000000000000, 1.000000000000000000 ) ) ;
#26 = ORGANIZATION ( 'NEURÈENÝ', 'NEURÈENÝ', '' ) ;
#27 = CALENDAR_DATE ( 2022, 7, 7 ) ;
#28 = DATE_AND_TIME ( #51, #124 ) ;
#29 = ORIENTED_EDGE ( 'NONE', *, *, #146, .T. ) ;
#30 = COORDINATED_UNIVERSAL_TIME_OFFSET ( 1, 0, .AHEAD. ) ;
#31 = APPROVAL ( #82, 'NEURÈENÝ' ) ;
#32 = CALENDAR_DATE ( 2022, 7, 7 ) ;
#33 = EDGE_CURVE ( 'NONE', #54, #71, #123, .T. ) ;
#34 = APPROVAL_PERSON_ORGANIZATION ( #202, #13, #128 ) ;
#35 = APPLICATION_CONTEXT ( 'configuration controlled 3d designs of mechanical parts and assemblies' ) ;
#36 = VECTOR ( 'NONE', #3, 1000.000000000000000 ) ;
#37 = CARTESIAN_POINT ( 'NONE',  ( -4.000000000000000000, 0.000000000000000000, 3.000000000000000000 ) ) ;
#38 = EDGE_LOOP ( 'NONE', ( #201, #212, #251, #108 ) ) ;
#39 = CARTESIAN_POINT ( 'NONE',  ( 4.000000000000000000, 4.898587196589412829E-16, 3.000000000000000000 ) ) ;
#40 = CARTESIAN_POINT ( 'NONE',  ( 0.000000000000000000, 0.000000000000000000, 0.000000000000000000 ) ) ;
#41 = AXIS2_PLACEMENT_3D ( 'NONE', #96, #197, #78 ) ;
#42 = EDGE_LOOP ( 'NONE', ( #230, #155 ) ) ;
#43 = EDGE_LOOP ( 'NONE', ( #87, #192 ) ) ;
#44 = CC_DESIGN_PERSON_AND_ORGANIZATION_ASSIGNMENT ( #177, #200, ( #249 ) ) ;
#45 = CYLINDRICAL_SURFACE ( 'NONE', #224, 4.000000000000000000 ) ;
#46 = DIRECTION ( 'NONE',  ( 1.000000000000000000, 0.000000000000000000, 0.000000000000000000 ) ) ;
#47 =( LENGTH_UNIT ( ) NAMED_UNIT ( * ) SI_UNIT ( .MILLI., .METRE. ) );
#48 = APPROVAL_DATE_TIME ( #9, #103 ) ;
#49 = DIRECTION ( 'NONE',  ( -0.000000000000000000, -0.000000000000000000, -1.000000000000000000 ) ) ;
#50 = APPLICATION_PROTOCOL_DEFINITION ( 'international standard', 'config_control_design', 1994, #35 ) ;
#51 = CALENDAR_DATE ( 2022, 7, 7 ) ;
#52 = PERSON_AND_ORGANIZATION_ROLE ( 'classification_officer' ) ;
#53 = PRODUCT_RELATED_PRODUCT_CATEGORY ( 'detail', '', ( #249 ) ) ;
#54 = VERTEX_POINT ( 'NONE', #73 ) ;
#55 = CC_DESIGN_APPROVAL ( #13, ( #145 ) ) ;
#56 = VERTEX_POINT ( 'NONE', #214 ) ;
#57 = LINE ( 'NONE', #135, #139 ) ;
#58 = FACE_OUTER_BOUND ( 'NONE', #42, .T. ) ;
#59 = ADVANCED_FACE ( 'NONE', ( #188, #75 ), #110, .T. ) ;
#60 = DIRECTION ( 'NONE',  ( -0.000000000000000000, -0.000000000000000000, -1.000000000000000000 ) ) ;
#61 = DIRECTION ( 'NONE',  ( -1.000000000000000000, 0.000000000000000000, 0.000000000000000000 ) ) ;
#62 = PLANE ( 'NONE',  #24 ) ;
#63 = DIRECTION ( 'NONE',  ( 1.000000000000000000, 0.000000000000000000, 0.000000000000000000 ) ) ;
#64 = APPROVAL_STATUS ( 'not_yet_approved' ) ;
#65 = EDGE_CURVE ( 'NONE', #71, #72, #173, .T. ) ;
#66 = APPROVAL_ROLE ( '' ) ;
#67 = COORDINATED_UNIVERSAL_TIME_OFFSET ( 1, 0, .AHEAD. ) ;
#68 = UNCERTAINTY_MEASURE_WITH_UNIT (LENGTH_MEASURE( 1.000000000000000082E-05 ), #47, 'distance_accuracy_value', 'NONE');
#69 = PRODUCT_DEFINITION ( 'NEZNÁMÝ', '', #205, #186 ) ;
#70 = VECTOR ( 'NONE', #189, 1000.000000000000000 ) ;
#71 = VERTEX_POINT ( 'NONE', #39 ) ;
#72 = VERTEX_POINT ( 'NONE', #12 ) ;
#73 = CARTESIAN_POINT ( 'NONE',  ( -4.000000000000000000, 0.000000000000000000, 3.000000000000000000 ) ) ;
#74 = DIRECTION ( 'NONE',  ( 1.000000000000000000, 0.000000000000000000, 0.000000000000000000 ) ) ;
#75 = FACE_OUTER_BOUND ( 'NONE', #130, .T. ) ;
#76 = DIRECTION ( 'NONE',  ( 0.000000000000000000, 0.000000000000000000, 1.000000000000000000 ) ) ;
#77 = ORIENTED_EDGE ( 'NONE', *, *, #10, .T. ) ;
#78 = DIRECTION ( 'NONE',  ( -1.000000000000000000, 0.000000000000000000, 0.000000000000000000 ) ) ;
#79 = APPROVAL_DATE_TIME ( #127, #31 ) ;
#80 = CIRCLE ( 'NONE', #208, 4.000000000000000000 ) ;
#81 = CYLINDRICAL_SURFACE ( 'NONE', #41, 4.000000000000000000 ) ;
#82 = APPROVAL_STATUS ( 'not_yet_approved' ) ;
#83 = DIRECTION ( 'NONE',  ( -1.000000000000000000, 0.000000000000000000, 0.000000000000000000 ) ) ;
#84 = SECURITY_CLASSIFICATION_LEVEL ( 'unclassified' ) ;
#85 = APPROVAL_STATUS ( 'not_yet_approved' ) ;
#86 = PERSON_AND_ORGANIZATION ( #14, #26 ) ;
#87 = ORIENTED_EDGE ( 'NONE', *, *, #225, .T. ) ;
#88 = AXIS2_PLACEMENT_3D ( 'NONE', #134, #210, #1 ) ;
#89 = LOCAL_TIME ( 19, 49, 31.00000000000000000, #30 ) ;
#90 = CC_DESIGN_APPROVAL ( #31, ( #205 ) ) ;
#91 = CARTESIAN_POINT ( 'NONE',  ( 4.000000000000000000, 4.898587196589412829E-16, 3.000000000000000000 ) ) ;
#92 = ORIENTED_EDGE ( 'NONE', *, *, #185, .T. ) ;
#93 = ORIENTED_EDGE ( 'NONE', *, *, #219, .T. ) ;
#94 = DIRECTION ( 'NONE',  ( 1.000000000000000000, 0.000000000000000000, 0.000000000000000000 ) ) ;
#95 = EDGE_LOOP ( 'NONE', ( #243, #92, #93, #252 ) ) ;
#96 = CARTESIAN_POINT ( 'NONE',  ( 0.000000000000000000, 0.000000000000000000, 3.000000000000000000 ) ) ;
#97 = DIRECTION ( 'NONE',  ( 1.000000000000000000, 0.000000000000000000, 0.000000000000000000 ) ) ;
#98 = CIRCLE ( 'NONE', #246, 4.000000000000000000 ) ;
#99 = DIRECTION ( 'NONE',  ( -1.000000000000000000, 0.000000000000000000, 0.000000000000000000 ) ) ;
#100 = PERSON_AND_ORGANIZATION ( #14, #26 ) ;
#101 = DATE_TIME_ROLE ( 'classification_date' ) ;
#102 = APPROVAL_DATE_TIME ( #7, #13 ) ;
#103 = APPROVAL ( #64, 'NEURÈENÝ' ) ;
#104 = AXIS2_PLACEMENT_3D ( 'NONE', #211, #159, #11 ) ;
#105 = AXIS2_PLACEMENT_3D ( 'NONE', #184, #163, #46 ) ;
#106 = CIRCLE ( 'NONE', #180, 2.250000000000000000 ) ;
#107 = DIRECTION ( 'NONE',  ( 0.000000000000000000, 0.000000000000000000, 1.000000000000000000 ) ) ;
#108 = ORIENTED_EDGE ( 'NONE', *, *, #18, .F. ) ;
#109 = EDGE_CURVE ( 'NONE', #19, #56, #129, .T. ) ;
#110 = PLANE ( 'NONE',  #104 ) ;
#111 = ORIENTED_EDGE ( 'NONE', *, *, #33, .T. ) ;
#112 = ADVANCED_FACE ( 'NONE', ( #116 ), #234, .T. ) ;
#113 = CARTESIAN_POINT ( 'NONE',  ( 0.000000000000000000, 0.000000000000000000, 0.000000000000000000 ) ) ;
#114 = AXIS2_PLACEMENT_3D ( 'NONE', #23, #174, #97 ) ;
#115 = ORIENTED_EDGE ( 'NONE', *, *, #185, .F. ) ;
#116 = FACE_OUTER_BOUND ( 'NONE', #43, .T. ) ;
#117 = APPROVAL_ROLE ( '' ) ;
#118 = CYLINDRICAL_SURFACE ( 'NONE', #226, 2.250000000000000000 ) ;
#119 = PERSON_AND_ORGANIZATION_ROLE ( 'creator' ) ;
#120 = CC_DESIGN_DATE_AND_TIME_ASSIGNMENT ( #5, #217, ( #69 ) ) ;
#121 = DIRECTION ( 'NONE',  ( 0.000000000000000000, 0.000000000000000000, 1.000000000000000000 ) ) ;
#122 = PERSON_AND_ORGANIZATION ( #14, #26 ) ;
#123 = CIRCLE ( 'NONE', #172, 4.000000000000000000 ) ;
#124 = LOCAL_TIME ( 19, 49, 31.00000000000000000, #221 ) ;
#125 = ADVANCED_BREP_SHAPE_REPRESENTATION ( '537e', ( #149, #105 ), #152 ) ;
#126 = PERSON_AND_ORGANIZATION_ROLE ( 'creator' ) ;
#127 = DATE_AND_TIME ( #242, #254 ) ;
#128 = APPROVAL_ROLE ( '' ) ;
#129 = CIRCLE ( 'NONE', #88, 2.250000000000000000 ) ;
#130 = EDGE_LOOP ( 'NONE', ( #111, #29 ) ) ;
#131 = ADVANCED_FACE ( 'NONE', ( #255 ), #45, .T. ) ;
#132 = LOCAL_TIME ( 19, 49, 31.00000000000000000, #67 ) ;
#133 = ORIENTED_EDGE ( 'NONE', *, *, #225, .F. ) ;
#134 = CARTESIAN_POINT ( 'NONE',  ( 0.000000000000000000, 0.000000000000000000, 3.000000000000000000 ) ) ;
#135 = CARTESIAN_POINT ( 'NONE',  ( -2.250000000000000000, 0.000000000000000000, 103.0000000000000142 ) ) ;
#136 = DIRECTION ( 'NONE',  ( 1.000000000000000000, 0.000000000000000000, -0.000000000000000000 ) ) ;
#137 = LINE ( 'NONE', #37, #36 ) ;
#138 = DIRECTION ( 'NONE',  ( 1.000000000000000000, 0.000000000000000000, -0.000000000000000000 ) ) ;
#139 = VECTOR ( 'NONE', #60, 1000.000000000000000 ) ;
#140 = ADVANCED_FACE ( 'NONE', ( #142 ), #118, .T. ) ;
#141 = MECHANICAL_CONTEXT ( 'NONE', #35, 'mechanical' ) ;
#142 = FACE_OUTER_BOUND ( 'NONE', #229, .T. ) ;
#143 = COORDINATED_UNIVERSAL_TIME_OFFSET ( 1, 0, .AHEAD. ) ;
#144 = PERSON_AND_ORGANIZATION ( #14, #26 ) ;
#145 = SECURITY_CLASSIFICATION ( '', '', #84 ) ;
#146 = EDGE_CURVE ( 'NONE', #71, #54, #15, .T. ) ;
#147 = CLOSED_SHELL ( 'NONE', ( #181, #164, #131, #59, #248, #140, #112 ) ) ;
#148 = APPROVAL_PERSON_ORGANIZATION ( #179, #31, #117 ) ;
#149 = MANIFOLD_SOLID_BREP ( 'Pøidat vysunutím3', #147 ) ;
#150 = CARTESIAN_POINT ( 'NONE',  ( -4.000000000000000000, 0.000000000000000000, 0.000000000000000000 ) ) ;
#151 = VERTEX_POINT ( 'NONE', #2 ) ;
#152 =( GEOMETRIC_REPRESENTATION_CONTEXT ( 3 ) GLOBAL_UNCERTAINTY_ASSIGNED_CONTEXT ( ( #68 ) ) GLOBAL_UNIT_ASSIGNED_CONTEXT ( ( #47, #198, #21 ) ) REPRESENTATION_CONTEXT ( 'NONE', 'WORKASPACE' ) );
#153 = CARTESIAN_POINT ( 'NONE',  ( -2.250000000000000000, 0.000000000000000000, 3.000000000000000000 ) ) ;
#154 = DIRECTION ( 'NONE',  ( 0.000000000000000000, 0.000000000000000000, 1.000000000000000000 ) ) ;
#155 = ORIENTED_EDGE ( 'NONE', *, *, #228, .F. ) ;
#156 = DIRECTION ( 'NONE',  ( 1.000000000000000000, 0.000000000000000000, 0.000000000000000000 ) ) ;
#157 = DIRECTION ( 'NONE',  ( -0.000000000000000000, -0.000000000000000000, -1.000000000000000000 ) ) ;
#158 = CC_DESIGN_PERSON_AND_ORGANIZATION_ASSIGNMENT ( #86, #119, ( #69 ) ) ;
#159 = DIRECTION ( 'NONE',  ( 0.000000000000000000, 0.000000000000000000, 1.000000000000000000 ) ) ;
#160 = CARTESIAN_POINT ( 'NONE',  ( 0.000000000000000000, 0.000000000000000000, 103.0000000000000142 ) ) ;
#161 = LINE ( 'NONE', #239, #204 ) ;
#162 = DIRECTION ( 'NONE',  ( 1.000000000000000000, 0.000000000000000000, 0.000000000000000000 ) ) ;
#163 = DIRECTION ( 'NONE',  ( 0.000000000000000000, 0.000000000000000000, 1.000000000000000000 ) ) ;
#164 = ADVANCED_FACE ( 'NONE', ( #178 ), #81, .T. ) ;
#165 = SHAPE_DEFINITION_REPRESENTATION ( #206, #125 ) ;
#166 = ORIENTED_EDGE ( 'NONE', *, *, #219, .F. ) ;
#167 = EDGE_CURVE ( 'NONE', #170, #151, #215, .T. ) ;
#168 = AXIS2_PLACEMENT_3D ( 'NONE', #237, #241, #63 ) ;
#169 = APPROVAL_PERSON_ORGANIZATION ( #122, #103, #66 ) ;
#170 = VERTEX_POINT ( 'NONE', #17 ) ;
#171 = ORIENTED_EDGE ( 'NONE', *, *, #223, .T. ) ;
#172 = AXIS2_PLACEMENT_3D ( 'NONE', #227, #107, #156 ) ;
#173 = LINE ( 'NONE', #91, #70 ) ;
#174 = DIRECTION ( 'NONE',  ( 0.000000000000000000, 0.000000000000000000, 1.000000000000000000 ) ) ;
#175 = ORIENTED_EDGE ( 'NONE', *, *, #109, .T. ) ;
#176 = FACE_OUTER_BOUND ( 'NONE', #95, .T. ) ;
#177 = PERSON_AND_ORGANIZATION ( #14, #26 ) ;
#178 = FACE_OUTER_BOUND ( 'NONE', #38, .T. ) ;
#179 = PERSON_AND_ORGANIZATION ( #14, #26 ) ;
#180 = AXIS2_PLACEMENT_3D ( 'NONE', #216, #182, #74 ) ;
#181 = ADVANCED_FACE ( 'NONE', ( #176 ), #193, .T. ) ;
#182 = DIRECTION ( 'NONE',  ( 0.000000000000000000, 0.000000000000000000, 1.000000000000000000 ) ) ;
#183 = PERSON_AND_ORGANIZATION_ROLE ( 'design_supplier' ) ;
#184 = CARTESIAN_POINT ( 'NONE',  ( 0.000000000000000000, 0.000000000000000000, 0.000000000000000000 ) ) ;
#185 = EDGE_CURVE ( 'NONE', #170, #56, #161, .T. ) ;
#186 = DESIGN_CONTEXT ( 'detailed design', #207, 'design' ) ;
#187 = CIRCLE ( 'NONE', #168, 2.250000000000000000 ) ;
#188 = FACE_BOUND ( 'NONE', #233, .T. ) ;
#189 = DIRECTION ( 'NONE',  ( -0.000000000000000000, -0.000000000000000000, -1.000000000000000000 ) ) ;
#190 = ORIENTED_EDGE ( 'NONE', *, *, #33, .F. ) ;
#191 = CARTESIAN_POINT ( 'NONE',  ( 0.000000000000000000, 0.000000000000000000, 3.000000000000000000 ) ) ;
#192 = ORIENTED_EDGE ( 'NONE', *, *, #167, .T. ) ;
#193 = CYLINDRICAL_SURFACE ( 'NONE', #236, 2.250000000000000000 ) ;
#194 = APPLICATION_PROTOCOL_DEFINITION ( 'international standard', 'config_control_design', 1994, #207 ) ;
#195 = CARTESIAN_POINT ( 'NONE',  ( 0.000000000000000000, 0.000000000000000000, 103.0000000000000142 ) ) ;
#196 = CALENDAR_DATE ( 2022, 7, 7 ) ;
#197 = DIRECTION ( 'NONE',  ( -0.000000000000000000, -0.000000000000000000, -1.000000000000000000 ) ) ;
#198 =( NAMED_UNIT ( * ) PLANE_ANGLE_UNIT ( ) SI_UNIT ( $, .RADIAN. ) );
#199 = AXIS2_PLACEMENT_3D ( 'NONE', #160, #121, #162 ) ;
#200 = PERSON_AND_ORGANIZATION_ROLE ( 'design_owner' ) ;
#201 = ORIENTED_EDGE ( 'NONE', *, *, #146, .F. ) ;
#202 = PERSON_AND_ORGANIZATION ( #14, #26 ) ;
#203 = CC_DESIGN_PERSON_AND_ORGANIZATION_ASSIGNMENT ( #100, #183, ( #205 ) ) ;
#204 = VECTOR ( 'NONE', #4, 1000.000000000000000 ) ;
#205 = PRODUCT_DEFINITION_FORMATION_WITH_SPECIFIED_SOURCE ( 'LIBOVOLNÝ', '', #249, .NOT_KNOWN. ) ;
#206 = PRODUCT_DEFINITION_SHAPE ( 'NONE', 'NONE',  #69 ) ;
#207 = APPLICATION_CONTEXT ( 'configuration controlled 3d designs of mechanical parts and assemblies' ) ;
#208 = AXIS2_PLACEMENT_3D ( 'NONE', #220, #25, #94 ) ;
#209 = EDGE_LOOP ( 'NONE', ( #235, #190, #218, #171 ) ) ;
#210 = DIRECTION ( 'NONE',  ( 0.000000000000000000, 0.000000000000000000, 1.000000000000000000 ) ) ;
#211 = CARTESIAN_POINT ( 'NONE',  ( 0.000000000000000000, 0.000000000000000000, 3.000000000000000000 ) ) ;
#212 = ORIENTED_EDGE ( 'NONE', *, *, #65, .T. ) ;
#213 = CARTESIAN_POINT ( 'NONE',  ( 0.000000000000000000, 0.000000000000000000, 103.0000000000000142 ) ) ;
#214 = CARTESIAN_POINT ( 'NONE',  ( 2.250000000000000000, 2.755455298081544285E-16, 3.000000000000000000 ) ) ;
#215 = CIRCLE ( 'NONE', #199, 2.250000000000000000 ) ;
#216 = CARTESIAN_POINT ( 'NONE',  ( 0.000000000000000000, 0.000000000000000000, 103.0000000000000142 ) ) ;
#217 = DATE_TIME_ROLE ( 'creation_date' ) ;
#218 = ORIENTED_EDGE ( 'NONE', *, *, #18, .T. ) ;
#219 = EDGE_CURVE ( 'NONE', #56, #19, #187, .T. ) ;
#220 = CARTESIAN_POINT ( 'NONE',  ( 0.000000000000000000, 0.000000000000000000, 0.000000000000000000 ) ) ;
#221 = COORDINATED_UNIVERSAL_TIME_OFFSET ( 1, 0, .AHEAD. ) ;
#222 = COORDINATED_UNIVERSAL_TIME_OFFSET ( 1, 0, .AHEAD. ) ;
#223 = EDGE_CURVE ( 'NONE', #16, #72, #80, .T. ) ;
#224 = AXIS2_PLACEMENT_3D ( 'NONE', #191, #49, #83 ) ;
#225 = EDGE_CURVE ( 'NONE', #151, #170, #106, .T. ) ;
#226 = AXIS2_PLACEMENT_3D ( 'NONE', #195, #157, #61 ) ;
#227 = CARTESIAN_POINT ( 'NONE',  ( 0.000000000000000000, 0.000000000000000000, 3.000000000000000000 ) ) ;
#228 = EDGE_CURVE ( 'NONE', #72, #16, #98, .T. ) ;
#229 = EDGE_LOOP ( 'NONE', ( #115, #133, #77, #175 ) ) ;
#230 = ORIENTED_EDGE ( 'NONE', *, *, #223, .F. ) ;
#231 = DIRECTION ( 'NONE',  ( 1.000000000000000000, 0.000000000000000000, 0.000000000000000000 ) ) ;
#232 = CC_DESIGN_PERSON_AND_ORGANIZATION_ASSIGNMENT ( #240, #126, ( #205 ) ) ;
#233 = EDGE_LOOP ( 'NONE', ( #253, #166 ) ) ;
#234 = PLANE ( 'NONE',  #244 ) ;
#235 = ORIENTED_EDGE ( 'NONE', *, *, #65, .F. ) ;
#236 = AXIS2_PLACEMENT_3D ( 'NONE', #213, #6, #99 ) ;
#237 = CARTESIAN_POINT ( 'NONE',  ( 0.000000000000000000, 0.000000000000000000, 3.000000000000000000 ) ) ;
#238 = CC_DESIGN_SECURITY_CLASSIFICATION ( #145, ( #205 ) ) ;
#239 = CARTESIAN_POINT ( 'NONE',  ( 2.250000000000000000, 2.755455298081544285E-16, 103.0000000000000142 ) ) ;
#240 = PERSON_AND_ORGANIZATION ( #14, #26 ) ;
#241 = DIRECTION ( 'NONE',  ( 0.000000000000000000, 0.000000000000000000, 1.000000000000000000 ) ) ;
#242 = CALENDAR_DATE ( 2022, 7, 7 ) ;
#243 = ORIENTED_EDGE ( 'NONE', *, *, #167, .F. ) ;
#244 = AXIS2_PLACEMENT_3D ( 'NONE', #8, #20, #136 ) ;
#245 = LOCAL_TIME ( 19, 49, 31.00000000000000000, #222 ) ;
#246 = AXIS2_PLACEMENT_3D ( 'NONE', #40, #154, #231 ) ;
#247 = CC_DESIGN_APPROVAL ( #103, ( #69 ) ) ;
#248 = ADVANCED_FACE ( 'NONE', ( #58 ), #62, .F. ) ;
#249 = PRODUCT ( '537e', '537e', '', ( #141 ) ) ;
#250 = CC_DESIGN_PERSON_AND_ORGANIZATION_ASSIGNMENT ( #144, #52, ( #145 ) ) ;
#251 = ORIENTED_EDGE ( 'NONE', *, *, #228, .T. ) ;
#252 = ORIENTED_EDGE ( 'NONE', *, *, #10, .F. ) ;
#253 = ORIENTED_EDGE ( 'NONE', *, *, #109, .F. ) ;
#254 = LOCAL_TIME ( 19, 49, 31.00000000000000000, #143 ) ;
#255 = FACE_OUTER_BOUND ( 'NONE', #209, .T. ) ;
ENDSEC;
END-ISO-10303-21;
