ISO-10303-21;
HEADER;
FILE_DESCRIPTION (( 'STEP AP203' ),
    '1' );
FILE_NAME ('ba0c.STEP',
    '2022-07-07T17:58:43',
    ( '' ),
    ( '' ),
    'SwSTEP 2.0',
    'SolidWorks 2019',
    '' );
FILE_SCHEMA (( 'CONFIG_CONTROL_DESIGN' ));
ENDSEC;

DATA;
#1 = APPROVAL_STATUS ( 'not_yet_approved' ) ;
#2 = EDGE_CURVE ( 'NONE', #49, #162, #119, .T. ) ;
#3 = CIRCLE ( 'NONE', #206, 1.250000000000000000 ) ;
#4 = APPROVAL_PERSON_ORGANIZATION ( #255, #37, #180 ) ;
#5 = EDGE_CURVE ( 'NONE', #181, #127, #177, .T. ) ;
#6 = EDGE_LOOP ( 'NONE', ( #184, #240 ) ) ;
#7 = ORIENTED_EDGE ( 'NONE', *, *, #47, .F. ) ;
#8 = CC_DESIGN_PERSON_AND_ORGANIZATION_ASSIGNMENT ( #62, #18, ( #224 ) ) ;
#9 = ORIENTED_EDGE ( 'NONE', *, *, #105, .F. ) ;
#10 = DIRECTION ( 'NONE',  ( -0.000000000000000000, -0.000000000000000000, -1.000000000000000000 ) ) ;
#11 = CARTESIAN_POINT ( 'NONE',  ( 0.000000000000000000, 0.000000000000000000, 127.0000000000000000 ) ) ;
#12 = APPLICATION_CONTEXT ( 'configuration controlled 3d designs of mechanical parts and assemblies' ) ;
#13 = DIRECTION ( 'NONE',  ( -0.000000000000000000, -0.000000000000000000, -1.000000000000000000 ) ) ;
#14 = FACE_OUTER_BOUND ( 'NONE', #122, .T. ) ;
#15 = CARTESIAN_POINT ( 'NONE',  ( 0.000000000000000000, 0.000000000000000000, 0.000000000000000000 ) ) ;
#16 = COORDINATED_UNIVERSAL_TIME_OFFSET ( 1, 0, .AHEAD. ) ;
#17 = PLANE ( 'NONE',  #65 ) ;
#18 = PERSON_AND_ORGANIZATION_ROLE ( 'creator' ) ;
#19 = CC_DESIGN_PERSON_AND_ORGANIZATION_ASSIGNMENT ( #61, #136, ( #128 ) ) ;
#20 = CIRCLE ( 'NONE', #85, 1.250000000000000000 ) ;
#21 = CLOSED_SHELL ( 'NONE', ( #170, #38, #174, #56, #237, #235, #44 ) ) ;
#22 = EDGE_LOOP ( 'NONE', ( #158, #103 ) ) ;
#23 = ORIENTED_EDGE ( 'NONE', *, *, #82, .F. ) ;
#24 = LOCAL_TIME ( 19, 58, 43.00000000000000000, #160 ) ;
#25 = ORIENTED_EDGE ( 'NONE', *, *, #105, .T. ) ;
#26 = DIRECTION ( 'NONE',  ( 0.000000000000000000, 0.000000000000000000, 1.000000000000000000 ) ) ;
#27 = PLANE ( 'NONE',  #67 ) ;
#28 = DIRECTION ( 'NONE',  ( -0.000000000000000000, -0.000000000000000000, -1.000000000000000000 ) ) ;
#29 = CARTESIAN_POINT ( 'NONE',  ( -2.500000000000000000, 0.000000000000000000, 2.000000000000000000 ) ) ;
#30 = FACE_OUTER_BOUND ( 'NONE', #107, .T. ) ;
#31 = VECTOR ( 'NONE', #13, 1000.000000000000000 ) ;
#32 = CARTESIAN_POINT ( 'NONE',  ( 2.500000000000000000, 3.061616997868383141E-16, 0.000000000000000000 ) ) ;
#33 = PERSON_AND_ORGANIZATION ( #140, #161 ) ;
#34 = DIRECTION ( 'NONE',  ( 0.000000000000000000, 0.000000000000000000, 1.000000000000000000 ) ) ;
#35 = APPROVAL_ROLE ( '' ) ;
#36 =( NAMED_UNIT ( * ) PLANE_ANGLE_UNIT ( ) SI_UNIT ( $, .RADIAN. ) );
#37 = APPROVAL ( #86, 'NEURÈENÝ' ) ;
#38 = ADVANCED_FACE ( 'NONE', ( #14 ), #166, .T. ) ;
#39 = CC_DESIGN_SECURITY_CLASSIFICATION ( #254, ( #128 ) ) ;
#40 = PERSON_AND_ORGANIZATION ( #140, #161 ) ;
#41 = APPLICATION_PROTOCOL_DEFINITION ( 'international standard', 'config_control_design', 1994, #12 ) ;
#42 = LOCAL_TIME ( 19, 58, 43.00000000000000000, #63 ) ;
#43 = DATE_AND_TIME ( #144, #24 ) ;
#44 = ADVANCED_FACE ( 'NONE', ( #203 ), #27, .T. ) ;
#45 = CC_DESIGN_PERSON_AND_ORGANIZATION_ASSIGNMENT ( #209, #116, ( #254 ) ) ;
#46 = DIRECTION ( 'NONE',  ( 1.000000000000000000, 0.000000000000000000, -0.000000000000000000 ) ) ;
#47 = EDGE_CURVE ( 'NONE', #181, #100, #149, .T. ) ;
#48 = CIRCLE ( 'NONE', #81, 2.500000000000000000 ) ;
#49 = VERTEX_POINT ( 'NONE', #32 ) ;
#50 = DIRECTION ( 'NONE',  ( 1.000000000000000000, 0.000000000000000000, 0.000000000000000000 ) ) ;
#51 = VERTEX_POINT ( 'NONE', #29 ) ;
#52 = FACE_OUTER_BOUND ( 'NONE', #145, .T. ) ;
#53 = APPLICATION_CONTEXT ( 'configuration controlled 3d designs of mechanical parts and assemblies' ) ;
#54 = DIRECTION ( 'NONE',  ( -0.000000000000000000, -0.000000000000000000, -1.000000000000000000 ) ) ;
#55 = CARTESIAN_POINT ( 'NONE',  ( -1.250000000000000000, 0.000000000000000000, 2.000000000000000000 ) ) ;
#56 = ADVANCED_FACE ( 'NONE', ( #109, #208 ), #205, .T. ) ;
#57 = ORIENTED_EDGE ( 'NONE', *, *, #106, .T. ) ;
#58 = CARTESIAN_POINT ( 'NONE',  ( 2.500000000000000000, 3.061616997868383141E-16, 2.000000000000000000 ) ) ;
#59 = APPROVAL_PERSON_ORGANIZATION ( #33, #193, #35 ) ;
#60 = CARTESIAN_POINT ( 'NONE',  ( 0.000000000000000000, 0.000000000000000000, 0.000000000000000000 ) ) ;
#61 = PERSON_AND_ORGANIZATION ( #140, #161 ) ;
#62 = PERSON_AND_ORGANIZATION ( #140, #161 ) ;
#63 = COORDINATED_UNIVERSAL_TIME_OFFSET ( 1, 0, .AHEAD. ) ;
#64 = EDGE_LOOP ( 'NONE', ( #98, #164, #242, #168 ) ) ;
#65 = AXIS2_PLACEMENT_3D ( 'NONE', #167, #171, #76 ) ;
#66 = APPROVAL ( #1, 'NEURÈENÝ' ) ;
#67 = AXIS2_PLACEMENT_3D ( 'NONE', #11, #91, #247 ) ;
#68 = CARTESIAN_POINT ( 'NONE',  ( 0.000000000000000000, 0.000000000000000000, 127.0000000000000000 ) ) ;
#69 = AXIS2_PLACEMENT_3D ( 'NONE', #146, #133, #221 ) ;
#70 = CARTESIAN_POINT ( 'NONE',  ( 0.000000000000000000, 0.000000000000000000, 127.0000000000000000 ) ) ;
#71 = DIRECTION ( 'NONE',  ( -1.000000000000000000, 0.000000000000000000, 0.000000000000000000 ) ) ;
#72 = DIRECTION ( 'NONE',  ( 1.000000000000000000, 0.000000000000000000, 0.000000000000000000 ) ) ;
#73 = CARTESIAN_POINT ( 'NONE',  ( 0.000000000000000000, 0.000000000000000000, 127.0000000000000000 ) ) ;
#74 = VERTEX_POINT ( 'NONE', #55 ) ;
#75 = CARTESIAN_POINT ( 'NONE',  ( 1.250000000000000000, 1.530808498934191571E-16, 127.0000000000000000 ) ) ;
#76 = DIRECTION ( 'NONE',  ( 1.000000000000000000, 0.000000000000000000, -0.000000000000000000 ) ) ;
#77 = LOCAL_TIME ( 19, 58, 43.00000000000000000, #173 ) ;
#78 = ORIENTED_EDGE ( 'NONE', *, *, #196, .T. ) ;
#79 = APPROVAL_DATE_TIME ( #80, #66 ) ;
#80 = DATE_AND_TIME ( #253, #77 ) ;
#81 = AXIS2_PLACEMENT_3D ( 'NONE', #150, #207, #248 ) ;
#82 = EDGE_CURVE ( 'NONE', #127, #181, #3, .T. ) ;
#83 = SHAPE_DEFINITION_REPRESENTATION ( #120, #238 ) ;
#84 = VECTOR ( 'NONE', #10, 1000.000000000000000 ) ;
#85 = AXIS2_PLACEMENT_3D ( 'NONE', #90, #163, #188 ) ;
#86 = APPROVAL_STATUS ( 'not_yet_approved' ) ;
#87 = DESIGN_CONTEXT ( 'detailed design', #53, 'design' ) ;
#88 = ORIENTED_EDGE ( 'NONE', *, *, #156, .F. ) ;
#89 = DIRECTION ( 'NONE',  ( 0.000000000000000000, 0.000000000000000000, 1.000000000000000000 ) ) ;
#90 = CARTESIAN_POINT ( 'NONE',  ( 0.000000000000000000, 0.000000000000000000, 2.000000000000000000 ) ) ;
#91 = DIRECTION ( 'NONE',  ( 0.000000000000000000, 0.000000000000000000, 1.000000000000000000 ) ) ;
#92 = CARTESIAN_POINT ( 'NONE',  ( 0.000000000000000000, 0.000000000000000000, 2.000000000000000000 ) ) ;
#93 = DIRECTION ( 'NONE',  ( 0.000000000000000000, 0.000000000000000000, 1.000000000000000000 ) ) ;
#94 = CYLINDRICAL_SURFACE ( 'NONE', #123, 1.250000000000000000 ) ;
#95 = LINE ( 'NONE', #148, #84 ) ;
#96 = APPROVAL_ROLE ( '' ) ;
#97 = DATE_AND_TIME ( #194, #117 ) ;
#98 = ORIENTED_EDGE ( 'NONE', *, *, #5, .F. ) ;
#99 = DATE_AND_TIME ( #141, #121 ) ;
#100 = VERTEX_POINT ( 'NONE', #243 ) ;
#101 = UNCERTAINTY_MEASURE_WITH_UNIT (LENGTH_MEASURE( 1.000000000000000082E-05 ), #219, 'distance_accuracy_value', 'NONE');
#102 = ORIENTED_EDGE ( 'NONE', *, *, #106, .F. ) ;
#103 = ORIENTED_EDGE ( 'NONE', *, *, #156, .T. ) ;
#104 = DIRECTION ( 'NONE',  ( -1.000000000000000000, 0.000000000000000000, 0.000000000000000000 ) ) ;
#105 = EDGE_CURVE ( 'NONE', #51, #162, #185, .T. ) ;
#106 = EDGE_CURVE ( 'NONE', #151, #49, #95, .T. ) ;
#107 = EDGE_LOOP ( 'NONE', ( #102, #218, #25, #201 ) ) ;
#108 = CARTESIAN_POINT ( 'NONE',  ( -1.250000000000000000, 0.000000000000000000, 127.0000000000000000 ) ) ;
#109 = FACE_BOUND ( 'NONE', #6, .T. ) ;
#110 = DIRECTION ( 'NONE',  ( 1.000000000000000000, 0.000000000000000000, 0.000000000000000000 ) ) ;
#111 = CIRCLE ( 'NONE', #231, 2.500000000000000000 ) ;
#112 = SECURITY_CLASSIFICATION_LEVEL ( 'unclassified' ) ;
#113 = CYLINDRICAL_SURFACE ( 'NONE', #179, 1.250000000000000000 ) ;
#114 = COORDINATED_UNIVERSAL_TIME_OFFSET ( 1, 0, .AHEAD. ) ;
#115 = VECTOR ( 'NONE', #54, 1000.000000000000000 ) ;
#116 = PERSON_AND_ORGANIZATION_ROLE ( 'classification_officer' ) ;
#117 = LOCAL_TIME ( 19, 58, 43.00000000000000000, #16 ) ;
#118 = APPROVAL_STATUS ( 'not_yet_approved' ) ;
#119 = CIRCLE ( 'NONE', #157, 2.500000000000000000 ) ;
#120 = PRODUCT_DEFINITION_SHAPE ( 'NONE', 'NONE',  #224 ) ;
#121 = LOCAL_TIME ( 19, 58, 43.00000000000000000, #114 ) ;
#122 = EDGE_LOOP ( 'NONE', ( #88, #57, #126, #9 ) ) ;
#123 = AXIS2_PLACEMENT_3D ( 'NONE', #68, #226, #104 ) ;
#124 = ORIENTED_EDGE ( 'NONE', *, *, #2, .F. ) ;
#125 = EDGE_CURVE ( 'NONE', #100, #74, #172, .T. ) ;
#126 = ORIENTED_EDGE ( 'NONE', *, *, #2, .T. ) ;
#127 = VERTEX_POINT ( 'NONE', #129 ) ;
#128 = PRODUCT_DEFINITION_FORMATION_WITH_SPECIFIED_SOURCE ( 'LIBOVOLNÝ', '', #178, .NOT_KNOWN. ) ;
#129 = CARTESIAN_POINT ( 'NONE',  ( -1.250000000000000000, 0.000000000000000000, 127.0000000000000000 ) ) ;
#130 = PRODUCT_RELATED_PRODUCT_CATEGORY ( 'detail', '', ( #178 ) ) ;
#131 = EDGE_LOOP ( 'NONE', ( #249, #198 ) ) ;
#132 = DIRECTION ( 'NONE',  ( -1.000000000000000000, 0.000000000000000000, 0.000000000000000000 ) ) ;
#133 = DIRECTION ( 'NONE',  ( -0.000000000000000000, -0.000000000000000000, -1.000000000000000000 ) ) ;
#134 = CARTESIAN_POINT ( 'NONE',  ( 0.000000000000000000, 0.000000000000000000, 127.0000000000000000 ) ) ;
#135 = DIRECTION ( 'NONE',  ( 1.000000000000000000, 0.000000000000000000, 0.000000000000000000 ) ) ;
#136 = PERSON_AND_ORGANIZATION_ROLE ( 'design_supplier' ) ;
#137 = LINE ( 'NONE', #108, #31 ) ;
#138 = AXIS2_PLACEMENT_3D ( 'NONE', #60, #234, #211 ) ;
#139 = MECHANICAL_CONTEXT ( 'NONE', #12, 'mechanical' ) ;
#140 = PERSON ( 'NEURÈENÝ', 'NEURÈENÝ', 'NEURÈENÝ', ('NEURÈENÝ'), ('NEURÈENÝ'), ('NEURÈENÝ') ) ;
#141 = CALENDAR_DATE ( 2022, 7, 7 ) ;
#142 = CALENDAR_DATE ( 2022, 7, 7 ) ;
#143 = PERSON_AND_ORGANIZATION_ROLE ( 'creator' ) ;
#144 = CALENDAR_DATE ( 2022, 7, 7 ) ;
#145 = EDGE_LOOP ( 'NONE', ( #200, #124 ) ) ;
#146 = CARTESIAN_POINT ( 'NONE',  ( 0.000000000000000000, 0.000000000000000000, 2.000000000000000000 ) ) ;
#147 = CC_DESIGN_APPROVAL ( #37, ( #254 ) ) ;
#148 = CARTESIAN_POINT ( 'NONE',  ( 2.500000000000000000, 3.061616997868383141E-16, 2.000000000000000000 ) ) ;
#149 = LINE ( 'NONE', #225, #115 ) ;
#150 = CARTESIAN_POINT ( 'NONE',  ( 0.000000000000000000, 0.000000000000000000, 2.000000000000000000 ) ) ;
#151 = VERTEX_POINT ( 'NONE', #58 ) ;
#152 = CARTESIAN_POINT ( 'NONE',  ( -2.500000000000000000, 0.000000000000000000, 0.000000000000000000 ) ) ;
#153 = CC_DESIGN_APPROVAL ( #193, ( #224 ) ) ;
#154 = PERSON_AND_ORGANIZATION ( #140, #161 ) ;
#155 = CC_DESIGN_DATE_AND_TIME_ASSIGNMENT ( #97, #175, ( #254 ) ) ;
#156 = EDGE_CURVE ( 'NONE', #151, #51, #48, .T. ) ;
#157 = AXIS2_PLACEMENT_3D ( 'NONE', #244, #89, #72 ) ;
#158 = ORIENTED_EDGE ( 'NONE', *, *, #197, .T. ) ;
#159 = CC_DESIGN_DATE_AND_TIME_ASSIGNMENT ( #214, #176, ( #224 ) ) ;
#160 = COORDINATED_UNIVERSAL_TIME_OFFSET ( 1, 0, .AHEAD. ) ;
#161 = ORGANIZATION ( 'NEURÈENÝ', 'NEURÈENÝ', '' ) ;
#162 = VERTEX_POINT ( 'NONE', #152 ) ;
#163 = DIRECTION ( 'NONE',  ( 0.000000000000000000, 0.000000000000000000, 1.000000000000000000 ) ) ;
#164 = ORIENTED_EDGE ( 'NONE', *, *, #47, .T. ) ;
#165 = CARTESIAN_POINT ( 'NONE',  ( 0.000000000000000000, 0.000000000000000000, 2.000000000000000000 ) ) ;
#166 = CYLINDRICAL_SURFACE ( 'NONE', #69, 2.500000000000000000 ) ;
#167 = CARTESIAN_POINT ( 'NONE',  ( 0.000000000000000000, 0.000000000000000000, 0.000000000000000000 ) ) ;
#168 = ORIENTED_EDGE ( 'NONE', *, *, #212, .F. ) ;
#169 = CARTESIAN_POINT ( 'NONE',  ( -2.500000000000000000, 0.000000000000000000, 2.000000000000000000 ) ) ;
#170 = ADVANCED_FACE ( 'NONE', ( #190 ), #94, .T. ) ;
#171 = DIRECTION ( 'NONE',  ( 0.000000000000000000, 0.000000000000000000, 1.000000000000000000 ) ) ;
#172 = CIRCLE ( 'NONE', #228, 1.250000000000000000 ) ;
#173 = COORDINATED_UNIVERSAL_TIME_OFFSET ( 1, 0, .AHEAD. ) ;
#174 = ADVANCED_FACE ( 'NONE', ( #30 ), #229, .T. ) ;
#175 = DATE_TIME_ROLE ( 'classification_date' ) ;
#176 = DATE_TIME_ROLE ( 'creation_date' ) ;
#177 = CIRCLE ( 'NONE', #187, 1.250000000000000000 ) ;
#178 = PRODUCT ( 'ba0c', 'ba0c', '', ( #139 ) ) ;
#179 = AXIS2_PLACEMENT_3D ( 'NONE', #73, #192, #71 ) ;
#180 = APPROVAL_ROLE ( '' ) ;
#181 = VERTEX_POINT ( 'NONE', #75 ) ;
#182 = APPROVAL_PERSON_ORGANIZATION ( #40, #66, #96 ) ;
#183 = EDGE_LOOP ( 'NONE', ( #7, #23, #227, #78 ) ) ;
#184 = ORIENTED_EDGE ( 'NONE', *, *, #196, .F. ) ;
#185 = LINE ( 'NONE', #169, #251 ) ;
#186 = DIRECTION ( 'NONE',  ( 0.000000000000000000, 0.000000000000000000, 1.000000000000000000 ) ) ;
#187 = AXIS2_PLACEMENT_3D ( 'NONE', #70, #186, #135 ) ;
#188 = DIRECTION ( 'NONE',  ( 1.000000000000000000, 0.000000000000000000, 0.000000000000000000 ) ) ;
#189 = CARTESIAN_POINT ( 'NONE',  ( 0.000000000000000000, 0.000000000000000000, 2.000000000000000000 ) ) ;
#190 = FACE_OUTER_BOUND ( 'NONE', #64, .T. ) ;
#191 = APPROVAL_DATE_TIME ( #99, #193 ) ;
#192 = DIRECTION ( 'NONE',  ( -0.000000000000000000, -0.000000000000000000, -1.000000000000000000 ) ) ;
#193 = APPROVAL ( #118, 'NEURÈENÝ' ) ;
#194 = CALENDAR_DATE ( 2022, 7, 7 ) ;
#195 = AXIS2_PLACEMENT_3D ( 'NONE', #189, #93, #46 ) ;
#196 = EDGE_CURVE ( 'NONE', #74, #100, #20, .T. ) ;
#197 = EDGE_CURVE ( 'NONE', #51, #151, #215, .T. ) ;
#198 = ORIENTED_EDGE ( 'NONE', *, *, #5, .T. ) ;
#199 = APPROVAL_DATE_TIME ( #43, #37 ) ;
#200 = ORIENTED_EDGE ( 'NONE', *, *, #216, .F. ) ;
#201 = ORIENTED_EDGE ( 'NONE', *, *, #216, .T. ) ;
#202 = DIRECTION ( 'NONE',  ( 0.000000000000000000, 0.000000000000000000, 1.000000000000000000 ) ) ;
#203 = FACE_OUTER_BOUND ( 'NONE', #131, .T. ) ;
#204 = DIRECTION ( 'NONE',  ( -0.000000000000000000, -0.000000000000000000, -1.000000000000000000 ) ) ;
#205 = PLANE ( 'NONE',  #195 ) ;
#206 = AXIS2_PLACEMENT_3D ( 'NONE', #134, #34, #222 ) ;
#207 = DIRECTION ( 'NONE',  ( 0.000000000000000000, 0.000000000000000000, 1.000000000000000000 ) ) ;
#208 = FACE_OUTER_BOUND ( 'NONE', #22, .T. ) ;
#209 = PERSON_AND_ORGANIZATION ( #140, #161 ) ;
#210 = DIRECTION ( 'NONE',  ( 1.000000000000000000, 0.000000000000000000, 0.000000000000000000 ) ) ;
#211 = DIRECTION ( 'NONE',  ( 1.000000000000000000, 0.000000000000000000, 0.000000000000000000 ) ) ;
#212 = EDGE_CURVE ( 'NONE', #127, #74, #137, .T. ) ;
#213 = APPLICATION_PROTOCOL_DEFINITION ( 'international standard', 'config_control_design', 1994, #53 ) ;
#214 = DATE_AND_TIME ( #142, #42 ) ;
#215 = CIRCLE ( 'NONE', #239, 2.500000000000000000 ) ;
#216 = EDGE_CURVE ( 'NONE', #162, #49, #111, .T. ) ;
#217 = AXIS2_PLACEMENT_3D ( 'NONE', #245, #28, #132 ) ;
#218 = ORIENTED_EDGE ( 'NONE', *, *, #197, .F. ) ;
#219 =( LENGTH_UNIT ( ) NAMED_UNIT ( * ) SI_UNIT ( .MILLI., .METRE. ) );
#220 = CC_DESIGN_APPROVAL ( #66, ( #128 ) ) ;
#221 = DIRECTION ( 'NONE',  ( -1.000000000000000000, 0.000000000000000000, 0.000000000000000000 ) ) ;
#222 = DIRECTION ( 'NONE',  ( 1.000000000000000000, 0.000000000000000000, 0.000000000000000000 ) ) ;
#223 = CC_DESIGN_PERSON_AND_ORGANIZATION_ASSIGNMENT ( #154, #143, ( #128 ) ) ;
#224 = PRODUCT_DEFINITION ( 'NEZNÁMÝ', '', #128, #87 ) ;
#225 = CARTESIAN_POINT ( 'NONE',  ( 1.250000000000000000, 1.530808498934191571E-16, 127.0000000000000000 ) ) ;
#226 = DIRECTION ( 'NONE',  ( -0.000000000000000000, -0.000000000000000000, -1.000000000000000000 ) ) ;
#227 = ORIENTED_EDGE ( 'NONE', *, *, #212, .T. ) ;
#228 = AXIS2_PLACEMENT_3D ( 'NONE', #92, #202, #50 ) ;
#229 = CYLINDRICAL_SURFACE ( 'NONE', #217, 2.500000000000000000 ) ;
#230 =( NAMED_UNIT ( * ) SI_UNIT ( $, .STERADIAN. ) SOLID_ANGLE_UNIT ( ) );
#231 = AXIS2_PLACEMENT_3D ( 'NONE', #15, #250, #210 ) ;
#232 = PERSON_AND_ORGANIZATION_ROLE ( 'design_owner' ) ;
#233 = PERSON_AND_ORGANIZATION ( #140, #161 ) ;
#234 = DIRECTION ( 'NONE',  ( 0.000000000000000000, 0.000000000000000000, 1.000000000000000000 ) ) ;
#235 = ADVANCED_FACE ( 'NONE', ( #252 ), #113, .T. ) ;
#236 = MANIFOLD_SOLID_BREP ( 'Pøidat vysunutím3', #21 ) ;
#237 = ADVANCED_FACE ( 'NONE', ( #52 ), #17, .F. ) ;
#238 = ADVANCED_BREP_SHAPE_REPRESENTATION ( 'ba0c', ( #236, #138 ), #241 ) ;
#239 = AXIS2_PLACEMENT_3D ( 'NONE', #165, #26, #110 ) ;
#240 = ORIENTED_EDGE ( 'NONE', *, *, #125, .F. ) ;
#241 =( GEOMETRIC_REPRESENTATION_CONTEXT ( 3 ) GLOBAL_UNCERTAINTY_ASSIGNED_CONTEXT ( ( #101 ) ) GLOBAL_UNIT_ASSIGNED_CONTEXT ( ( #219, #36, #230 ) ) REPRESENTATION_CONTEXT ( 'NONE', 'WORKASPACE' ) );
#242 = ORIENTED_EDGE ( 'NONE', *, *, #125, .T. ) ;
#243 = CARTESIAN_POINT ( 'NONE',  ( 1.250000000000000000, 1.530808498934191571E-16, 2.000000000000000000 ) ) ;
#244 = CARTESIAN_POINT ( 'NONE',  ( 0.000000000000000000, 0.000000000000000000, 0.000000000000000000 ) ) ;
#245 = CARTESIAN_POINT ( 'NONE',  ( 0.000000000000000000, 0.000000000000000000, 2.000000000000000000 ) ) ;
#246 = CC_DESIGN_PERSON_AND_ORGANIZATION_ASSIGNMENT ( #233, #232, ( #178 ) ) ;
#247 = DIRECTION ( 'NONE',  ( 1.000000000000000000, 0.000000000000000000, -0.000000000000000000 ) ) ;
#248 = DIRECTION ( 'NONE',  ( 1.000000000000000000, 0.000000000000000000, 0.000000000000000000 ) ) ;
#249 = ORIENTED_EDGE ( 'NONE', *, *, #82, .T. ) ;
#250 = DIRECTION ( 'NONE',  ( 0.000000000000000000, 0.000000000000000000, 1.000000000000000000 ) ) ;
#251 = VECTOR ( 'NONE', #204, 1000.000000000000000 ) ;
#252 = FACE_OUTER_BOUND ( 'NONE', #183, .T. ) ;
#253 = CALENDAR_DATE ( 2022, 7, 7 ) ;
#254 = SECURITY_CLASSIFICATION ( '', '', #112 ) ;
#255 = PERSON_AND_ORGANIZATION ( #140, #161 ) ;
ENDSEC;
END-ISO-10303-21;
