ISO-10303-21;
HEADER;
FILE_DESCRIPTION (( 'STEP AP203' ),
    '1' );
FILE_NAME ('0751.STEP',
    '2022-07-07T17:32:07',
    ( '' ),
    ( '' ),
    'SwSTEP 2.0',
    'SolidWorks 2019',
    '' );
FILE_SCHEMA (( 'CONFIG_CONTROL_DESIGN' ));
ENDSEC;

DATA;
#1 = CLOSED_SHELL ( 'NONE', ( #151, #253, #177, #193, #231, #34, #53 ) ) ;
#2 = DATE_AND_TIME ( #152, #198 ) ;
#3 = PRODUCT ( '0751', '0751', '', ( #36 ) ) ;
#4 = CARTESIAN_POINT ( 'NONE',  ( -4.099999999999999645, 0.000000000000000000, 165.0000000000000000 ) ) ;
#5 = AXIS2_PLACEMENT_3D ( 'NONE', #138, #216, #44 ) ;
#6 = VECTOR ( 'NONE', #7, 1000.000000000000000 ) ;
#7 = DIRECTION ( 'NONE',  ( -0.000000000000000000, -0.000000000000000000, -1.000000000000000000 ) ) ;
#8 = DIRECTION ( 'NONE',  ( 0.000000000000000000, 0.000000000000000000, 1.000000000000000000 ) ) ;
#9 = CARTESIAN_POINT ( 'NONE',  ( 0.000000000000000000, 0.000000000000000000, 0.000000000000000000 ) ) ;
#10 = FACE_OUTER_BOUND ( 'NONE', #185, .T. ) ;
#11 = CYLINDRICAL_SURFACE ( 'NONE', #215, 7.000000000000000000 ) ;
#12 = ORIENTED_EDGE ( 'NONE', *, *, #237, .T. ) ;
#13 = AXIS2_PLACEMENT_3D ( 'NONE', #240, #142, #45 ) ;
#14 = PERSON_AND_ORGANIZATION ( #59, #131 ) ;
#15 = VERTEX_POINT ( 'NONE', #202 ) ;
#16 = COORDINATED_UNIVERSAL_TIME_OFFSET ( 1, 0, .AHEAD. ) ;
#17 = CYLINDRICAL_SURFACE ( 'NONE', #210, 4.099999999999999645 ) ;
#18 = CC_DESIGN_PERSON_AND_ORGANIZATION_ASSIGNMENT ( #14, #106, ( #3 ) ) ;
#19 = DATE_AND_TIME ( #87, #93 ) ;
#20 = CALENDAR_DATE ( 2022, 7, 7 ) ;
#21 = EDGE_CURVE ( 'NONE', #221, #15, #102, .T. ) ;
#22 = APPROVAL_STATUS ( 'not_yet_approved' ) ;
#23 = CARTESIAN_POINT ( 'NONE',  ( 0.000000000000000000, 0.000000000000000000, 165.0000000000000000 ) ) ;
#24 = DIRECTION ( 'NONE',  ( -0.000000000000000000, -0.000000000000000000, -1.000000000000000000 ) ) ;
#25 = AXIS2_PLACEMENT_3D ( 'NONE', #60, #24, #78 ) ;
#26 = CARTESIAN_POINT ( 'NONE',  ( -7.000000000000000000, 0.000000000000000000, 5.000000000000000000 ) ) ;
#27 = FACE_OUTER_BOUND ( 'NONE', #167, .T. ) ;
#28 = CIRCLE ( 'NONE', #188, 4.099999999999999645 ) ;
#29 = PRODUCT_DEFINITION_SHAPE ( 'NONE', 'NONE',  #160 ) ;
#30 = DIRECTION ( 'NONE',  ( 0.000000000000000000, 0.000000000000000000, 1.000000000000000000 ) ) ;
#31 = VERTEX_POINT ( 'NONE', #143 ) ;
#32 = VECTOR ( 'NONE', #148, 1000.000000000000000 ) ;
#33 = VERTEX_POINT ( 'NONE', #205 ) ;
#34 = ADVANCED_FACE ( 'NONE', ( #46 ), #17, .T. ) ;
#35 = DIRECTION ( 'NONE',  ( 1.000000000000000000, 0.000000000000000000, 0.000000000000000000 ) ) ;
#36 = MECHANICAL_CONTEXT ( 'NONE', #141, 'mechanical' ) ;
#37 = EDGE_CURVE ( 'NONE', #120, #199, #57, .T. ) ;
#38 = PERSON_AND_ORGANIZATION_ROLE ( 'creator' ) ;
#39 = PERSON_AND_ORGANIZATION ( #59, #131 ) ;
#40 = DIRECTION ( 'NONE',  ( -0.000000000000000000, -0.000000000000000000, -1.000000000000000000 ) ) ;
#41 = LINE ( 'NONE', #4, #6 ) ;
#42 = CARTESIAN_POINT ( 'NONE',  ( 0.000000000000000000, 0.000000000000000000, 165.0000000000000000 ) ) ;
#43 = APPROVAL_PERSON_ORGANIZATION ( #129, #47, #208 ) ;
#44 = DIRECTION ( 'NONE',  ( 1.000000000000000000, 0.000000000000000000, 0.000000000000000000 ) ) ;
#45 = DIRECTION ( 'NONE',  ( 1.000000000000000000, 0.000000000000000000, 0.000000000000000000 ) ) ;
#46 = FACE_OUTER_BOUND ( 'NONE', #243, .T. ) ;
#47 = APPROVAL ( #22, 'NEURÈENÝ' ) ;
#48 = EDGE_LOOP ( 'NONE', ( #181, #226, #68, #128 ) ) ;
#49 = PERSON_AND_ORGANIZATION ( #59, #131 ) ;
#50 = ORIENTED_EDGE ( 'NONE', *, *, #173, .T. ) ;
#51 = DATE_AND_TIME ( #187, #96 ) ;
#52 = ORIENTED_EDGE ( 'NONE', *, *, #37, .T. ) ;
#53 = ADVANCED_FACE ( 'NONE', ( #10 ), #79, .T. ) ;
#54 = APPROVAL_DATE_TIME ( #74, #213 ) ;
#55 = CARTESIAN_POINT ( 'NONE',  ( 0.000000000000000000, 0.000000000000000000, 0.000000000000000000 ) ) ;
#56 = COORDINATED_UNIVERSAL_TIME_OFFSET ( 1, 0, .AHEAD. ) ;
#57 = CIRCLE ( 'NONE', #92, 7.000000000000000000 ) ;
#58 = APPROVAL_PERSON_ORGANIZATION ( #149, #69, #184 ) ;
#59 = PERSON ( 'NEURÈENÝ', 'NEURÈENÝ', 'NEURÈENÝ', ('NEURÈENÝ'), ('NEURÈENÝ'), ('NEURÈENÝ') ) ;
#60 = CARTESIAN_POINT ( 'NONE',  ( 0.000000000000000000, 0.000000000000000000, 5.000000000000000000 ) ) ;
#61 = DIRECTION ( 'NONE',  ( 1.000000000000000000, 0.000000000000000000, 0.000000000000000000 ) ) ;
#62 = CC_DESIGN_PERSON_AND_ORGANIZATION_ASSIGNMENT ( #49, #225, ( #160 ) ) ;
#63 = DIRECTION ( 'NONE',  ( 1.000000000000000000, 0.000000000000000000, 0.000000000000000000 ) ) ;
#64 = CIRCLE ( 'NONE', #134, 4.099999999999999645 ) ;
#65 = AXIS2_PLACEMENT_3D ( 'NONE', #161, #230, #35 ) ;
#66 = DIRECTION ( 'NONE',  ( 0.000000000000000000, 0.000000000000000000, 1.000000000000000000 ) ) ;
#67 = ORIENTED_EDGE ( 'NONE', *, *, #37, .F. ) ;
#68 = ORIENTED_EDGE ( 'NONE', *, *, #119, .T. ) ;
#69 = APPROVAL ( #124, 'NEURÈENÝ' ) ;
#70 = ORIENTED_EDGE ( 'NONE', *, *, #173, .F. ) ;
#71 = CARTESIAN_POINT ( 'NONE',  ( 0.000000000000000000, 0.000000000000000000, 0.000000000000000000 ) ) ;
#72 = DIRECTION ( 'NONE',  ( -0.000000000000000000, -0.000000000000000000, -1.000000000000000000 ) ) ;
#73 = LOCAL_TIME ( 19, 32, 7.000000000000000000, #206 ) ;
#74 = DATE_AND_TIME ( #186, #73 ) ;
#75 = PERSON_AND_ORGANIZATION ( #59, #131 ) ;
#76 = PRODUCT_DEFINITION_FORMATION_WITH_SPECIFIED_SOURCE ( 'LIBOVOLNÝ', '', #3, .NOT_KNOWN. ) ;
#77 = DIRECTION ( 'NONE',  ( 1.000000000000000000, 0.000000000000000000, 0.000000000000000000 ) ) ;
#78 = DIRECTION ( 'NONE',  ( -1.000000000000000000, 0.000000000000000000, 0.000000000000000000 ) ) ;
#79 = PLANE ( 'NONE',  #245 ) ;
#80 = DIRECTION ( 'NONE',  ( 0.000000000000000000, 0.000000000000000000, 1.000000000000000000 ) ) ;
#81 = ORIENTED_EDGE ( 'NONE', *, *, #119, .F. ) ;
#82 = EDGE_LOOP ( 'NONE', ( #200, #223 ) ) ;
#83 = CIRCLE ( 'NONE', #13, 7.000000000000000000 ) ;
#84 = APPROVAL_ROLE ( '' ) ;
#85 = ORIENTED_EDGE ( 'NONE', *, *, #21, .F. ) ;
#86 = APPLICATION_CONTEXT ( 'configuration controlled 3d designs of mechanical parts and assemblies' ) ;
#87 = CALENDAR_DATE ( 2022, 7, 7 ) ;
#88 = ORIENTED_EDGE ( 'NONE', *, *, #165, .F. ) ;
#89 = CIRCLE ( 'NONE', #126, 4.099999999999999645 ) ;
#90 = CARTESIAN_POINT ( 'NONE',  ( -7.000000000000000000, 0.000000000000000000, 5.000000000000000000 ) ) ;
#91 = DIRECTION ( 'NONE',  ( 1.000000000000000000, 0.000000000000000000, 0.000000000000000000 ) ) ;
#92 = AXIS2_PLACEMENT_3D ( 'NONE', #55, #30, #97 ) ;
#93 = LOCAL_TIME ( 19, 32, 7.000000000000000000, #16 ) ;
#94 = CYLINDRICAL_SURFACE ( 'NONE', #25, 7.000000000000000000 ) ;
#95 = PLANE ( 'NONE',  #146 ) ;
#96 = LOCAL_TIME ( 19, 32, 7.000000000000000000, #204 ) ;
#97 = DIRECTION ( 'NONE',  ( 1.000000000000000000, 0.000000000000000000, 0.000000000000000000 ) ) ;
#98 = APPLICATION_PROTOCOL_DEFINITION ( 'international standard', 'config_control_design', 1994, #141 ) ;
#99 = ORIENTED_EDGE ( 'NONE', *, *, #209, .T. ) ;
#100 = EDGE_CURVE ( 'NONE', #33, #120, #172, .T. ) ;
#101 =( NAMED_UNIT ( * ) SI_UNIT ( $, .STERADIAN. ) SOLID_ANGLE_UNIT ( ) );
#102 = LINE ( 'NONE', #249, #32 ) ;
#103 = LOCAL_TIME ( 19, 32, 7.000000000000000000, #56 ) ;
#104 = DIRECTION ( 'NONE',  ( -1.000000000000000000, 0.000000000000000000, 0.000000000000000000 ) ) ;
#105 = ORIENTED_EDGE ( 'NONE', *, *, #234, .T. ) ;
#106 = PERSON_AND_ORGANIZATION_ROLE ( 'design_owner' ) ;
#107 = CIRCLE ( 'NONE', #5, 7.000000000000000000 ) ;
#108 = APPROVAL_DATE_TIME ( #2, #47 ) ;
#109 = SECURITY_CLASSIFICATION_LEVEL ( 'unclassified' ) ;
#110 = CC_DESIGN_DATE_AND_TIME_ASSIGNMENT ( #51, #121, ( #160 ) ) ;
#111 = CARTESIAN_POINT ( 'NONE',  ( 0.000000000000000000, 0.000000000000000000, 0.000000000000000000 ) ) ;
#112 = DIRECTION ( 'NONE',  ( -0.000000000000000000, -0.000000000000000000, -1.000000000000000000 ) ) ;
#113 = CC_DESIGN_PERSON_AND_ORGANIZATION_ASSIGNMENT ( #190, #169, ( #217 ) ) ;
#114 = FACE_BOUND ( 'NONE', #82, .T. ) ;
#115 = CIRCLE ( 'NONE', #65, 4.099999999999999645 ) ;
#116 = CARTESIAN_POINT ( 'NONE',  ( 0.000000000000000000, 0.000000000000000000, 165.0000000000000000 ) ) ;
#117 = CARTESIAN_POINT ( 'NONE',  ( 0.000000000000000000, 0.000000000000000000, 5.000000000000000000 ) ) ;
#118 = ORIENTED_EDGE ( 'NONE', *, *, #203, .F. ) ;
#119 = EDGE_CURVE ( 'NONE', #125, #199, #156, .T. ) ;
#120 = VERTEX_POINT ( 'NONE', #171 ) ;
#121 = DATE_TIME_ROLE ( 'creation_date' ) ;
#122 = ORIENTED_EDGE ( 'NONE', *, *, #234, .F. ) ;
#123 = MANIFOLD_SOLID_BREP ( 'Pøidat vysunutím3', #1 ) ;
#124 = APPROVAL_STATUS ( 'not_yet_approved' ) ;
#125 = VERTEX_POINT ( 'NONE', #26 ) ;
#126 = AXIS2_PLACEMENT_3D ( 'NONE', #174, #66, #61 ) ;
#127 = CARTESIAN_POINT ( 'NONE',  ( -4.099999999999999645, 0.000000000000000000, 5.000000000000000000 ) ) ;
#128 = ORIENTED_EDGE ( 'NONE', *, *, #203, .T. ) ;
#129 = PERSON_AND_ORGANIZATION ( #59, #131 ) ;
#130 = VECTOR ( 'NONE', #133, 1000.000000000000000 ) ;
#131 = ORGANIZATION ( 'NEURÈENÝ', 'NEURÈENÝ', '' ) ;
#132 = DATE_TIME_ROLE ( 'classification_date' ) ;
#133 = DIRECTION ( 'NONE',  ( -0.000000000000000000, -0.000000000000000000, -1.000000000000000000 ) ) ;
#134 = AXIS2_PLACEMENT_3D ( 'NONE', #23, #192, #91 ) ;
#135 = CC_DESIGN_PERSON_AND_ORGANIZATION_ASSIGNMENT ( #75, #38, ( #76 ) ) ;
#136 = DIRECTION ( 'NONE',  ( 1.000000000000000000, 0.000000000000000000, -0.000000000000000000 ) ) ;
#137 = FACE_OUTER_BOUND ( 'NONE', #176, .T. ) ;
#138 = CARTESIAN_POINT ( 'NONE',  ( 0.000000000000000000, 0.000000000000000000, 5.000000000000000000 ) ) ;
#139 = AXIS2_PLACEMENT_3D ( 'NONE', #111, #154, #63 ) ;
#140 = AXIS2_PLACEMENT_3D ( 'NONE', #71, #180, #246 ) ;
#141 = APPLICATION_CONTEXT ( 'configuration controlled 3d designs of mechanical parts and assemblies' ) ;
#142 = DIRECTION ( 'NONE',  ( 0.000000000000000000, 0.000000000000000000, 1.000000000000000000 ) ) ;
#143 = CARTESIAN_POINT ( 'NONE',  ( -4.099999999999999645, 0.000000000000000000, 165.0000000000000000 ) ) ;
#144 = ORIENTED_EDGE ( 'NONE', *, *, #153, .T. ) ;
#145 = AXIS2_PLACEMENT_3D ( 'NONE', #9, #80, #157 ) ;
#146 = AXIS2_PLACEMENT_3D ( 'NONE', #238, #8, #194 ) ;
#147 = ORIENTED_EDGE ( 'NONE', *, *, #21, .T. ) ;
#148 = DIRECTION ( 'NONE',  ( -0.000000000000000000, -0.000000000000000000, -1.000000000000000000 ) ) ;
#149 = PERSON_AND_ORGANIZATION ( #59, #131 ) ;
#150 = DIRECTION ( 'NONE',  ( -1.000000000000000000, 0.000000000000000000, 0.000000000000000000 ) ) ;
#151 = ADVANCED_FACE ( 'NONE', ( #137 ), #212, .T. ) ;
#152 = CALENDAR_DATE ( 2022, 7, 7 ) ;
#153 = EDGE_CURVE ( 'NONE', #221, #31, #64, .T. ) ;
#154 = DIRECTION ( 'NONE',  ( 0.000000000000000000, 0.000000000000000000, 1.000000000000000000 ) ) ;
#155 = FACE_OUTER_BOUND ( 'NONE', #224, .T. ) ;
#156 = LINE ( 'NONE', #90, #170 ) ;
#157 = DIRECTION ( 'NONE',  ( 1.000000000000000000, 0.000000000000000000, -0.000000000000000000 ) ) ;
#158 = CC_DESIGN_APPROVAL ( #213, ( #160 ) ) ;
#159 = ORIENTED_EDGE ( 'NONE', *, *, #100, .T. ) ;
#160 = PRODUCT_DEFINITION ( 'NEZNÁMÝ', '', #76, #218 ) ;
#161 = CARTESIAN_POINT ( 'NONE',  ( 0.000000000000000000, 0.000000000000000000, 5.000000000000000000 ) ) ;
#162 = ORIENTED_EDGE ( 'NONE', *, *, #197, .T. ) ;
#163 = APPLICATION_PROTOCOL_DEFINITION ( 'international standard', 'config_control_design', 1994, #86 ) ;
#164 = ORIENTED_EDGE ( 'NONE', *, *, #165, .T. ) ;
#165 = EDGE_CURVE ( 'NONE', #31, #247, #41, .T. ) ;
#166 = APPROVAL_DATE_TIME ( #19, #69 ) ;
#167 = EDGE_LOOP ( 'NONE', ( #118, #67 ) ) ;
#168 = DIRECTION ( 'NONE',  ( -0.000000000000000000, -0.000000000000000000, -1.000000000000000000 ) ) ;
#169 = PERSON_AND_ORGANIZATION_ROLE ( 'classification_officer' ) ;
#170 = VECTOR ( 'NONE', #112, 1000.000000000000000 ) ;
#171 = CARTESIAN_POINT ( 'NONE',  ( 7.000000000000000000, 8.572527594031473190E-16, 0.000000000000000000 ) ) ;
#172 = LINE ( 'NONE', #214, #130 ) ;
#173 = EDGE_CURVE ( 'NONE', #31, #221, #89, .T. ) ;
#174 = CARTESIAN_POINT ( 'NONE',  ( 0.000000000000000000, 0.000000000000000000, 165.0000000000000000 ) ) ;
#175 = PLANE ( 'NONE',  #145 ) ;
#176 = EDGE_LOOP ( 'NONE', ( #228, #147, #12, #88 ) ) ;
#177 = ADVANCED_FACE ( 'NONE', ( #236 ), #94, .T. ) ;
#178 = FACE_OUTER_BOUND ( 'NONE', #179, .T. ) ;
#179 = EDGE_LOOP ( 'NONE', ( #122, #159, #52, #81 ) ) ;
#180 = DIRECTION ( 'NONE',  ( 0.000000000000000000, 0.000000000000000000, 1.000000000000000000 ) ) ;
#181 = ORIENTED_EDGE ( 'NONE', *, *, #100, .F. ) ;
#182 = CIRCLE ( 'NONE', #139, 7.000000000000000000 ) ;
#183 = APPROVAL_PERSON_ORGANIZATION ( #227, #213, #84 ) ;
#184 = APPROVAL_ROLE ( '' ) ;
#185 = EDGE_LOOP ( 'NONE', ( #50, #144 ) ) ;
#186 = CALENDAR_DATE ( 2022, 7, 7 ) ;
#187 = CALENDAR_DATE ( 2022, 7, 7 ) ;
#188 = AXIS2_PLACEMENT_3D ( 'NONE', #117, #239, #77 ) ;
#189 = DATE_AND_TIME ( #20, #103 ) ;
#190 = PERSON_AND_ORGANIZATION ( #59, #131 ) ;
#191 = DIRECTION ( 'NONE',  ( -1.000000000000000000, 0.000000000000000000, 0.000000000000000000 ) ) ;
#192 = DIRECTION ( 'NONE',  ( 0.000000000000000000, 0.000000000000000000, 1.000000000000000000 ) ) ;
#193 = ADVANCED_FACE ( 'NONE', ( #114, #155 ), #95, .T. ) ;
#194 = DIRECTION ( 'NONE',  ( 1.000000000000000000, 0.000000000000000000, -0.000000000000000000 ) ) ;
#195 = ADVANCED_BREP_SHAPE_REPRESENTATION ( '0751', ( #123, #140 ), #222 ) ;
#196 = CARTESIAN_POINT ( 'NONE',  ( 4.099999999999999645, 5.021051876504147385E-16, 165.0000000000000000 ) ) ;
#197 = EDGE_CURVE ( 'NONE', #247, #15, #28, .T. ) ;
#198 = LOCAL_TIME ( 19, 32, 7.000000000000000000, #254 ) ;
#199 = VERTEX_POINT ( 'NONE', #219 ) ;
#200 = ORIENTED_EDGE ( 'NONE', *, *, #197, .F. ) ;
#201 =( LENGTH_UNIT ( ) NAMED_UNIT ( * ) SI_UNIT ( .MILLI., .METRE. ) );
#202 = CARTESIAN_POINT ( 'NONE',  ( 4.099999999999999645, 5.021051876504147385E-16, 5.000000000000000000 ) ) ;
#203 = EDGE_CURVE ( 'NONE', #199, #120, #182, .T. ) ;
#204 = COORDINATED_UNIVERSAL_TIME_OFFSET ( 1, 0, .AHEAD. ) ;
#205 = CARTESIAN_POINT ( 'NONE',  ( 7.000000000000000000, 8.572527594031473190E-16, 5.000000000000000000 ) ) ;
#206 = COORDINATED_UNIVERSAL_TIME_OFFSET ( 1, 0, .AHEAD. ) ;
#207 =( NAMED_UNIT ( * ) PLANE_ANGLE_UNIT ( ) SI_UNIT ( $, .RADIAN. ) );
#208 = APPROVAL_ROLE ( '' ) ;
#209 = EDGE_CURVE ( 'NONE', #125, #33, #107, .T. ) ;
#210 = AXIS2_PLACEMENT_3D ( 'NONE', #251, #72, #150 ) ;
#211 = DIRECTION ( 'NONE',  ( 0.000000000000000000, 0.000000000000000000, 1.000000000000000000 ) ) ;
#212 = CYLINDRICAL_SURFACE ( 'NONE', #229, 4.099999999999999645 ) ;
#213 = APPROVAL ( #248, 'NEURÈENÝ' ) ;
#214 = CARTESIAN_POINT ( 'NONE',  ( 7.000000000000000000, 8.572527594031473190E-16, 5.000000000000000000 ) ) ;
#215 = AXIS2_PLACEMENT_3D ( 'NONE', #250, #168, #104 ) ;
#216 = DIRECTION ( 'NONE',  ( 0.000000000000000000, 0.000000000000000000, 1.000000000000000000 ) ) ;
#217 = SECURITY_CLASSIFICATION ( '', '', #109 ) ;
#218 = DESIGN_CONTEXT ( 'detailed design', #86, 'design' ) ;
#219 = CARTESIAN_POINT ( 'NONE',  ( -7.000000000000000000, 0.000000000000000000, 0.000000000000000000 ) ) ;
#220 = CC_DESIGN_PERSON_AND_ORGANIZATION_ASSIGNMENT ( #39, #233, ( #76 ) ) ;
#221 = VERTEX_POINT ( 'NONE', #196 ) ;
#222 =( GEOMETRIC_REPRESENTATION_CONTEXT ( 3 ) GLOBAL_UNCERTAINTY_ASSIGNED_CONTEXT ( ( #244 ) ) GLOBAL_UNIT_ASSIGNED_CONTEXT ( ( #201, #207, #101 ) ) REPRESENTATION_CONTEXT ( 'NONE', 'WORKASPACE' ) );
#223 = ORIENTED_EDGE ( 'NONE', *, *, #237, .F. ) ;
#224 = EDGE_LOOP ( 'NONE', ( #99, #105 ) ) ;
#225 = PERSON_AND_ORGANIZATION_ROLE ( 'creator' ) ;
#226 = ORIENTED_EDGE ( 'NONE', *, *, #209, .F. ) ;
#227 = PERSON_AND_ORGANIZATION ( #59, #131 ) ;
#228 = ORIENTED_EDGE ( 'NONE', *, *, #153, .F. ) ;
#229 = AXIS2_PLACEMENT_3D ( 'NONE', #42, #40, #191 ) ;
#230 = DIRECTION ( 'NONE',  ( 0.000000000000000000, 0.000000000000000000, 1.000000000000000000 ) ) ;
#231 = ADVANCED_FACE ( 'NONE', ( #27 ), #175, .F. ) ;
#232 = SHAPE_DEFINITION_REPRESENTATION ( #29, #195 ) ;
#233 = PERSON_AND_ORGANIZATION_ROLE ( 'design_supplier' ) ;
#234 = EDGE_CURVE ( 'NONE', #33, #125, #83, .T. ) ;
#235 = CC_DESIGN_APPROVAL ( #69, ( #76 ) ) ;
#236 = FACE_OUTER_BOUND ( 'NONE', #48, .T. ) ;
#237 = EDGE_CURVE ( 'NONE', #15, #247, #115, .T. ) ;
#238 = CARTESIAN_POINT ( 'NONE',  ( 0.000000000000000000, 0.000000000000000000, 5.000000000000000000 ) ) ;
#239 = DIRECTION ( 'NONE',  ( 0.000000000000000000, 0.000000000000000000, 1.000000000000000000 ) ) ;
#240 = CARTESIAN_POINT ( 'NONE',  ( 0.000000000000000000, 0.000000000000000000, 5.000000000000000000 ) ) ;
#241 = CC_DESIGN_SECURITY_CLASSIFICATION ( #217, ( #76 ) ) ;
#242 = CC_DESIGN_DATE_AND_TIME_ASSIGNMENT ( #189, #132, ( #217 ) ) ;
#243 = EDGE_LOOP ( 'NONE', ( #85, #70, #164, #162 ) ) ;
#244 = UNCERTAINTY_MEASURE_WITH_UNIT (LENGTH_MEASURE( 1.000000000000000082E-05 ), #201, 'distance_accuracy_value', 'NONE');
#245 = AXIS2_PLACEMENT_3D ( 'NONE', #116, #211, #136 ) ;
#246 = DIRECTION ( 'NONE',  ( 1.000000000000000000, 0.000000000000000000, 0.000000000000000000 ) ) ;
#247 = VERTEX_POINT ( 'NONE', #127 ) ;
#248 = APPROVAL_STATUS ( 'not_yet_approved' ) ;
#249 = CARTESIAN_POINT ( 'NONE',  ( 4.099999999999999645, 5.021051876504147385E-16, 165.0000000000000000 ) ) ;
#250 = CARTESIAN_POINT ( 'NONE',  ( 0.000000000000000000, 0.000000000000000000, 5.000000000000000000 ) ) ;
#251 = CARTESIAN_POINT ( 'NONE',  ( 0.000000000000000000, 0.000000000000000000, 165.0000000000000000 ) ) ;
#252 = CC_DESIGN_APPROVAL ( #47, ( #217 ) ) ;
#253 = ADVANCED_FACE ( 'NONE', ( #178 ), #11, .T. ) ;
#254 = COORDINATED_UNIVERSAL_TIME_OFFSET ( 1, 0, .AHEAD. ) ;
#255 = PRODUCT_RELATED_PRODUCT_CATEGORY ( 'detail', '', ( #3 ) ) ;
ENDSEC;
END-ISO-10303-21;
