ISO-10303-21;
HEADER;
FILE_DESCRIPTION (( 'STEP AP203' ),
    '1' );
FILE_NAME ('3a22.STEP',
    '2022-07-07T17:56:02',
    ( '' ),
    ( '' ),
    'SwSTEP 2.0',
    'SolidWorks 2019',
    '' );
FILE_SCHEMA (( 'CONFIG_CONTROL_DESIGN' ));
ENDSEC;

DATA;
#1 = PRODUCT_DEFINITION_FORMATION_WITH_SPECIFIED_SOURCE ( 'LIBOVOLNÝ', '', #120, .NOT_KNOWN. ) ;
#2 = DIRECTION ( 'NONE',  ( 1.000000000000000000, 0.000000000000000000, 0.000000000000000000 ) ) ;
#3 = ADVANCED_FACE ( 'NONE', ( #150 ), #55, .T. ) ;
#4 = DIRECTION ( 'NONE',  ( 0.000000000000000000, 0.000000000000000000, 1.000000000000000000 ) ) ;
#5 = CC_DESIGN_APPROVAL ( #115, ( #91 ) ) ;
#6 = CARTESIAN_POINT ( 'NONE',  ( 0.000000000000000000, 0.000000000000000000, 318.0000000000000000 ) ) ;
#7 = EDGE_LOOP ( 'NONE', ( #234, #168, #96, #109 ) ) ;
#8 = CARTESIAN_POINT ( 'NONE',  ( 0.000000000000000000, 0.000000000000000000, 318.0000000000000000 ) ) ;
#9 = ORIENTED_EDGE ( 'NONE', *, *, #59, .T. ) ;
#10 = DIRECTION ( 'NONE',  ( 1.000000000000000000, 0.000000000000000000, -0.000000000000000000 ) ) ;
#11 = CALENDAR_DATE ( 2022, 7, 7 ) ;
#12 = DIRECTION ( 'NONE',  ( 0.000000000000000000, 0.000000000000000000, 1.000000000000000000 ) ) ;
#13 = PERSON_AND_ORGANIZATION ( #87, #216 ) ;
#14 = ORIENTED_EDGE ( 'NONE', *, *, #59, .F. ) ;
#15 = CALENDAR_DATE ( 2022, 7, 7 ) ;
#16 = EDGE_CURVE ( 'NONE', #36, #72, #201, .T. ) ;
#17 = APPROVAL ( #153, 'NEURÈENÝ' ) ;
#18 = CARTESIAN_POINT ( 'NONE',  ( -3.000000000000000444, 0.000000000000000000, 3.000000000000000000 ) ) ;
#19 = AXIS2_PLACEMENT_3D ( 'NONE', #169, #108, #209 ) ;
#20 = CIRCLE ( 'NONE', #227, 3.000000000000000444 ) ;
#21 = CARTESIAN_POINT ( 'NONE',  ( 3.000000000000000444, 3.673940397442060361E-16, 0.000000000000000000 ) ) ;
#22 = ORIENTED_EDGE ( 'NONE', *, *, #29, .F. ) ;
#23 = LINE ( 'NONE', #30, #195 ) ;
#24 = EDGE_CURVE ( 'NONE', #145, #151, #119, .T. ) ;
#25 = DIRECTION ( 'NONE',  ( 1.000000000000000000, 0.000000000000000000, -0.000000000000000000 ) ) ;
#26 = PERSON_AND_ORGANIZATION ( #87, #216 ) ;
#27 = ORIENTED_EDGE ( 'NONE', *, *, #82, .T. ) ;
#28 = CARTESIAN_POINT ( 'NONE',  ( 0.000000000000000000, 0.000000000000000000, 3.000000000000000000 ) ) ;
#29 = EDGE_CURVE ( 'NONE', #151, #107, #23, .T. ) ;
#30 = CARTESIAN_POINT ( 'NONE',  ( 1.500000000000000222, 1.836970198721030181E-16, 318.0000000000000000 ) ) ;
#31 = DATE_AND_TIME ( #15, #182 ) ;
#32 = CARTESIAN_POINT ( 'NONE',  ( -3.000000000000000444, 0.000000000000000000, 3.000000000000000000 ) ) ;
#33 = PERSON_AND_ORGANIZATION_ROLE ( 'creator' ) ;
#34 = APPROVAL_PERSON_ORGANIZATION ( #156, #17, #215 ) ;
#35 = ADVANCED_FACE ( 'NONE', ( #253, #75 ), #248, .T. ) ;
#36 = VERTEX_POINT ( 'NONE', #129 ) ;
#37 = VECTOR ( 'NONE', #134, 1000.000000000000000 ) ;
#38 = CC_DESIGN_PERSON_AND_ORGANIZATION_ASSIGNMENT ( #77, #33, ( #91 ) ) ;
#39 = DIRECTION ( 'NONE',  ( 0.000000000000000000, 0.000000000000000000, 1.000000000000000000 ) ) ;
#40 = APPROVAL_PERSON_ORGANIZATION ( #26, #217, #101 ) ;
#41 =( NAMED_UNIT ( * ) SI_UNIT ( $, .STERADIAN. ) SOLID_ANGLE_UNIT ( ) );
#42 = CARTESIAN_POINT ( 'NONE',  ( 0.000000000000000000, 0.000000000000000000, 3.000000000000000000 ) ) ;
#43 = AXIS2_PLACEMENT_3D ( 'NONE', #8, #211, #46 ) ;
#44 = ADVANCED_FACE ( 'NONE', ( #111 ), #155, .T. ) ;
#45 = ORIENTED_EDGE ( 'NONE', *, *, #118, .T. ) ;
#46 = DIRECTION ( 'NONE',  ( 1.000000000000000000, 0.000000000000000000, 0.000000000000000000 ) ) ;
#47 = APPLICATION_CONTEXT ( 'configuration controlled 3d designs of mechanical parts and assemblies' ) ;
#48 = EDGE_LOOP ( 'NONE', ( #246, #114, #252, #27 ) ) ;
#49 = DIRECTION ( 'NONE',  ( -0.000000000000000000, -0.000000000000000000, -1.000000000000000000 ) ) ;
#50 = CC_DESIGN_DATE_AND_TIME_ASSIGNMENT ( #249, #170, ( #91 ) ) ;
#51 = APPROVAL_DATE_TIME ( #130, #115 ) ;
#52 = DIRECTION ( 'NONE',  ( 1.000000000000000000, 0.000000000000000000, 0.000000000000000000 ) ) ;
#53 = COORDINATED_UNIVERSAL_TIME_OFFSET ( 1, 0, .AHEAD. ) ;
#54 = EDGE_LOOP ( 'NONE', ( #113, #152 ) ) ;
#55 = PLANE ( 'NONE',  #86 ) ;
#56 = APPROVAL_DATE_TIME ( #95, #17 ) ;
#57 = APPLICATION_PROTOCOL_DEFINITION ( 'international standard', 'config_control_design', 1994, #92 ) ;
#58 = EDGE_CURVE ( 'NONE', #151, #145, #158, .T. ) ;
#59 = EDGE_CURVE ( 'NONE', #145, #207, #127, .T. ) ;
#60 = CARTESIAN_POINT ( 'NONE',  ( 0.000000000000000000, 0.000000000000000000, 0.000000000000000000 ) ) ;
#61 = PRODUCT_RELATED_PRODUCT_CATEGORY ( 'detail', '', ( #120 ) ) ;
#62 = CARTESIAN_POINT ( 'NONE',  ( 0.000000000000000000, 0.000000000000000000, 3.000000000000000000 ) ) ;
#63 = EDGE_LOOP ( 'NONE', ( #69, #132 ) ) ;
#64 = CIRCLE ( 'NONE', #102, 1.500000000000000222 ) ;
#65 = DIRECTION ( 'NONE',  ( 1.000000000000000000, 0.000000000000000000, 0.000000000000000000 ) ) ;
#66 = AXIS2_PLACEMENT_3D ( 'NONE', #83, #203, #220 ) ;
#67 = PERSON_AND_ORGANIZATION ( #87, #216 ) ;
#68 = EDGE_CURVE ( 'NONE', #36, #226, #236, .T. ) ;
#69 = ORIENTED_EDGE ( 'NONE', *, *, #24, .T. ) ;
#70 = MANIFOLD_SOLID_BREP ( 'Pøidat vysunutím3', #160 ) ;
#71 = DATE_TIME_ROLE ( 'classification_date' ) ;
#72 = VERTEX_POINT ( 'NONE', #32 ) ;
#73 = LINE ( 'NONE', #18, #147 ) ;
#74 = APPROVAL_STATUS ( 'not_yet_approved' ) ;
#75 = FACE_OUTER_BOUND ( 'NONE', #250, .T. ) ;
#76 = CC_DESIGN_APPROVAL ( #217, ( #154 ) ) ;
#77 = PERSON_AND_ORGANIZATION ( #87, #216 ) ;
#78 = ADVANCED_FACE ( 'NONE', ( #116 ), #94, .T. ) ;
#79 = CALENDAR_DATE ( 2022, 7, 7 ) ;
#80 = AXIS2_PLACEMENT_3D ( 'NONE', #184, #167, #189 ) ;
#81 = LOCAL_TIME ( 19, 56, 2.000000000000000000, #173 ) ;
#82 = EDGE_CURVE ( 'NONE', #213, #226, #178, .T. ) ;
#83 = CARTESIAN_POINT ( 'NONE',  ( 0.000000000000000000, 0.000000000000000000, 318.0000000000000000 ) ) ;
#84 = EDGE_CURVE ( 'NONE', #207, #107, #64, .T. ) ;
#85 = DESIGN_CONTEXT ( 'detailed design', #92, 'design' ) ;
#86 = AXIS2_PLACEMENT_3D ( 'NONE', #112, #148, #10 ) ;
#87 = PERSON ( 'NEURÈENÝ', 'NEURÈENÝ', 'NEURÈENÝ', ('NEURÈENÝ'), ('NEURÈENÝ'), ('NEURÈENÝ') ) ;
#88 = LOCAL_TIME ( 19, 56, 2.000000000000000000, #187 ) ;
#89 = FACE_OUTER_BOUND ( 'NONE', #231, .T. ) ;
#90 = DIRECTION ( 'NONE',  ( -0.000000000000000000, -0.000000000000000000, -1.000000000000000000 ) ) ;
#91 = PRODUCT_DEFINITION ( 'NEZNÁMÝ', '', #1, #85 ) ;
#92 = APPLICATION_CONTEXT ( 'configuration controlled 3d designs of mechanical parts and assemblies' ) ;
#93 = ORIENTED_EDGE ( 'NONE', *, *, #165, .F. ) ;
#94 = CYLINDRICAL_SURFACE ( 'NONE', #19, 3.000000000000000444 ) ;
#95 = DATE_AND_TIME ( #11, #81 ) ;
#96 = ORIENTED_EDGE ( 'NONE', *, *, #165, .T. ) ;
#97 = CARTESIAN_POINT ( 'NONE',  ( 3.000000000000000444, 3.673940397442060361E-16, 3.000000000000000000 ) ) ;
#98 = PERSON_AND_ORGANIZATION_ROLE ( 'creator' ) ;
#99 = CARTESIAN_POINT ( 'NONE',  ( 0.000000000000000000, 0.000000000000000000, 318.0000000000000000 ) ) ;
#100 = COORDINATED_UNIVERSAL_TIME_OFFSET ( 1, 0, .AHEAD. ) ;
#101 = APPROVAL_ROLE ( '' ) ;
#102 = AXIS2_PLACEMENT_3D ( 'NONE', #28, #172, #247 ) ;
#103 = EDGE_CURVE ( 'NONE', #72, #213, #73, .T. ) ;
#104 = CARTESIAN_POINT ( 'NONE',  ( 1.500000000000000222, 1.836970198721030181E-16, 318.0000000000000000 ) ) ;
#105 = DIRECTION ( 'NONE',  ( 1.000000000000000000, 0.000000000000000000, 0.000000000000000000 ) ) ;
#106 =( NAMED_UNIT ( * ) PLANE_ANGLE_UNIT ( ) SI_UNIT ( $, .RADIAN. ) );
#107 = VERTEX_POINT ( 'NONE', #163 ) ;
#108 = DIRECTION ( 'NONE',  ( -0.000000000000000000, -0.000000000000000000, -1.000000000000000000 ) ) ;
#109 = ORIENTED_EDGE ( 'NONE', *, *, #103, .F. ) ;
#110 = AXIS2_PLACEMENT_3D ( 'NONE', #196, #214, #25 ) ;
#111 = FACE_OUTER_BOUND ( 'NONE', #48, .T. ) ;
#112 = CARTESIAN_POINT ( 'NONE',  ( 0.000000000000000000, 0.000000000000000000, 318.0000000000000000 ) ) ;
#113 = ORIENTED_EDGE ( 'NONE', *, *, #84, .F. ) ;
#114 = ORIENTED_EDGE ( 'NONE', *, *, #118, .F. ) ;
#115 = APPROVAL ( #74, 'NEURÈENÝ' ) ;
#116 = FACE_OUTER_BOUND ( 'NONE', #7, .T. ) ;
#117 = PERSON_AND_ORGANIZATION ( #87, #216 ) ;
#118 = EDGE_CURVE ( 'NONE', #72, #36, #20, .T. ) ;
#119 = CIRCLE ( 'NONE', #219, 1.500000000000000222 ) ;
#120 = PRODUCT ( '3a22', '3a22', '', ( #202 ) ) ;
#121 = LOCAL_TIME ( 19, 56, 2.000000000000000000, #100 ) ;
#122 = CARTESIAN_POINT ( 'NONE',  ( -1.500000000000000222, 0.000000000000000000, 3.000000000000000000 ) ) ;
#123 = DIRECTION ( 'NONE',  ( 1.000000000000000000, 0.000000000000000000, 0.000000000000000000 ) ) ;
#124 = FACE_OUTER_BOUND ( 'NONE', #229, .T. ) ;
#125 =( LENGTH_UNIT ( ) NAMED_UNIT ( * ) SI_UNIT ( .MILLI., .METRE. ) );
#126 = ORIENTED_EDGE ( 'NONE', *, *, #16, .T. ) ;
#127 = LINE ( 'NONE', #208, #138 ) ;
#128 = APPROVAL_STATUS ( 'not_yet_approved' ) ;
#129 = CARTESIAN_POINT ( 'NONE',  ( 3.000000000000000444, 3.673940397442060361E-16, 3.000000000000000000 ) ) ;
#130 = DATE_AND_TIME ( #79, #88 ) ;
#131 = AXIS2_PLACEMENT_3D ( 'NONE', #60, #206, #2 ) ;
#132 = ORIENTED_EDGE ( 'NONE', *, *, #58, .T. ) ;
#133 = CALENDAR_DATE ( 2022, 7, 7 ) ;
#134 = DIRECTION ( 'NONE',  ( -0.000000000000000000, -0.000000000000000000, -1.000000000000000000 ) ) ;
#135 = CALENDAR_DATE ( 2022, 7, 7 ) ;
#136 = CC_DESIGN_PERSON_AND_ORGANIZATION_ASSIGNMENT ( #191, #194, ( #120 ) ) ;
#137 = CC_DESIGN_SECURITY_CLASSIFICATION ( #154, ( #1 ) ) ;
#138 = VECTOR ( 'NONE', #90, 1000.000000000000000 ) ;
#139 = ADVANCED_FACE ( 'NONE', ( #204 ), #181, .T. ) ;
#140 = APPLICATION_PROTOCOL_DEFINITION ( 'international standard', 'config_control_design', 1994, #47 ) ;
#141 = CC_DESIGN_PERSON_AND_ORGANIZATION_ASSIGNMENT ( #157, #210, ( #154 ) ) ;
#142 = CYLINDRICAL_SURFACE ( 'NONE', #66, 1.500000000000000222 ) ;
#143 = CARTESIAN_POINT ( 'NONE',  ( 0.000000000000000000, 0.000000000000000000, 0.000000000000000000 ) ) ;
#144 = ORIENTED_EDGE ( 'NONE', *, *, #84, .T. ) ;
#145 = VERTEX_POINT ( 'NONE', #180 ) ;
#146 = EDGE_CURVE ( 'NONE', #107, #207, #198, .T. ) ;
#147 = VECTOR ( 'NONE', #245, 1000.000000000000000 ) ;
#148 = DIRECTION ( 'NONE',  ( 0.000000000000000000, 0.000000000000000000, 1.000000000000000000 ) ) ;
#149 = SHAPE_DEFINITION_REPRESENTATION ( #224, #190 ) ;
#150 = FACE_OUTER_BOUND ( 'NONE', #63, .T. ) ;
#151 = VERTEX_POINT ( 'NONE', #104 ) ;
#152 = ORIENTED_EDGE ( 'NONE', *, *, #146, .F. ) ;
#153 = APPROVAL_STATUS ( 'not_yet_approved' ) ;
#154 = SECURITY_CLASSIFICATION ( '', '', #197 ) ;
#155 = CYLINDRICAL_SURFACE ( 'NONE', #218, 3.000000000000000444 ) ;
#156 = PERSON_AND_ORGANIZATION ( #87, #216 ) ;
#157 = PERSON_AND_ORGANIZATION ( #87, #216 ) ;
#158 = CIRCLE ( 'NONE', #43, 1.500000000000000222 ) ;
#159 = AXIS2_PLACEMENT_3D ( 'NONE', #6, #244, #162 ) ;
#160 = CLOSED_SHELL ( 'NONE', ( #179, #78, #44, #35, #199, #139, #3 ) ) ;
#161 = DIRECTION ( 'NONE',  ( 1.000000000000000000, 0.000000000000000000, 0.000000000000000000 ) ) ;
#162 = DIRECTION ( 'NONE',  ( -1.000000000000000000, 0.000000000000000000, 0.000000000000000000 ) ) ;
#163 = CARTESIAN_POINT ( 'NONE',  ( 1.500000000000000222, 1.836970198721030181E-16, 3.000000000000000000 ) ) ;
#164 = DIRECTION ( 'NONE',  ( 0.000000000000000000, 0.000000000000000000, 1.000000000000000000 ) ) ;
#165 = EDGE_CURVE ( 'NONE', #226, #213, #243, .T. ) ;
#166 = ORIENTED_EDGE ( 'NONE', *, *, #146, .T. ) ;
#167 = DIRECTION ( 'NONE',  ( 0.000000000000000000, 0.000000000000000000, 1.000000000000000000 ) ) ;
#168 = ORIENTED_EDGE ( 'NONE', *, *, #68, .T. ) ;
#169 = CARTESIAN_POINT ( 'NONE',  ( 0.000000000000000000, 0.000000000000000000, 3.000000000000000000 ) ) ;
#170 = DATE_TIME_ROLE ( 'creation_date' ) ;
#171 = ORIENTED_EDGE ( 'NONE', *, *, #24, .F. ) ;
#172 = DIRECTION ( 'NONE',  ( 0.000000000000000000, 0.000000000000000000, 1.000000000000000000 ) ) ;
#173 = COORDINATED_UNIVERSAL_TIME_OFFSET ( 1, 0, .AHEAD. ) ;
#174 = EDGE_LOOP ( 'NONE', ( #22, #171, #9, #144 ) ) ;
#175 = AXIS2_PLACEMENT_3D ( 'NONE', #143, #4, #225 ) ;
#176 = DATE_AND_TIME ( #133, #205 ) ;
#177 = CC_DESIGN_DATE_AND_TIME_ASSIGNMENT ( #31, #71, ( #154 ) ) ;
#178 = CIRCLE ( 'NONE', #80, 3.000000000000000444 ) ;
#179 = ADVANCED_FACE ( 'NONE', ( #89 ), #142, .T. ) ;
#180 = CARTESIAN_POINT ( 'NONE',  ( -1.500000000000000222, 0.000000000000000000, 318.0000000000000000 ) ) ;
#181 = CYLINDRICAL_SURFACE ( 'NONE', #159, 1.500000000000000222 ) ;
#182 = LOCAL_TIME ( 19, 56, 2.000000000000000000, #53 ) ;
#183 = CARTESIAN_POINT ( 'NONE',  ( -3.000000000000000444, 0.000000000000000000, 0.000000000000000000 ) ) ;
#184 = CARTESIAN_POINT ( 'NONE',  ( 0.000000000000000000, 0.000000000000000000, 0.000000000000000000 ) ) ;
#185 = CARTESIAN_POINT ( 'NONE',  ( 0.000000000000000000, 0.000000000000000000, 3.000000000000000000 ) ) ;
#186 = CC_DESIGN_PERSON_AND_ORGANIZATION_ASSIGNMENT ( #117, #230, ( #1 ) ) ;
#187 = COORDINATED_UNIVERSAL_TIME_OFFSET ( 1, 0, .AHEAD. ) ;
#188 = ORIENTED_EDGE ( 'NONE', *, *, #58, .F. ) ;
#189 = DIRECTION ( 'NONE',  ( 1.000000000000000000, 0.000000000000000000, 0.000000000000000000 ) ) ;
#190 = ADVANCED_BREP_SHAPE_REPRESENTATION ( '3a22', ( #70, #254 ), #238 ) ;
#191 = PERSON_AND_ORGANIZATION ( #87, #216 ) ;
#192 = ORIENTED_EDGE ( 'NONE', *, *, #82, .F. ) ;
#193 = DIRECTION ( 'NONE',  ( -1.000000000000000000, 0.000000000000000000, 0.000000000000000000 ) ) ;
#194 = PERSON_AND_ORGANIZATION_ROLE ( 'design_owner' ) ;
#195 = VECTOR ( 'NONE', #49, 1000.000000000000000 ) ;
#196 = CARTESIAN_POINT ( 'NONE',  ( 0.000000000000000000, 0.000000000000000000, 3.000000000000000000 ) ) ;
#197 = SECURITY_CLASSIFICATION_LEVEL ( 'unclassified' ) ;
#198 = CIRCLE ( 'NONE', #212, 1.500000000000000222 ) ;
#199 = ADVANCED_FACE ( 'NONE', ( #124 ), #222, .F. ) ;
#200 = APPROVAL_PERSON_ORGANIZATION ( #67, #115, #233 ) ;
#201 = CIRCLE ( 'NONE', #242, 3.000000000000000444 ) ;
#202 = MECHANICAL_CONTEXT ( 'NONE', #47, 'mechanical' ) ;
#203 = DIRECTION ( 'NONE',  ( -0.000000000000000000, -0.000000000000000000, -1.000000000000000000 ) ) ;
#204 = FACE_OUTER_BOUND ( 'NONE', #174, .T. ) ;
#205 = LOCAL_TIME ( 19, 56, 2.000000000000000000, #255 ) ;
#206 = DIRECTION ( 'NONE',  ( 0.000000000000000000, 0.000000000000000000, 1.000000000000000000 ) ) ;
#207 = VERTEX_POINT ( 'NONE', #122 ) ;
#208 = CARTESIAN_POINT ( 'NONE',  ( -1.500000000000000222, 0.000000000000000000, 318.0000000000000000 ) ) ;
#209 = DIRECTION ( 'NONE',  ( -1.000000000000000000, 0.000000000000000000, 0.000000000000000000 ) ) ;
#210 = PERSON_AND_ORGANIZATION_ROLE ( 'classification_officer' ) ;
#211 = DIRECTION ( 'NONE',  ( 0.000000000000000000, 0.000000000000000000, 1.000000000000000000 ) ) ;
#212 = AXIS2_PLACEMENT_3D ( 'NONE', #62, #39, #105 ) ;
#213 = VERTEX_POINT ( 'NONE', #183 ) ;
#214 = DIRECTION ( 'NONE',  ( 0.000000000000000000, 0.000000000000000000, 1.000000000000000000 ) ) ;
#215 = APPROVAL_ROLE ( '' ) ;
#216 = ORGANIZATION ( 'NEURÈENÝ', 'NEURÈENÝ', '' ) ;
#217 = APPROVAL ( #128, 'NEURÈENÝ' ) ;
#218 = AXIS2_PLACEMENT_3D ( 'NONE', #185, #235, #193 ) ;
#219 = AXIS2_PLACEMENT_3D ( 'NONE', #99, #251, #65 ) ;
#220 = DIRECTION ( 'NONE',  ( -1.000000000000000000, 0.000000000000000000, 0.000000000000000000 ) ) ;
#221 = CC_DESIGN_APPROVAL ( #17, ( #1 ) ) ;
#222 = PLANE ( 'NONE',  #175 ) ;
#223 = DIRECTION ( 'NONE',  ( 0.000000000000000000, 0.000000000000000000, 1.000000000000000000 ) ) ;
#224 = PRODUCT_DEFINITION_SHAPE ( 'NONE', 'NONE',  #91 ) ;
#225 = DIRECTION ( 'NONE',  ( 1.000000000000000000, 0.000000000000000000, -0.000000000000000000 ) ) ;
#226 = VERTEX_POINT ( 'NONE', #21 ) ;
#227 = AXIS2_PLACEMENT_3D ( 'NONE', #42, #164, #161 ) ;
#228 = ORIENTED_EDGE ( 'NONE', *, *, #29, .T. ) ;
#229 = EDGE_LOOP ( 'NONE', ( #192, #93 ) ) ;
#230 = PERSON_AND_ORGANIZATION_ROLE ( 'design_supplier' ) ;
#231 = EDGE_LOOP ( 'NONE', ( #188, #228, #166, #14 ) ) ;
#232 = CARTESIAN_POINT ( 'NONE',  ( 0.000000000000000000, 0.000000000000000000, 3.000000000000000000 ) ) ;
#233 = APPROVAL_ROLE ( '' ) ;
#234 = ORIENTED_EDGE ( 'NONE', *, *, #16, .F. ) ;
#235 = DIRECTION ( 'NONE',  ( -0.000000000000000000, -0.000000000000000000, -1.000000000000000000 ) ) ;
#236 = LINE ( 'NONE', #97, #37 ) ;
#237 = APPROVAL_DATE_TIME ( #176, #217 ) ;
#238 =( GEOMETRIC_REPRESENTATION_CONTEXT ( 3 ) GLOBAL_UNCERTAINTY_ASSIGNED_CONTEXT ( ( #240 ) ) GLOBAL_UNIT_ASSIGNED_CONTEXT ( ( #125, #106, #41 ) ) REPRESENTATION_CONTEXT ( 'NONE', 'WORKASPACE' ) );
#239 = CC_DESIGN_PERSON_AND_ORGANIZATION_ASSIGNMENT ( #13, #98, ( #1 ) ) ;
#240 = UNCERTAINTY_MEASURE_WITH_UNIT (LENGTH_MEASURE( 1.000000000000000082E-05 ), #125, 'distance_accuracy_value', 'NONE');
#241 = CARTESIAN_POINT ( 'NONE',  ( 0.000000000000000000, 0.000000000000000000, 0.000000000000000000 ) ) ;
#242 = AXIS2_PLACEMENT_3D ( 'NONE', #232, #12, #52 ) ;
#243 = CIRCLE ( 'NONE', #131, 3.000000000000000444 ) ;
#244 = DIRECTION ( 'NONE',  ( -0.000000000000000000, -0.000000000000000000, -1.000000000000000000 ) ) ;
#245 = DIRECTION ( 'NONE',  ( -0.000000000000000000, -0.000000000000000000, -1.000000000000000000 ) ) ;
#246 = ORIENTED_EDGE ( 'NONE', *, *, #68, .F. ) ;
#247 = DIRECTION ( 'NONE',  ( 1.000000000000000000, 0.000000000000000000, 0.000000000000000000 ) ) ;
#248 = PLANE ( 'NONE',  #110 ) ;
#249 = DATE_AND_TIME ( #135, #121 ) ;
#250 = EDGE_LOOP ( 'NONE', ( #45, #126 ) ) ;
#251 = DIRECTION ( 'NONE',  ( 0.000000000000000000, 0.000000000000000000, 1.000000000000000000 ) ) ;
#252 = ORIENTED_EDGE ( 'NONE', *, *, #103, .T. ) ;
#253 = FACE_BOUND ( 'NONE', #54, .T. ) ;
#254 = AXIS2_PLACEMENT_3D ( 'NONE', #241, #223, #123 ) ;
#255 = COORDINATED_UNIVERSAL_TIME_OFFSET ( 1, 0, .AHEAD. ) ;
ENDSEC;
END-ISO-10303-21;
