ISO-10303-21;
HEADER;
FILE_DESCRIPTION (( 'STEP AP203' ),
    '1' );
FILE_NAME ('c993.STEP',
    '2022-07-07T17:51:20',
    ( '' ),
    ( '' ),
    'SwSTEP 2.0',
    'SolidWorks 2019',
    '' );
FILE_SCHEMA (( 'CONFIG_CONTROL_DESIGN' ));
ENDSEC;

DATA;
#1 = ORIENTED_EDGE ( 'NONE', *, *, #146, .T. ) ;
#2 = AXIS2_PLACEMENT_3D ( 'NONE', #125, #139, #54 ) ;
#3 = LOCAL_TIME ( 19, 51, 20.00000000000000000, #244 ) ;
#4 = DIRECTION ( 'NONE',  ( 0.000000000000000000, 0.000000000000000000, 1.000000000000000000 ) ) ;
#5 = DIRECTION ( 'NONE',  ( 1.000000000000000000, 0.000000000000000000, 0.000000000000000000 ) ) ;
#6 = COORDINATED_UNIVERSAL_TIME_OFFSET ( 1, 0, .AHEAD. ) ;
#7 = LOCAL_TIME ( 19, 51, 20.00000000000000000, #6 ) ;
#8 = PRODUCT ( 'c993', 'c993', '', ( #189 ) ) ;
#9 = APPROVAL_DATE_TIME ( #70, #67 ) ;
#10 = CARTESIAN_POINT ( 'NONE',  ( -2.000000000000000000, 0.000000000000000000, 403.0000000000000000 ) ) ;
#11 = APPROVAL_STATUS ( 'not_yet_approved' ) ;
#12 = DATE_AND_TIME ( #135, #185 ) ;
#13 = CARTESIAN_POINT ( 'NONE',  ( 2.000000000000000000, 2.449293598294706414E-16, 3.000000000000000000 ) ) ;
#14 = AXIS2_PLACEMENT_3D ( 'NONE', #88, #242, #218 ) ;
#15 = SECURITY_CLASSIFICATION_LEVEL ( 'unclassified' ) ;
#16 = DIRECTION ( 'NONE',  ( 1.000000000000000000, 0.000000000000000000, 0.000000000000000000 ) ) ;
#17 = ADVANCED_FACE ( 'NONE', ( #123 ), #35, .F. ) ;
#18 = CARTESIAN_POINT ( 'NONE',  ( 0.000000000000000000, 0.000000000000000000, 0.000000000000000000 ) ) ;
#19 = PERSON ( 'NEURÈENÝ', 'NEURÈENÝ', 'NEURÈENÝ', ('NEURÈENÝ'), ('NEURÈENÝ'), ('NEURÈENÝ') ) ;
#20 = FACE_OUTER_BOUND ( 'NONE', #201, .T. ) ;
#21 = ORIENTED_EDGE ( 'NONE', *, *, #222, .T. ) ;
#22 = ORIENTED_EDGE ( 'NONE', *, *, #171, .T. ) ;
#23 = EDGE_LOOP ( 'NONE', ( #181, #110 ) ) ;
#24 = DIRECTION ( 'NONE',  ( 0.000000000000000000, 0.000000000000000000, 1.000000000000000000 ) ) ;
#25 = CC_DESIGN_DATE_AND_TIME_ASSIGNMENT ( #72, #53, ( #159 ) ) ;
#26 = CC_DESIGN_APPROVAL ( #236, ( #182 ) ) ;
#27 = DIRECTION ( 'NONE',  ( 1.000000000000000000, 0.000000000000000000, 0.000000000000000000 ) ) ;
#28 = CC_DESIGN_DATE_AND_TIME_ASSIGNMENT ( #138, #122, ( #71 ) ) ;
#29 = DIRECTION ( 'NONE',  ( 1.000000000000000000, 0.000000000000000000, 0.000000000000000000 ) ) ;
#30 = PERSON_AND_ORGANIZATION ( #19, #115 ) ;
#31 = DESIGN_CONTEXT ( 'detailed design', #136, 'design' ) ;
#32 = CALENDAR_DATE ( 2022, 7, 7 ) ;
#33 = PRODUCT_DEFINITION_SHAPE ( 'NONE', 'NONE',  #71 ) ;
#34 = AXIS2_PLACEMENT_3D ( 'NONE', #223, #160, #143 ) ;
#35 = PLANE ( 'NONE',  #65 ) ;
#36 = COORDINATED_UNIVERSAL_TIME_OFFSET ( 1, 0, .AHEAD. ) ;
#37 = DIRECTION ( 'NONE',  ( 0.000000000000000000, 0.000000000000000000, 1.000000000000000000 ) ) ;
#38 = DIRECTION ( 'NONE',  ( 1.000000000000000000, 0.000000000000000000, 0.000000000000000000 ) ) ;
#39 = CYLINDRICAL_SURFACE ( 'NONE', #133, 4.000000000000000000 ) ;
#40 = AXIS2_PLACEMENT_3D ( 'NONE', #155, #37, #16 ) ;
#41 = EDGE_CURVE ( 'NONE', #64, #63, #163, .T. ) ;
#42 = ORIENTED_EDGE ( 'NONE', *, *, #151, .F. ) ;
#43 = APPROVAL_PERSON_ORGANIZATION ( #188, #236, #121 ) ;
#44 = EDGE_LOOP ( 'NONE', ( #254, #106, #255, #82 ) ) ;
#45 = CIRCLE ( 'NONE', #40, 2.000000000000000000 ) ;
#46 = ORIENTED_EDGE ( 'NONE', *, *, #94, .T. ) ;
#47 = EDGE_CURVE ( 'NONE', #177, #62, #60, .T. ) ;
#48 = CC_DESIGN_PERSON_AND_ORGANIZATION_ASSIGNMENT ( #96, #170, ( #159 ) ) ;
#49 = DIRECTION ( 'NONE',  ( 0.000000000000000000, 0.000000000000000000, 1.000000000000000000 ) ) ;
#50 = CARTESIAN_POINT ( 'NONE',  ( 0.000000000000000000, 0.000000000000000000, 3.000000000000000000 ) ) ;
#51 = PERSON_AND_ORGANIZATION ( #19, #115 ) ;
#52 = ADVANCED_BREP_SHAPE_REPRESENTATION ( 'c993', ( #239, #131 ), #58 ) ;
#53 = DATE_TIME_ROLE ( 'classification_date' ) ;
#54 = DIRECTION ( 'NONE',  ( -1.000000000000000000, 0.000000000000000000, 0.000000000000000000 ) ) ;
#55 = COORDINATED_UNIVERSAL_TIME_OFFSET ( 1, 0, .AHEAD. ) ;
#56 = CLOSED_SHELL ( 'NONE', ( #127, #90, #120, #142, #17, #166, #95 ) ) ;
#57 = DIRECTION ( 'NONE',  ( -0.000000000000000000, -0.000000000000000000, -1.000000000000000000 ) ) ;
#58 =( GEOMETRIC_REPRESENTATION_CONTEXT ( 3 ) GLOBAL_UNCERTAINTY_ASSIGNED_CONTEXT ( ( #134 ) ) GLOBAL_UNIT_ASSIGNED_CONTEXT ( ( #86, #184, #207 ) ) REPRESENTATION_CONTEXT ( 'NONE', 'WORKASPACE' ) );
#59 = ORIENTED_EDGE ( 'NONE', *, *, #41, .F. ) ;
#60 = LINE ( 'NONE', #78, #87 ) ;
#61 = PLANE ( 'NONE',  #152 ) ;
#62 = VERTEX_POINT ( 'NONE', #230 ) ;
#63 = VERTEX_POINT ( 'NONE', #251 ) ;
#64 = VERTEX_POINT ( 'NONE', #212 ) ;
#65 = AXIS2_PLACEMENT_3D ( 'NONE', #141, #137, #104 ) ;
#66 = CARTESIAN_POINT ( 'NONE',  ( 0.000000000000000000, 0.000000000000000000, 3.000000000000000000 ) ) ;
#67 = APPROVAL ( #168, 'NEURÈENÝ' ) ;
#68 = DIRECTION ( 'NONE',  ( 0.000000000000000000, 0.000000000000000000, 1.000000000000000000 ) ) ;
#69 = EDGE_CURVE ( 'NONE', #129, #200, #237, .T. ) ;
#70 = DATE_AND_TIME ( #98, #165 ) ;
#71 = PRODUCT_DEFINITION ( 'NEZNÁMÝ', '', #182, #31 ) ;
#72 = DATE_AND_TIME ( #169, #3 ) ;
#73 = CC_DESIGN_SECURITY_CLASSIFICATION ( #159, ( #182 ) ) ;
#74 = DIRECTION ( 'NONE',  ( 0.000000000000000000, 0.000000000000000000, 1.000000000000000000 ) ) ;
#75 = APPROVAL_ROLE ( '' ) ;
#76 = CARTESIAN_POINT ( 'NONE',  ( 0.000000000000000000, 0.000000000000000000, 3.000000000000000000 ) ) ;
#77 = PLANE ( 'NONE',  #34 ) ;
#78 = CARTESIAN_POINT ( 'NONE',  ( -2.000000000000000000, 0.000000000000000000, 403.0000000000000000 ) ) ;
#79 = ORIENTED_EDGE ( 'NONE', *, *, #226, .F. ) ;
#80 = ORIENTED_EDGE ( 'NONE', *, *, #94, .F. ) ;
#81 = CIRCLE ( 'NONE', #216, 2.000000000000000000 ) ;
#82 = ORIENTED_EDGE ( 'NONE', *, *, #227, .T. ) ;
#83 = CC_DESIGN_APPROVAL ( #233, ( #159 ) ) ;
#84 = AXIS2_PLACEMENT_3D ( 'NONE', #126, #101, #224 ) ;
#85 = PERSON_AND_ORGANIZATION_ROLE ( 'design_owner' ) ;
#86 =( LENGTH_UNIT ( ) NAMED_UNIT ( * ) SI_UNIT ( .MILLI., .METRE. ) );
#87 = VECTOR ( 'NONE', #103, 1000.000000000000000 ) ;
#88 = CARTESIAN_POINT ( 'NONE',  ( 0.000000000000000000, 0.000000000000000000, 403.0000000000000000 ) ) ;
#89 = APPROVAL_PERSON_ORGANIZATION ( #51, #67, #156 ) ;
#90 = ADVANCED_FACE ( 'NONE', ( #192 ), #209, .T. ) ;
#91 = PERSON_AND_ORGANIZATION_ROLE ( 'design_supplier' ) ;
#92 = CARTESIAN_POINT ( 'NONE',  ( 0.000000000000000000, 0.000000000000000000, 0.000000000000000000 ) ) ;
#93 = APPROVAL_DATE_TIME ( #194, #236 ) ;
#94 = EDGE_CURVE ( 'NONE', #202, #177, #225, .T. ) ;
#95 = ADVANCED_FACE ( 'NONE', ( #197 ), #77, .T. ) ;
#96 = PERSON_AND_ORGANIZATION ( #19, #115 ) ;
#97 = AXIS2_PLACEMENT_3D ( 'NONE', #18, #175, #105 ) ;
#98 = CALENDAR_DATE ( 2022, 7, 7 ) ;
#99 = AXIS2_PLACEMENT_3D ( 'NONE', #92, #24, #205 ) ;
#100 = CIRCLE ( 'NONE', #109, 4.000000000000000000 ) ;
#101 = DIRECTION ( 'NONE',  ( 0.000000000000000000, 0.000000000000000000, 1.000000000000000000 ) ) ;
#102 = APPROVAL_DATE_TIME ( #12, #233 ) ;
#103 = DIRECTION ( 'NONE',  ( -0.000000000000000000, -0.000000000000000000, -1.000000000000000000 ) ) ;
#104 = DIRECTION ( 'NONE',  ( 1.000000000000000000, 0.000000000000000000, -0.000000000000000000 ) ) ;
#105 = DIRECTION ( 'NONE',  ( 1.000000000000000000, 0.000000000000000000, 0.000000000000000000 ) ) ;
#106 = ORIENTED_EDGE ( 'NONE', *, *, #250, .F. ) ;
#107 = ORIENTED_EDGE ( 'NONE', *, *, #229, .F. ) ;
#108 = VERTEX_POINT ( 'NONE', #13 ) ;
#109 = AXIS2_PLACEMENT_3D ( 'NONE', #50, #4, #29 ) ;
#110 = ORIENTED_EDGE ( 'NONE', *, *, #146, .F. ) ;
#111 = EDGE_LOOP ( 'NONE', ( #80, #21, #1, #214 ) ) ;
#112 = CARTESIAN_POINT ( 'NONE',  ( 0.000000000000000000, 0.000000000000000000, 403.0000000000000000 ) ) ;
#113 = CIRCLE ( 'NONE', #234, 2.000000000000000000 ) ;
#114 = APPLICATION_CONTEXT ( 'configuration controlled 3d designs of mechanical parts and assemblies' ) ;
#115 = ORGANIZATION ( 'NEURÈENÝ', 'NEURÈENÝ', '' ) ;
#116 = LINE ( 'NONE', #217, #240 ) ;
#117 = CC_DESIGN_PERSON_AND_ORGANIZATION_ASSIGNMENT ( #247, #219, ( #71 ) ) ;
#118 = PERSON_AND_ORGANIZATION ( #19, #115 ) ;
#119 = APPLICATION_PROTOCOL_DEFINITION ( 'international standard', 'config_control_design', 1994, #114 ) ;
#120 = ADVANCED_FACE ( 'NONE', ( #248 ), #39, .T. ) ;
#121 = APPROVAL_ROLE ( '' ) ;
#122 = DATE_TIME_ROLE ( 'creation_date' ) ;
#123 = FACE_OUTER_BOUND ( 'NONE', #235, .T. ) ;
#124 = VECTOR ( 'NONE', #241, 1000.000000000000000 ) ;
#125 = CARTESIAN_POINT ( 'NONE',  ( 0.000000000000000000, 0.000000000000000000, 403.0000000000000000 ) ) ;
#126 = CARTESIAN_POINT ( 'NONE',  ( 0.000000000000000000, 0.000000000000000000, 3.000000000000000000 ) ) ;
#127 = ADVANCED_FACE ( 'NONE', ( #213 ), #231, .T. ) ;
#128 = CARTESIAN_POINT ( 'NONE',  ( 4.000000000000000000, 4.898587196589412829E-16, 3.000000000000000000 ) ) ;
#129 = VERTEX_POINT ( 'NONE', #128 ) ;
#130 = ORIENTED_EDGE ( 'NONE', *, *, #250, .T. ) ;
#131 = AXIS2_PLACEMENT_3D ( 'NONE', #132, #68, #149 ) ;
#132 = CARTESIAN_POINT ( 'NONE',  ( 0.000000000000000000, 0.000000000000000000, 0.000000000000000000 ) ) ;
#133 = AXIS2_PLACEMENT_3D ( 'NONE', #157, #57, #252 ) ;
#134 = UNCERTAINTY_MEASURE_WITH_UNIT (LENGTH_MEASURE( 1.000000000000000082E-05 ), #86, 'distance_accuracy_value', 'NONE');
#135 = CALENDAR_DATE ( 2022, 7, 7 ) ;
#136 = APPLICATION_CONTEXT ( 'configuration controlled 3d designs of mechanical parts and assemblies' ) ;
#137 = DIRECTION ( 'NONE',  ( 0.000000000000000000, 0.000000000000000000, 1.000000000000000000 ) ) ;
#138 = DATE_AND_TIME ( #32, #7 ) ;
#139 = DIRECTION ( 'NONE',  ( -0.000000000000000000, -0.000000000000000000, -1.000000000000000000 ) ) ;
#140 = PRODUCT_RELATED_PRODUCT_CATEGORY ( 'detail', '', ( #8 ) ) ;
#141 = CARTESIAN_POINT ( 'NONE',  ( 0.000000000000000000, 0.000000000000000000, 0.000000000000000000 ) ) ;
#142 = ADVANCED_FACE ( 'NONE', ( #198, #20 ), #61, .T. ) ;
#143 = DIRECTION ( 'NONE',  ( 1.000000000000000000, 0.000000000000000000, -0.000000000000000000 ) ) ;
#144 = AXIS2_PLACEMENT_3D ( 'NONE', #76, #176, #173 ) ;
#145 = EDGE_LOOP ( 'NONE', ( #42, #107, #232, #228 ) ) ;
#146 = EDGE_CURVE ( 'NONE', #108, #62, #45, .T. ) ;
#147 = DIRECTION ( 'NONE',  ( -0.000000000000000000, -0.000000000000000000, -1.000000000000000000 ) ) ;
#148 = LINE ( 'NONE', #187, #124 ) ;
#149 = DIRECTION ( 'NONE',  ( 1.000000000000000000, 0.000000000000000000, 0.000000000000000000 ) ) ;
#150 = APPLICATION_PROTOCOL_DEFINITION ( 'international standard', 'config_control_design', 1994, #136 ) ;
#151 = EDGE_CURVE ( 'NONE', #129, #63, #174, .T. ) ;
#152 = AXIS2_PLACEMENT_3D ( 'NONE', #196, #74, #211 ) ;
#153 = PERSON_AND_ORGANIZATION_ROLE ( 'creator' ) ;
#154 = APPROVAL_PERSON_ORGANIZATION ( #210, #233, #75 ) ;
#155 = CARTESIAN_POINT ( 'NONE',  ( 0.000000000000000000, 0.000000000000000000, 3.000000000000000000 ) ) ;
#156 = APPROVAL_ROLE ( '' ) ;
#157 = CARTESIAN_POINT ( 'NONE',  ( 0.000000000000000000, 0.000000000000000000, 3.000000000000000000 ) ) ;
#158 = DIRECTION ( 'NONE',  ( 0.000000000000000000, 0.000000000000000000, 1.000000000000000000 ) ) ;
#159 = SECURITY_CLASSIFICATION ( '', '', #15 ) ;
#160 = DIRECTION ( 'NONE',  ( 0.000000000000000000, 0.000000000000000000, 1.000000000000000000 ) ) ;
#161 = CARTESIAN_POINT ( 'NONE',  ( 0.000000000000000000, 0.000000000000000000, 403.0000000000000000 ) ) ;
#162 = ORIENTED_EDGE ( 'NONE', *, *, #171, .F. ) ;
#163 = CIRCLE ( 'NONE', #97, 4.000000000000000000 ) ;
#164 = EDGE_LOOP ( 'NONE', ( #183, #199, #22, #79 ) ) ;
#165 = LOCAL_TIME ( 19, 51, 20.00000000000000000, #36 ) ;
#166 = ADVANCED_FACE ( 'NONE', ( #204 ), #238, .T. ) ;
#167 = CC_DESIGN_PERSON_AND_ORGANIZATION_ASSIGNMENT ( #118, #153, ( #182 ) ) ;
#168 = APPROVAL_STATUS ( 'not_yet_approved' ) ;
#169 = CALENDAR_DATE ( 2022, 7, 7 ) ;
#170 = PERSON_AND_ORGANIZATION_ROLE ( 'classification_officer' ) ;
#171 = EDGE_CURVE ( 'NONE', #63, #64, #193, .T. ) ;
#172 = CALENDAR_DATE ( 2022, 7, 7 ) ;
#173 = DIRECTION ( 'NONE',  ( -1.000000000000000000, 0.000000000000000000, 0.000000000000000000 ) ) ;
#174 = LINE ( 'NONE', #249, #245 ) ;
#175 = DIRECTION ( 'NONE',  ( 0.000000000000000000, 0.000000000000000000, 1.000000000000000000 ) ) ;
#176 = DIRECTION ( 'NONE',  ( -0.000000000000000000, -0.000000000000000000, -1.000000000000000000 ) ) ;
#177 = VERTEX_POINT ( 'NONE', #10 ) ;
#178 = EDGE_LOOP ( 'NONE', ( #130, #46 ) ) ;
#179 = ORIENTED_EDGE ( 'NONE', *, *, #69, .T. ) ;
#180 = CC_DESIGN_PERSON_AND_ORGANIZATION_ASSIGNMENT ( #208, #91, ( #182 ) ) ;
#181 = ORIENTED_EDGE ( 'NONE', *, *, #227, .F. ) ;
#182 = PRODUCT_DEFINITION_FORMATION_WITH_SPECIFIED_SOURCE ( 'LIBOVOLNÝ', '', #8, .NOT_KNOWN. ) ;
#183 = ORIENTED_EDGE ( 'NONE', *, *, #69, .F. ) ;
#184 =( NAMED_UNIT ( * ) PLANE_ANGLE_UNIT ( ) SI_UNIT ( $, .RADIAN. ) );
#185 = LOCAL_TIME ( 19, 51, 20.00000000000000000, #221 ) ;
#186 = CARTESIAN_POINT ( 'NONE',  ( -4.000000000000000000, 0.000000000000000000, 3.000000000000000000 ) ) ;
#187 = CARTESIAN_POINT ( 'NONE',  ( 2.000000000000000000, 2.449293598294706414E-16, 403.0000000000000000 ) ) ;
#188 = PERSON_AND_ORGANIZATION ( #19, #115 ) ;
#189 = MECHANICAL_CONTEXT ( 'NONE', #114, 'mechanical' ) ;
#190 = SHAPE_DEFINITION_REPRESENTATION ( #33, #52 ) ;
#191 = APPROVAL_STATUS ( 'not_yet_approved' ) ;
#192 = FACE_OUTER_BOUND ( 'NONE', #164, .T. ) ;
#193 = CIRCLE ( 'NONE', #99, 4.000000000000000000 ) ;
#194 = DATE_AND_TIME ( #172, #195 ) ;
#195 = LOCAL_TIME ( 19, 51, 20.00000000000000000, #55 ) ;
#196 = CARTESIAN_POINT ( 'NONE',  ( 0.000000000000000000, 0.000000000000000000, 3.000000000000000000 ) ) ;
#197 = FACE_OUTER_BOUND ( 'NONE', #178, .T. ) ;
#198 = FACE_BOUND ( 'NONE', #23, .T. ) ;
#199 = ORIENTED_EDGE ( 'NONE', *, *, #151, .T. ) ;
#200 = VERTEX_POINT ( 'NONE', #186 ) ;
#201 = EDGE_LOOP ( 'NONE', ( #253, #179 ) ) ;
#202 = VERTEX_POINT ( 'NONE', #220 ) ;
#203 = AXIS2_PLACEMENT_3D ( 'NONE', #161, #158, #38 ) ;
#204 = FACE_OUTER_BOUND ( 'NONE', #44, .T. ) ;
#205 = DIRECTION ( 'NONE',  ( 1.000000000000000000, 0.000000000000000000, 0.000000000000000000 ) ) ;
#206 = DIRECTION ( 'NONE',  ( -0.000000000000000000, -0.000000000000000000, -1.000000000000000000 ) ) ;
#207 =( NAMED_UNIT ( * ) SI_UNIT ( $, .STERADIAN. ) SOLID_ANGLE_UNIT ( ) );
#208 = PERSON_AND_ORGANIZATION ( #19, #115 ) ;
#209 = CYLINDRICAL_SURFACE ( 'NONE', #144, 4.000000000000000000 ) ;
#210 = PERSON_AND_ORGANIZATION ( #19, #115 ) ;
#211 = DIRECTION ( 'NONE',  ( 1.000000000000000000, 0.000000000000000000, -0.000000000000000000 ) ) ;
#212 = CARTESIAN_POINT ( 'NONE',  ( -4.000000000000000000, 0.000000000000000000, 0.000000000000000000 ) ) ;
#213 = FACE_OUTER_BOUND ( 'NONE', #111, .T. ) ;
#214 = ORIENTED_EDGE ( 'NONE', *, *, #47, .F. ) ;
#215 = DIRECTION ( 'NONE',  ( 0.000000000000000000, 0.000000000000000000, 1.000000000000000000 ) ) ;
#216 = AXIS2_PLACEMENT_3D ( 'NONE', #112, #49, #5 ) ;
#217 = CARTESIAN_POINT ( 'NONE',  ( -4.000000000000000000, 0.000000000000000000, 3.000000000000000000 ) ) ;
#218 = DIRECTION ( 'NONE',  ( -1.000000000000000000, 0.000000000000000000, 0.000000000000000000 ) ) ;
#219 = PERSON_AND_ORGANIZATION_ROLE ( 'creator' ) ;
#220 = CARTESIAN_POINT ( 'NONE',  ( 2.000000000000000000, 2.449293598294706414E-16, 403.0000000000000000 ) ) ;
#221 = COORDINATED_UNIVERSAL_TIME_OFFSET ( 1, 0, .AHEAD. ) ;
#222 = EDGE_CURVE ( 'NONE', #202, #108, #148, .T. ) ;
#223 = CARTESIAN_POINT ( 'NONE',  ( 0.000000000000000000, 0.000000000000000000, 403.0000000000000000 ) ) ;
#224 = DIRECTION ( 'NONE',  ( 1.000000000000000000, 0.000000000000000000, 0.000000000000000000 ) ) ;
#225 = CIRCLE ( 'NONE', #203, 2.000000000000000000 ) ;
#226 = EDGE_CURVE ( 'NONE', #200, #64, #116, .T. ) ;
#227 = EDGE_CURVE ( 'NONE', #62, #108, #113, .T. ) ;
#228 = ORIENTED_EDGE ( 'NONE', *, *, #41, .T. ) ;
#229 = EDGE_CURVE ( 'NONE', #200, #129, #100, .T. ) ;
#230 = CARTESIAN_POINT ( 'NONE',  ( -2.000000000000000000, 0.000000000000000000, 3.000000000000000000 ) ) ;
#231 = CYLINDRICAL_SURFACE ( 'NONE', #2, 2.000000000000000000 ) ;
#232 = ORIENTED_EDGE ( 'NONE', *, *, #226, .T. ) ;
#233 = APPROVAL ( #11, 'NEURÈENÝ' ) ;
#234 = AXIS2_PLACEMENT_3D ( 'NONE', #66, #215, #27 ) ;
#235 = EDGE_LOOP ( 'NONE', ( #59, #162 ) ) ;
#236 = APPROVAL ( #191, 'NEURÈENÝ' ) ;
#237 = CIRCLE ( 'NONE', #84, 4.000000000000000000 ) ;
#238 = CYLINDRICAL_SURFACE ( 'NONE', #14, 2.000000000000000000 ) ;
#239 = MANIFOLD_SOLID_BREP ( 'Pøidat vysunutím3', #56 ) ;
#240 = VECTOR ( 'NONE', #147, 1000.000000000000000 ) ;
#241 = DIRECTION ( 'NONE',  ( -0.000000000000000000, -0.000000000000000000, -1.000000000000000000 ) ) ;
#242 = DIRECTION ( 'NONE',  ( -0.000000000000000000, -0.000000000000000000, -1.000000000000000000 ) ) ;
#243 = CC_DESIGN_PERSON_AND_ORGANIZATION_ASSIGNMENT ( #30, #85, ( #8 ) ) ;
#244 = COORDINATED_UNIVERSAL_TIME_OFFSET ( 1, 0, .AHEAD. ) ;
#245 = VECTOR ( 'NONE', #206, 1000.000000000000000 ) ;
#246 = CC_DESIGN_APPROVAL ( #67, ( #71 ) ) ;
#247 = PERSON_AND_ORGANIZATION ( #19, #115 ) ;
#248 = FACE_OUTER_BOUND ( 'NONE', #145, .T. ) ;
#249 = CARTESIAN_POINT ( 'NONE',  ( 4.000000000000000000, 4.898587196589412829E-16, 3.000000000000000000 ) ) ;
#250 = EDGE_CURVE ( 'NONE', #177, #202, #81, .T. ) ;
#251 = CARTESIAN_POINT ( 'NONE',  ( 4.000000000000000000, 4.898587196589412829E-16, 0.000000000000000000 ) ) ;
#252 = DIRECTION ( 'NONE',  ( -1.000000000000000000, 0.000000000000000000, 0.000000000000000000 ) ) ;
#253 = ORIENTED_EDGE ( 'NONE', *, *, #229, .T. ) ;
#254 = ORIENTED_EDGE ( 'NONE', *, *, #222, .F. ) ;
#255 = ORIENTED_EDGE ( 'NONE', *, *, #47, .T. ) ;
ENDSEC;
END-ISO-10303-21;
