ISO-10303-21;
HEADER;
FILE_DESCRIPTION (( 'STEP AP203' ),
    '1' );
FILE_NAME ('0b17.STEP',
    '2022-07-07T17:09:47',
    ( '' ),
    ( '' ),
    'SwSTEP 2.0',
    'SolidWorks 2019',
    '' );
FILE_SCHEMA (( 'CONFIG_CONTROL_DESIGN' ));
ENDSEC;

DATA;
#1 = CC_DESIGN_APPROVAL ( #34, ( #205 ) ) ;
#2 = DIRECTION ( 'NONE',  ( 1.000000000000000000, 0.000000000000000000, 0.000000000000000000 ) ) ;
#3 = PRODUCT_RELATED_PRODUCT_CATEGORY ( 'detail', '', ( #31 ) ) ;
#4 = CARTESIAN_POINT ( 'NONE',  ( 0.000000000000000000, 0.000000000000000000, 7.000000000000000000 ) ) ;
#5 = CIRCLE ( 'NONE', #203, 7.500000000000000000 ) ;
#6 = CARTESIAN_POINT ( 'NONE',  ( 0.000000000000000000, 0.000000000000000000, 7.000000000000000000 ) ) ;
#7 = ORGANIZATION ( 'NEURÈENÝ', 'NEURÈENÝ', '' ) ;
#8 = CARTESIAN_POINT ( 'NONE',  ( -11.00000000000000000, 0.000000000000000000, 0.000000000000000000 ) ) ;
#9 = ORIENTED_EDGE ( 'NONE', *, *, #170, .T. ) ;
#10 = APPROVAL ( #141, 'NEURÈENÝ' ) ;
#11 = CIRCLE ( 'NONE', #158, 7.500000000000000000 ) ;
#12 = DIRECTION ( 'NONE',  ( 0.000000000000000000, 0.000000000000000000, 1.000000000000000000 ) ) ;
#13 = CIRCLE ( 'NONE', #197, 11.00000000000000000 ) ;
#14 = CARTESIAN_POINT ( 'NONE',  ( 0.000000000000000000, 0.000000000000000000, 507.0000000000000000 ) ) ;
#15 = COORDINATED_UNIVERSAL_TIME_OFFSET ( 1, 0, .AHEAD. ) ;
#16 = FACE_BOUND ( 'NONE', #187, .T. ) ;
#17 = DATE_AND_TIME ( #42, #68 ) ;
#18 = VECTOR ( 'NONE', #83, 1000.000000000000000 ) ;
#19 = AXIS2_PLACEMENT_3D ( 'NONE', #127, #76, #148 ) ;
#20 = APPROVAL_ROLE ( '' ) ;
#21 = COORDINATED_UNIVERSAL_TIME_OFFSET ( 1, 0, .AHEAD. ) ;
#22 = COORDINATED_UNIVERSAL_TIME_OFFSET ( 1, 0, .AHEAD. ) ;
#23 = CLOSED_SHELL ( 'NONE', ( #216, #67, #74, #56, #166, #123, #255 ) ) ;
#24 = DATE_TIME_ROLE ( 'classification_date' ) ;
#25 = EDGE_CURVE ( 'NONE', #117, #121, #64, .T. ) ;
#26 = CARTESIAN_POINT ( 'NONE',  ( 0.000000000000000000, 0.000000000000000000, 507.0000000000000000 ) ) ;
#27 = CARTESIAN_POINT ( 'NONE',  ( 0.000000000000000000, 0.000000000000000000, 507.0000000000000000 ) ) ;
#28 = FACE_OUTER_BOUND ( 'NONE', #60, .T. ) ;
#29 = DIRECTION ( 'NONE',  ( 0.000000000000000000, 0.000000000000000000, 1.000000000000000000 ) ) ;
#30 = EDGE_CURVE ( 'NONE', #189, #214, #5, .T. ) ;
#31 = PRODUCT ( '0b17', '0b17', '', ( #138 ) ) ;
#32 = CYLINDRICAL_SURFACE ( 'NONE', #234, 11.00000000000000000 ) ;
#33 = ORIENTED_EDGE ( 'NONE', *, *, #250, .T. ) ;
#34 = APPROVAL ( #252, 'NEURÈENÝ' ) ;
#35 = CIRCLE ( 'NONE', #164, 11.00000000000000000 ) ;
#36 = ORIENTED_EDGE ( 'NONE', *, *, #30, .F. ) ;
#37 = PERSON_AND_ORGANIZATION ( #38, #7 ) ;
#38 = PERSON ( 'NEURÈENÝ', 'NEURÈENÝ', 'NEURÈENÝ', ('NEURÈENÝ'), ('NEURÈENÝ'), ('NEURÈENÝ') ) ;
#39 = DIRECTION ( 'NONE',  ( 1.000000000000000000, 0.000000000000000000, 0.000000000000000000 ) ) ;
#40 = APPROVAL_ROLE ( '' ) ;
#41 = MANIFOLD_SOLID_BREP ( 'Pøidat vysunutím3', #23 ) ;
#42 = CALENDAR_DATE ( 2022, 7, 7 ) ;
#43 = LOCAL_TIME ( 19, 9, 47.00000000000000000, #21 ) ;
#44 = EDGE_CURVE ( 'NONE', #172, #117, #55, .T. ) ;
#45 = APPROVAL_DATE_TIME ( #82, #34 ) ;
#46 = ORIENTED_EDGE ( 'NONE', *, *, #53, .F. ) ;
#47 = CIRCLE ( 'NONE', #180, 11.00000000000000000 ) ;
#48 = DIRECTION ( 'NONE',  ( 0.000000000000000000, 0.000000000000000000, 1.000000000000000000 ) ) ;
#49 = VECTOR ( 'NONE', #167, 1000.000000000000000 ) ;
#50 = CARTESIAN_POINT ( 'NONE',  ( -11.00000000000000000, 0.000000000000000000, 7.000000000000000000 ) ) ;
#51 = PLANE ( 'NONE',  #161 ) ;
#52 = DIRECTION ( 'NONE',  ( 0.000000000000000000, 0.000000000000000000, 1.000000000000000000 ) ) ;
#53 = EDGE_CURVE ( 'NONE', #189, #248, #57, .T. ) ;
#54 = EDGE_LOOP ( 'NONE', ( #102, #131 ) ) ;
#55 = LINE ( 'NONE', #228, #77 ) ;
#56 = ADVANCED_FACE ( 'NONE', ( #16, #207 ), #251, .T. ) ;
#57 = LINE ( 'NONE', #132, #18 ) ;
#58 = ORIENTED_EDGE ( 'NONE', *, *, #221, .F. ) ;
#59 = PERSON_AND_ORGANIZATION_ROLE ( 'creator' ) ;
#60 = EDGE_LOOP ( 'NONE', ( #246, #211, #206, #79 ) ) ;
#61 = ORIENTED_EDGE ( 'NONE', *, *, #237, .T. ) ;
#62 = EDGE_CURVE ( 'NONE', #214, #189, #91, .T. ) ;
#63 = COORDINATED_UNIVERSAL_TIME_OFFSET ( 1, 0, .AHEAD. ) ;
#64 = CIRCLE ( 'NONE', #196, 11.00000000000000000 ) ;
#65 = CIRCLE ( 'NONE', #19, 7.500000000000000000 ) ;
#66 = PERSON_AND_ORGANIZATION ( #38, #7 ) ;
#67 = ADVANCED_FACE ( 'NONE', ( #249 ), #32, .T. ) ;
#68 = LOCAL_TIME ( 19, 9, 47.00000000000000000, #63 ) ;
#69 = CARTESIAN_POINT ( 'NONE',  ( -7.500000000000000000, 0.000000000000000000, 7.000000000000000000 ) ) ;
#70 = APPLICATION_CONTEXT ( 'configuration controlled 3d designs of mechanical parts and assemblies' ) ;
#71 = DIRECTION ( 'NONE',  ( -0.000000000000000000, -0.000000000000000000, -1.000000000000000000 ) ) ;
#72 = VECTOR ( 'NONE', #71, 1000.000000000000000 ) ;
#73 = CYLINDRICAL_SURFACE ( 'NONE', #96, 7.500000000000000000 ) ;
#74 = ADVANCED_FACE ( 'NONE', ( #28 ), #202, .T. ) ;
#75 = PLANE ( 'NONE',  #254 ) ;
#76 = DIRECTION ( 'NONE',  ( 0.000000000000000000, 0.000000000000000000, 1.000000000000000000 ) ) ;
#77 = VECTOR ( 'NONE', #137, 1000.000000000000000 ) ;
#78 = CARTESIAN_POINT ( 'NONE',  ( 0.000000000000000000, 0.000000000000000000, 0.000000000000000000 ) ) ;
#79 = ORIENTED_EDGE ( 'NONE', *, *, #212, .T. ) ;
#80 = PRODUCT_DEFINITION_SHAPE ( 'NONE', 'NONE',  #126 ) ;
#81 = DIRECTION ( 'NONE',  ( -0.000000000000000000, -0.000000000000000000, -1.000000000000000000 ) ) ;
#82 = DATE_AND_TIME ( #107, #125 ) ;
#83 = DIRECTION ( 'NONE',  ( -0.000000000000000000, -0.000000000000000000, -1.000000000000000000 ) ) ;
#84 = LOCAL_TIME ( 19, 9, 47.00000000000000000, #15 ) ;
#85 = PERSON_AND_ORGANIZATION ( #38, #7 ) ;
#86 = UNCERTAINTY_MEASURE_WITH_UNIT (LENGTH_MEASURE( 1.000000000000000082E-05 ), #89, 'distance_accuracy_value', 'NONE');
#87 = APPROVAL_STATUS ( 'not_yet_approved' ) ;
#88 = ORIENTED_EDGE ( 'NONE', *, *, #53, .T. ) ;
#89 =( LENGTH_UNIT ( ) NAMED_UNIT ( * ) SI_UNIT ( .MILLI., .METRE. ) );
#90 = CALENDAR_DATE ( 2022, 7, 7 ) ;
#91 = CIRCLE ( 'NONE', #111, 7.500000000000000000 ) ;
#92 = CC_DESIGN_PERSON_AND_ORGANIZATION_ASSIGNMENT ( #139, #59, ( #126 ) ) ;
#93 = APPROVAL_ROLE ( '' ) ;
#94 = CARTESIAN_POINT ( 'NONE',  ( 7.500000000000000000, 9.184850993605147944E-16, 507.0000000000000000 ) ) ;
#95 = DIRECTION ( 'NONE',  ( 0.000000000000000000, 0.000000000000000000, 1.000000000000000000 ) ) ;
#96 = AXIS2_PLACEMENT_3D ( 'NONE', #26, #183, #162 ) ;
#97 = DIRECTION ( 'NONE',  ( 1.000000000000000000, 0.000000000000000000, 0.000000000000000000 ) ) ;
#98 = FACE_OUTER_BOUND ( 'NONE', #218, .T. ) ;
#99 = ORIENTED_EDGE ( 'NONE', *, *, #106, .T. ) ;
#100 = ORIENTED_EDGE ( 'NONE', *, *, #30, .T. ) ;
#101 = CARTESIAN_POINT ( 'NONE',  ( 0.000000000000000000, 0.000000000000000000, 7.000000000000000000 ) ) ;
#102 = ORIENTED_EDGE ( 'NONE', *, *, #212, .F. ) ;
#103 = CALENDAR_DATE ( 2022, 7, 7 ) ;
#104 = EDGE_CURVE ( 'NONE', #142, #121, #113, .T. ) ;
#105 = DIRECTION ( 'NONE',  ( 0.000000000000000000, 0.000000000000000000, 1.000000000000000000 ) ) ;
#106 = EDGE_CURVE ( 'NONE', #217, #248, #11, .T. ) ;
#107 = CALENDAR_DATE ( 2022, 7, 7 ) ;
#108 =( GEOMETRIC_REPRESENTATION_CONTEXT ( 3 ) GLOBAL_UNCERTAINTY_ASSIGNED_CONTEXT ( ( #86 ) ) GLOBAL_UNIT_ASSIGNED_CONTEXT ( ( #89, #213, #157 ) ) REPRESENTATION_CONTEXT ( 'NONE', 'WORKASPACE' ) );
#109 = APPROVAL_DATE_TIME ( #160, #10 ) ;
#110 = CC_DESIGN_DATE_AND_TIME_ASSIGNMENT ( #175, #24, ( #149 ) ) ;
#111 = AXIS2_PLACEMENT_3D ( 'NONE', #14, #210, #39 ) ;
#112 = CARTESIAN_POINT ( 'NONE',  ( -7.500000000000000000, 0.000000000000000000, 507.0000000000000000 ) ) ;
#113 = LINE ( 'NONE', #50, #49 ) ;
#114 = CARTESIAN_POINT ( 'NONE',  ( -11.00000000000000000, 0.000000000000000000, 7.000000000000000000 ) ) ;
#115 = CC_DESIGN_SECURITY_CLASSIFICATION ( #149, ( #205 ) ) ;
#116 = FACE_OUTER_BOUND ( 'NONE', #188, .T. ) ;
#117 = VERTEX_POINT ( 'NONE', #165 ) ;
#118 = ORIENTED_EDGE ( 'NONE', *, *, #62, .F. ) ;
#119 = ORIENTED_EDGE ( 'NONE', *, *, #106, .F. ) ;
#120 = AXIS2_PLACEMENT_3D ( 'NONE', #163, #219, #200 ) ;
#121 = VERTEX_POINT ( 'NONE', #8 ) ;
#122 = ORIENTED_EDGE ( 'NONE', *, *, #250, .F. ) ;
#123 = ADVANCED_FACE ( 'NONE', ( #98 ), #201, .T. ) ;
#124 = PERSON_AND_ORGANIZATION_ROLE ( 'design_owner' ) ;
#125 = LOCAL_TIME ( 19, 9, 47.00000000000000000, #22 ) ;
#126 = PRODUCT_DEFINITION ( 'NEZNÁMÝ', '', #205, #156 ) ;
#127 = CARTESIAN_POINT ( 'NONE',  ( 0.000000000000000000, 0.000000000000000000, 7.000000000000000000 ) ) ;
#128 = APPROVAL ( #87, 'NEURÈENÝ' ) ;
#129 = CARTESIAN_POINT ( 'NONE',  ( 0.000000000000000000, 0.000000000000000000, 7.000000000000000000 ) ) ;
#130 = FACE_OUTER_BOUND ( 'NONE', #54, .T. ) ;
#131 = ORIENTED_EDGE ( 'NONE', *, *, #25, .F. ) ;
#132 = CARTESIAN_POINT ( 'NONE',  ( -7.500000000000000000, 0.000000000000000000, 507.0000000000000000 ) ) ;
#133 = DIRECTION ( 'NONE',  ( 0.000000000000000000, 0.000000000000000000, 1.000000000000000000 ) ) ;
#134 = EDGE_LOOP ( 'NONE', ( #100, #168 ) ) ;
#135 = CC_DESIGN_PERSON_AND_ORGANIZATION_ASSIGNMENT ( #140, #136, ( #205 ) ) ;
#136 = PERSON_AND_ORGANIZATION_ROLE ( 'creator' ) ;
#137 = DIRECTION ( 'NONE',  ( -0.000000000000000000, -0.000000000000000000, -1.000000000000000000 ) ) ;
#138 = MECHANICAL_CONTEXT ( 'NONE', #70, 'mechanical' ) ;
#139 = PERSON_AND_ORGANIZATION ( #38, #7 ) ;
#140 = PERSON_AND_ORGANIZATION ( #38, #7 ) ;
#141 = APPROVAL_STATUS ( 'not_yet_approved' ) ;
#142 = VERTEX_POINT ( 'NONE', #114 ) ;
#143 = APPROVAL_PERSON_ORGANIZATION ( #159, #10, #93 ) ;
#144 = LINE ( 'NONE', #239, #72 ) ;
#145 = DIRECTION ( 'NONE',  ( -0.000000000000000000, -0.000000000000000000, -1.000000000000000000 ) ) ;
#146 = DIRECTION ( 'NONE',  ( 0.000000000000000000, 0.000000000000000000, 1.000000000000000000 ) ) ;
#147 = CARTESIAN_POINT ( 'NONE',  ( 0.000000000000000000, 0.000000000000000000, 0.000000000000000000 ) ) ;
#148 = DIRECTION ( 'NONE',  ( 1.000000000000000000, 0.000000000000000000, 0.000000000000000000 ) ) ;
#149 = SECURITY_CLASSIFICATION ( '', '', #179 ) ;
#150 = DIRECTION ( 'NONE',  ( 0.000000000000000000, 0.000000000000000000, 1.000000000000000000 ) ) ;
#151 = ORIENTED_EDGE ( 'NONE', *, *, #44, .T. ) ;
#152 = DIRECTION ( 'NONE',  ( 1.000000000000000000, 0.000000000000000000, -0.000000000000000000 ) ) ;
#153 = DATE_TIME_ROLE ( 'creation_date' ) ;
#154 = CARTESIAN_POINT ( 'NONE',  ( 0.000000000000000000, 0.000000000000000000, 7.000000000000000000 ) ) ;
#155 = PERSON_AND_ORGANIZATION ( #38, #7 ) ;
#156 = DESIGN_CONTEXT ( 'detailed design', #171, 'design' ) ;
#157 =( NAMED_UNIT ( * ) SI_UNIT ( $, .STERADIAN. ) SOLID_ANGLE_UNIT ( ) );
#158 = AXIS2_PLACEMENT_3D ( 'NONE', #4, #95, #97 ) ;
#159 = PERSON_AND_ORGANIZATION ( #38, #7 ) ;
#160 = DATE_AND_TIME ( #90, #43 ) ;
#161 = AXIS2_PLACEMENT_3D ( 'NONE', #27, #146, #222 ) ;
#162 = DIRECTION ( 'NONE',  ( -1.000000000000000000, 0.000000000000000000, 0.000000000000000000 ) ) ;
#163 = CARTESIAN_POINT ( 'NONE',  ( 0.000000000000000000, 0.000000000000000000, 507.0000000000000000 ) ) ;
#164 = AXIS2_PLACEMENT_3D ( 'NONE', #129, #52, #240 ) ;
#165 = CARTESIAN_POINT ( 'NONE',  ( 11.00000000000000000, 1.347111479062088405E-15, 0.000000000000000000 ) ) ;
#166 = ADVANCED_FACE ( 'NONE', ( #130 ), #75, .F. ) ;
#167 = DIRECTION ( 'NONE',  ( -0.000000000000000000, -0.000000000000000000, -1.000000000000000000 ) ) ;
#168 = ORIENTED_EDGE ( 'NONE', *, *, #62, .T. ) ;
#169 = DIRECTION ( 'NONE',  ( 1.000000000000000000, 0.000000000000000000, 0.000000000000000000 ) ) ;
#170 = EDGE_CURVE ( 'NONE', #172, #142, #35, .T. ) ;
#171 = APPLICATION_CONTEXT ( 'configuration controlled 3d designs of mechanical parts and assemblies' ) ;
#172 = VERTEX_POINT ( 'NONE', #245 ) ;
#173 = PERSON_AND_ORGANIZATION_ROLE ( 'classification_officer' ) ;
#174 = ORIENTED_EDGE ( 'NONE', *, *, #25, .T. ) ;
#175 = DATE_AND_TIME ( #103, #181 ) ;
#176 = CC_DESIGN_APPROVAL ( #128, ( #126 ) ) ;
#177 = CC_DESIGN_PERSON_AND_ORGANIZATION_ASSIGNMENT ( #155, #124, ( #31 ) ) ;
#178 = APPLICATION_PROTOCOL_DEFINITION ( 'international standard', 'config_control_design', 1994, #171 ) ;
#179 = SECURITY_CLASSIFICATION_LEVEL ( 'unclassified' ) ;
#180 = AXIS2_PLACEMENT_3D ( 'NONE', #204, #29, #2 ) ;
#181 = LOCAL_TIME ( 19, 9, 47.00000000000000000, #191 ) ;
#182 = DIRECTION ( 'NONE',  ( 0.000000000000000000, 0.000000000000000000, 1.000000000000000000 ) ) ;
#183 = DIRECTION ( 'NONE',  ( -0.000000000000000000, -0.000000000000000000, -1.000000000000000000 ) ) ;
#184 = DIRECTION ( 'NONE',  ( -1.000000000000000000, 0.000000000000000000, 0.000000000000000000 ) ) ;
#185 = APPROVAL_PERSON_ORGANIZATION ( #85, #128, #40 ) ;
#186 = CARTESIAN_POINT ( 'NONE',  ( 7.500000000000000000, 9.184850993605147944E-16, 7.000000000000000000 ) ) ;
#187 = EDGE_LOOP ( 'NONE', ( #58, #119 ) ) ;
#188 = EDGE_LOOP ( 'NONE', ( #118, #33, #99, #46 ) ) ;
#189 = VERTEX_POINT ( 'NONE', #112 ) ;
#190 = ORIENTED_EDGE ( 'NONE', *, *, #221, .T. ) ;
#191 = COORDINATED_UNIVERSAL_TIME_OFFSET ( 1, 0, .AHEAD. ) ;
#192 = PERSON_AND_ORGANIZATION ( #38, #7 ) ;
#193 = CC_DESIGN_DATE_AND_TIME_ASSIGNMENT ( #17, #153, ( #126 ) ) ;
#194 = CARTESIAN_POINT ( 'NONE',  ( 0.000000000000000000, 0.000000000000000000, 0.000000000000000000 ) ) ;
#195 = DATE_AND_TIME ( #233, #84 ) ;
#196 = AXIS2_PLACEMENT_3D ( 'NONE', #78, #150, #231 ) ;
#197 = AXIS2_PLACEMENT_3D ( 'NONE', #225, #182, #238 ) ;
#198 = EDGE_LOOP ( 'NONE', ( #61, #9 ) ) ;
#199 = AXIS2_PLACEMENT_3D ( 'NONE', #154, #133, #152 ) ;
#200 = DIRECTION ( 'NONE',  ( -1.000000000000000000, 0.000000000000000000, 0.000000000000000000 ) ) ;
#201 = CYLINDRICAL_SURFACE ( 'NONE', #120, 7.500000000000000000 ) ;
#202 = CYLINDRICAL_SURFACE ( 'NONE', #224, 11.00000000000000000 ) ;
#203 = AXIS2_PLACEMENT_3D ( 'NONE', #209, #12, #169 ) ;
#204 = CARTESIAN_POINT ( 'NONE',  ( 0.000000000000000000, 0.000000000000000000, 0.000000000000000000 ) ) ;
#205 = PRODUCT_DEFINITION_FORMATION_WITH_SPECIFIED_SOURCE ( 'LIBOVOLNÝ', '', #31, .NOT_KNOWN. ) ;
#206 = ORIENTED_EDGE ( 'NONE', *, *, #104, .T. ) ;
#207 = FACE_OUTER_BOUND ( 'NONE', #198, .T. ) ;
#208 = ORIENTED_EDGE ( 'NONE', *, *, #104, .F. ) ;
#209 = CARTESIAN_POINT ( 'NONE',  ( 0.000000000000000000, 0.000000000000000000, 507.0000000000000000 ) ) ;
#210 = DIRECTION ( 'NONE',  ( 0.000000000000000000, 0.000000000000000000, 1.000000000000000000 ) ) ;
#211 = ORIENTED_EDGE ( 'NONE', *, *, #237, .F. ) ;
#212 = EDGE_CURVE ( 'NONE', #121, #117, #47, .T. ) ;
#213 =( NAMED_UNIT ( * ) PLANE_ANGLE_UNIT ( ) SI_UNIT ( $, .RADIAN. ) );
#214 = VERTEX_POINT ( 'NONE', #94 ) ;
#215 = PERSON_AND_ORGANIZATION_ROLE ( 'design_supplier' ) ;
#216 = ADVANCED_FACE ( 'NONE', ( #116 ), #73, .T. ) ;
#217 = VERTEX_POINT ( 'NONE', #186 ) ;
#218 = EDGE_LOOP ( 'NONE', ( #122, #36, #88, #190 ) ) ;
#219 = DIRECTION ( 'NONE',  ( -0.000000000000000000, -0.000000000000000000, -1.000000000000000000 ) ) ;
#220 = FACE_OUTER_BOUND ( 'NONE', #134, .T. ) ;
#221 = EDGE_CURVE ( 'NONE', #248, #217, #65, .T. ) ;
#222 = DIRECTION ( 'NONE',  ( 1.000000000000000000, 0.000000000000000000, -0.000000000000000000 ) ) ;
#223 = DIRECTION ( 'NONE',  ( 1.000000000000000000, 0.000000000000000000, -0.000000000000000000 ) ) ;
#224 = AXIS2_PLACEMENT_3D ( 'NONE', #6, #145, #244 ) ;
#225 = CARTESIAN_POINT ( 'NONE',  ( 0.000000000000000000, 0.000000000000000000, 7.000000000000000000 ) ) ;
#226 = APPROVAL_PERSON_ORGANIZATION ( #66, #34, #20 ) ;
#227 = EDGE_LOOP ( 'NONE', ( #229, #151, #174, #208 ) ) ;
#228 = CARTESIAN_POINT ( 'NONE',  ( 11.00000000000000000, 1.347111479062088405E-15, 7.000000000000000000 ) ) ;
#229 = ORIENTED_EDGE ( 'NONE', *, *, #170, .F. ) ;
#230 = APPLICATION_PROTOCOL_DEFINITION ( 'international standard', 'config_control_design', 1994, #70 ) ;
#231 = DIRECTION ( 'NONE',  ( 1.000000000000000000, 0.000000000000000000, 0.000000000000000000 ) ) ;
#232 = CC_DESIGN_PERSON_AND_ORGANIZATION_ASSIGNMENT ( #192, #215, ( #205 ) ) ;
#233 = CALENDAR_DATE ( 2022, 7, 7 ) ;
#234 = AXIS2_PLACEMENT_3D ( 'NONE', #101, #81, #184 ) ;
#235 = DIRECTION ( 'NONE',  ( 1.000000000000000000, 0.000000000000000000, 0.000000000000000000 ) ) ;
#236 = SHAPE_DEFINITION_REPRESENTATION ( #80, #243 ) ;
#237 = EDGE_CURVE ( 'NONE', #142, #172, #13, .T. ) ;
#238 = DIRECTION ( 'NONE',  ( 1.000000000000000000, 0.000000000000000000, 0.000000000000000000 ) ) ;
#239 = CARTESIAN_POINT ( 'NONE',  ( 7.500000000000000000, 9.184850993605147944E-16, 507.0000000000000000 ) ) ;
#240 = DIRECTION ( 'NONE',  ( 1.000000000000000000, 0.000000000000000000, 0.000000000000000000 ) ) ;
#241 = AXIS2_PLACEMENT_3D ( 'NONE', #194, #105, #235 ) ;
#242 = CC_DESIGN_APPROVAL ( #10, ( #149 ) ) ;
#243 = ADVANCED_BREP_SHAPE_REPRESENTATION ( '0b17', ( #41, #241 ), #108 ) ;
#244 = DIRECTION ( 'NONE',  ( -1.000000000000000000, 0.000000000000000000, 0.000000000000000000 ) ) ;
#245 = CARTESIAN_POINT ( 'NONE',  ( 11.00000000000000000, 1.347111479062088405E-15, 7.000000000000000000 ) ) ;
#246 = ORIENTED_EDGE ( 'NONE', *, *, #44, .F. ) ;
#247 = CC_DESIGN_PERSON_AND_ORGANIZATION_ASSIGNMENT ( #37, #173, ( #149 ) ) ;
#248 = VERTEX_POINT ( 'NONE', #69 ) ;
#249 = FACE_OUTER_BOUND ( 'NONE', #227, .T. ) ;
#250 = EDGE_CURVE ( 'NONE', #214, #217, #144, .T. ) ;
#251 = PLANE ( 'NONE',  #199 ) ;
#252 = APPROVAL_STATUS ( 'not_yet_approved' ) ;
#253 = APPROVAL_DATE_TIME ( #195, #128 ) ;
#254 = AXIS2_PLACEMENT_3D ( 'NONE', #147, #48, #223 ) ;
#255 = ADVANCED_FACE ( 'NONE', ( #220 ), #51, .T. ) ;
ENDSEC;
END-ISO-10303-21;
