ISO-10303-21;
HEADER;
FILE_DESCRIPTION (( 'STEP AP203' ),
    '1' );
FILE_NAME ('6043.STEP',
    '2022-07-07T17:12:33',
    ( '' ),
    ( '' ),
    'SwSTEP 2.0',
    'SolidWorks 2019',
    '' );
FILE_SCHEMA (( 'CONFIG_CONTROL_DESIGN' ));
ENDSEC;

DATA;
#1 = PERSON_AND_ORGANIZATION ( #242, #109 ) ;
#2 = ORIENTED_EDGE ( 'NONE', *, *, #55, .T. ) ;
#3 = ORIENTED_EDGE ( 'NONE', *, *, #158, .F. ) ;
#4 = CC_DESIGN_PERSON_AND_ORGANIZATION_ASSIGNMENT ( #138, #220, ( #14 ) ) ;
#5 = VERTEX_POINT ( 'NONE', #112 ) ;
#6 = ORIENTED_EDGE ( 'NONE', *, *, #208, .T. ) ;
#7 = ADVANCED_FACE ( 'NONE', ( #93 ), #171, .T. ) ;
#8 = EDGE_LOOP ( 'NONE', ( #28, #3 ) ) ;
#9 = DIRECTION ( 'NONE',  ( -0.000000000000000000, -0.000000000000000000, -1.000000000000000000 ) ) ;
#10 = CARTESIAN_POINT ( 'NONE',  ( 0.000000000000000000, 0.000000000000000000, 7.000000000000000000 ) ) ;
#11 = AXIS2_PLACEMENT_3D ( 'NONE', #181, #183, #221 ) ;
#12 = DIRECTION ( 'NONE',  ( 0.000000000000000000, 0.000000000000000000, 1.000000000000000000 ) ) ;
#13 = DIRECTION ( 'NONE',  ( -1.000000000000000000, 0.000000000000000000, 0.000000000000000000 ) ) ;
#14 = PRODUCT ( '6043', '6043', '', ( #41 ) ) ;
#15 = CARTESIAN_POINT ( 'NONE',  ( 0.000000000000000000, 0.000000000000000000, 7.000000000000000000 ) ) ;
#16 = APPROVAL_DATE_TIME ( #61, #90 ) ;
#17 = APPLICATION_CONTEXT ( 'configuration controlled 3d designs of mechanical parts and assemblies' ) ;
#18 = PERSON_AND_ORGANIZATION ( #242, #109 ) ;
#19 = SHAPE_DEFINITION_REPRESENTATION ( #40, #98 ) ;
#20 = DIRECTION ( 'NONE',  ( 0.000000000000000000, 0.000000000000000000, 1.000000000000000000 ) ) ;
#21 = CIRCLE ( 'NONE', #255, 7.250000000000000000 ) ;
#22 = APPROVAL_STATUS ( 'not_yet_approved' ) ;
#23 = ADVANCED_FACE ( 'NONE', ( #67 ), #206, .T. ) ;
#24 =( NAMED_UNIT ( * ) SI_UNIT ( $, .STERADIAN. ) SOLID_ANGLE_UNIT ( ) );
#25 = CARTESIAN_POINT ( 'NONE',  ( 0.000000000000000000, 0.000000000000000000, 7.000000000000000000 ) ) ;
#26 = ADVANCED_FACE ( 'NONE', ( #176, #174 ), #215, .T. ) ;
#27 = VERTEX_POINT ( 'NONE', #172 ) ;
#28 = ORIENTED_EDGE ( 'NONE', *, *, #187, .F. ) ;
#29 = PRODUCT_DEFINITION ( 'NEZNÁMÝ', '', #136, #114 ) ;
#30 = VERTEX_POINT ( 'NONE', #251 ) ;
#31 = LINE ( 'NONE', #173, #238 ) ;
#32 = CARTESIAN_POINT ( 'NONE',  ( 0.000000000000000000, 0.000000000000000000, 167.0000000000000000 ) ) ;
#33 = LOCAL_TIME ( 19, 12, 33.00000000000000000, #63 ) ;
#34 = CARTESIAN_POINT ( 'NONE',  ( -11.00000000000000000, 0.000000000000000000, 0.000000000000000000 ) ) ;
#35 = PERSON_AND_ORGANIZATION_ROLE ( 'design_supplier' ) ;
#36 = CC_DESIGN_PERSON_AND_ORGANIZATION_ASSIGNMENT ( #43, #203, ( #29 ) ) ;
#37 = CALENDAR_DATE ( 2022, 7, 7 ) ;
#38 = DATE_AND_TIME ( #58, #33 ) ;
#39 = CARTESIAN_POINT ( 'NONE',  ( 0.000000000000000000, 0.000000000000000000, 167.0000000000000000 ) ) ;
#40 = PRODUCT_DEFINITION_SHAPE ( 'NONE', 'NONE',  #29 ) ;
#41 = MECHANICAL_CONTEXT ( 'NONE', #17, 'mechanical' ) ;
#42 = MANIFOLD_SOLID_BREP ( 'Pøidat vysunutím3', #80 ) ;
#43 = PERSON_AND_ORGANIZATION ( #242, #109 ) ;
#44 = AXIS2_PLACEMENT_3D ( 'NONE', #10, #12, #75 ) ;
#45 = CIRCLE ( 'NONE', #59, 7.250000000000000000 ) ;
#46 = EDGE_LOOP ( 'NONE', ( #245, #126, #209, #186 ) ) ;
#47 = ORIENTED_EDGE ( 'NONE', *, *, #168, .F. ) ;
#48 = EDGE_LOOP ( 'NONE', ( #225, #2 ) ) ;
#49 = UNCERTAINTY_MEASURE_WITH_UNIT (LENGTH_MEASURE( 1.000000000000000082E-05 ), #142, 'distance_accuracy_value', 'NONE');
#50 = EDGE_LOOP ( 'NONE', ( #88, #145 ) ) ;
#51 = CC_DESIGN_APPROVAL ( #90, ( #136 ) ) ;
#52 = CARTESIAN_POINT ( 'NONE',  ( 0.000000000000000000, 0.000000000000000000, 0.000000000000000000 ) ) ;
#53 = CARTESIAN_POINT ( 'NONE',  ( -7.250000000000000000, 0.000000000000000000, 7.000000000000000000 ) ) ;
#54 = CIRCLE ( 'NONE', #199, 11.00000000000000000 ) ;
#55 = EDGE_CURVE ( 'NONE', #144, #185, #232, .T. ) ;
#56 = CARTESIAN_POINT ( 'NONE',  ( -11.00000000000000000, 0.000000000000000000, 7.000000000000000000 ) ) ;
#57 = CARTESIAN_POINT ( 'NONE',  ( 0.000000000000000000, 0.000000000000000000, 167.0000000000000000 ) ) ;
#58 = CALENDAR_DATE ( 2022, 7, 7 ) ;
#59 = AXIS2_PLACEMENT_3D ( 'NONE', #39, #141, #64 ) ;
#60 = APPLICATION_PROTOCOL_DEFINITION ( 'international standard', 'config_control_design', 1994, #17 ) ;
#61 = DATE_AND_TIME ( #157, #204 ) ;
#62 = CARTESIAN_POINT ( 'NONE',  ( -11.00000000000000000, 0.000000000000000000, 7.000000000000000000 ) ) ;
#63 = COORDINATED_UNIVERSAL_TIME_OFFSET ( 1, 0, .AHEAD. ) ;
#64 = DIRECTION ( 'NONE',  ( 1.000000000000000000, 0.000000000000000000, 0.000000000000000000 ) ) ;
#65 = APPROVAL_DATE_TIME ( #159, #135 ) ;
#66 = ADVANCED_FACE ( 'NONE', ( #76 ), #119, .T. ) ;
#67 = FACE_OUTER_BOUND ( 'NONE', #46, .T. ) ;
#68 = CC_DESIGN_APPROVAL ( #101, ( #243 ) ) ;
#69 = DIRECTION ( 'NONE',  ( -0.000000000000000000, -0.000000000000000000, -1.000000000000000000 ) ) ;
#70 = CC_DESIGN_APPROVAL ( #135, ( #29 ) ) ;
#71 = PRODUCT_RELATED_PRODUCT_CATEGORY ( 'detail', '', ( #14 ) ) ;
#72 = ORIENTED_EDGE ( 'NONE', *, *, #216, .T. ) ;
#73 = EDGE_LOOP ( 'NONE', ( #224, #125, #72, #244 ) ) ;
#74 = CARTESIAN_POINT ( 'NONE',  ( 11.00000000000000000, 1.347111479062088405E-15, 7.000000000000000000 ) ) ;
#75 = DIRECTION ( 'NONE',  ( 1.000000000000000000, 0.000000000000000000, -0.000000000000000000 ) ) ;
#76 = FACE_OUTER_BOUND ( 'NONE', #188, .T. ) ;
#77 = VECTOR ( 'NONE', #230, 1000.000000000000000 ) ;
#78 = DIRECTION ( 'NONE',  ( 0.000000000000000000, 0.000000000000000000, 1.000000000000000000 ) ) ;
#79 = CC_DESIGN_PERSON_AND_ORGANIZATION_ASSIGNMENT ( #139, #219, ( #136 ) ) ;
#80 = CLOSED_SHELL ( 'NONE', ( #182, #23, #66, #26, #143, #7, #247 ) ) ;
#81 = LINE ( 'NONE', #156, #96 ) ;
#82 = APPROVAL_PERSON_ORGANIZATION ( #134, #101, #198 ) ;
#83 = COORDINATED_UNIVERSAL_TIME_OFFSET ( 1, 0, .AHEAD. ) ;
#84 = DIRECTION ( 'NONE',  ( 1.000000000000000000, 0.000000000000000000, 0.000000000000000000 ) ) ;
#85 = APPROVAL_ROLE ( '' ) ;
#86 = CALENDAR_DATE ( 2022, 7, 7 ) ;
#87 = APPROVAL_ROLE ( '' ) ;
#88 = ORIENTED_EDGE ( 'NONE', *, *, #184, .F. ) ;
#89 = EDGE_LOOP ( 'NONE', ( #6, #207 ) ) ;
#90 = APPROVAL ( #155, 'NEURÈENÝ' ) ;
#91 = ORIENTED_EDGE ( 'NONE', *, *, #216, .F. ) ;
#92 = VERTEX_POINT ( 'NONE', #97 ) ;
#93 = FACE_OUTER_BOUND ( 'NONE', #73, .T. ) ;
#94 = DIRECTION ( 'NONE',  ( 1.000000000000000000, 0.000000000000000000, 0.000000000000000000 ) ) ;
#95 = CARTESIAN_POINT ( 'NONE',  ( 0.000000000000000000, 0.000000000000000000, 0.000000000000000000 ) ) ;
#96 = VECTOR ( 'NONE', #110, 1000.000000000000000 ) ;
#97 = CARTESIAN_POINT ( 'NONE',  ( 11.00000000000000000, 1.347111479062088405E-15, 0.000000000000000000 ) ) ;
#98 = ADVANCED_BREP_SHAPE_REPRESENTATION ( '6043', ( #42, #234 ), #227 ) ;
#99 = PLANE ( 'NONE',  #162 ) ;
#100 = AXIS2_PLACEMENT_3D ( 'NONE', #102, #151, #117 ) ;
#101 = APPROVAL ( #235, 'NEURÈENÝ' ) ;
#102 = CARTESIAN_POINT ( 'NONE',  ( 0.000000000000000000, 0.000000000000000000, 7.000000000000000000 ) ) ;
#103 = SECURITY_CLASSIFICATION_LEVEL ( 'unclassified' ) ;
#104 = AXIS2_PLACEMENT_3D ( 'NONE', #15, #9, #13 ) ;
#105 = CARTESIAN_POINT ( 'NONE',  ( 0.000000000000000000, 0.000000000000000000, 7.000000000000000000 ) ) ;
#106 = AXIS2_PLACEMENT_3D ( 'NONE', #128, #213, #193 ) ;
#107 = FACE_OUTER_BOUND ( 'NONE', #89, .T. ) ;
#108 = CC_DESIGN_SECURITY_CLASSIFICATION ( #243, ( #136 ) ) ;
#109 = ORGANIZATION ( 'NEURÈENÝ', 'NEURÈENÝ', '' ) ;
#110 = DIRECTION ( 'NONE',  ( -0.000000000000000000, -0.000000000000000000, -1.000000000000000000 ) ) ;
#111 = DIRECTION ( 'NONE',  ( -0.000000000000000000, -0.000000000000000000, -1.000000000000000000 ) ) ;
#112 = CARTESIAN_POINT ( 'NONE',  ( 7.250000000000000000, 8.878689293818310074E-16, 7.000000000000000000 ) ) ;
#113 = DIRECTION ( 'NONE',  ( 1.000000000000000000, 0.000000000000000000, 0.000000000000000000 ) ) ;
#114 = DESIGN_CONTEXT ( 'detailed design', #132, 'design' ) ;
#115 = AXIS2_PLACEMENT_3D ( 'NONE', #105, #20, #84 ) ;
#116 = CYLINDRICAL_SURFACE ( 'NONE', #147, 7.250000000000000000 ) ;
#117 = DIRECTION ( 'NONE',  ( 1.000000000000000000, 0.000000000000000000, 0.000000000000000000 ) ) ;
#118 = EDGE_CURVE ( 'NONE', #30, #5, #211, .T. ) ;
#119 = CYLINDRICAL_SURFACE ( 'NONE', #104, 11.00000000000000000 ) ;
#120 = DATE_AND_TIME ( #37, #154 ) ;
#121 = PERSON_AND_ORGANIZATION ( #242, #109 ) ;
#122 = APPLICATION_PROTOCOL_DEFINITION ( 'international standard', 'config_control_design', 1994, #132 ) ;
#123 = DIRECTION ( 'NONE',  ( 0.000000000000000000, 0.000000000000000000, 1.000000000000000000 ) ) ;
#124 = VERTEX_POINT ( 'NONE', #34 ) ;
#125 = ORIENTED_EDGE ( 'NONE', *, *, #208, .F. ) ;
#126 = ORIENTED_EDGE ( 'NONE', *, *, #168, .T. ) ;
#127 = DIRECTION ( 'NONE',  ( 0.000000000000000000, 0.000000000000000000, 1.000000000000000000 ) ) ;
#128 = CARTESIAN_POINT ( 'NONE',  ( 0.000000000000000000, 0.000000000000000000, 0.000000000000000000 ) ) ;
#129 = CC_DESIGN_DATE_AND_TIME_ASSIGNMENT ( #120, #197, ( #29 ) ) ;
#130 = DIRECTION ( 'NONE',  ( 1.000000000000000000, 0.000000000000000000, 0.000000000000000000 ) ) ;
#131 = CIRCLE ( 'NONE', #115, 7.250000000000000000 ) ;
#132 = APPLICATION_CONTEXT ( 'configuration controlled 3d designs of mechanical parts and assemblies' ) ;
#133 = DIRECTION ( 'NONE',  ( -0.000000000000000000, -0.000000000000000000, -1.000000000000000000 ) ) ;
#134 = PERSON_AND_ORGANIZATION ( #242, #109 ) ;
#135 = APPROVAL ( #22, 'NEURÈENÝ' ) ;
#136 = PRODUCT_DEFINITION_FORMATION_WITH_SPECIFIED_SOURCE ( 'LIBOVOLNÝ', '', #14, .NOT_KNOWN. ) ;
#137 = COORDINATED_UNIVERSAL_TIME_OFFSET ( 1, 0, .AHEAD. ) ;
#138 = PERSON_AND_ORGANIZATION ( #242, #109 ) ;
#139 = PERSON_AND_ORGANIZATION ( #242, #109 ) ;
#140 = EDGE_CURVE ( 'NONE', #185, #124, #191, .T. ) ;
#141 = DIRECTION ( 'NONE',  ( 0.000000000000000000, 0.000000000000000000, 1.000000000000000000 ) ) ;
#142 =( LENGTH_UNIT ( ) NAMED_UNIT ( * ) SI_UNIT ( .MILLI., .METRE. ) );
#143 = ADVANCED_FACE ( 'NONE', ( #214 ), #99, .F. ) ;
#144 = VERTEX_POINT ( 'NONE', #74 ) ;
#145 = ORIENTED_EDGE ( 'NONE', *, *, #175, .F. ) ;
#146 = ORIENTED_EDGE ( 'NONE', *, *, #178, .F. ) ;
#147 = AXIS2_PLACEMENT_3D ( 'NONE', #57, #133, #228 ) ;
#148 = DIRECTION ( 'NONE',  ( 0.000000000000000000, 0.000000000000000000, 1.000000000000000000 ) ) ;
#149 = CARTESIAN_POINT ( 'NONE',  ( 0.000000000000000000, 0.000000000000000000, 7.000000000000000000 ) ) ;
#150 = DIRECTION ( 'NONE',  ( 0.000000000000000000, 0.000000000000000000, 1.000000000000000000 ) ) ;
#151 = DIRECTION ( 'NONE',  ( 0.000000000000000000, 0.000000000000000000, 1.000000000000000000 ) ) ;
#152 = AXIS2_PLACEMENT_3D ( 'NONE', #161, #69, #240 ) ;
#153 = EDGE_CURVE ( 'NONE', #185, #144, #54, .T. ) ;
#154 = LOCAL_TIME ( 19, 12, 33.00000000000000000, #218 ) ;
#155 = APPROVAL_STATUS ( 'not_yet_approved' ) ;
#156 = CARTESIAN_POINT ( 'NONE',  ( -7.250000000000000000, 0.000000000000000000, 167.0000000000000000 ) ) ;
#157 = CALENDAR_DATE ( 2022, 7, 7 ) ;
#158 = EDGE_CURVE ( 'NONE', #5, #164, #163, .T. ) ;
#159 = DATE_AND_TIME ( #86, #165 ) ;
#160 = CIRCLE ( 'NONE', #180, 11.00000000000000000 ) ;
#161 = CARTESIAN_POINT ( 'NONE',  ( 0.000000000000000000, 0.000000000000000000, 167.0000000000000000 ) ) ;
#162 = AXIS2_PLACEMENT_3D ( 'NONE', #95, #78, #248 ) ;
#163 = CIRCLE ( 'NONE', #100, 7.250000000000000000 ) ;
#164 = VERTEX_POINT ( 'NONE', #53 ) ;
#165 = LOCAL_TIME ( 19, 12, 33.00000000000000000, #200 ) ;
#166 = ORIENTED_EDGE ( 'NONE', *, *, #153, .F. ) ;
#167 = LOCAL_TIME ( 19, 12, 33.00000000000000000, #137 ) ;
#168 = EDGE_CURVE ( 'NONE', #144, #92, #31, .T. ) ;
#169 = ORIENTED_EDGE ( 'NONE', *, *, #158, .T. ) ;
#170 = CIRCLE ( 'NONE', #106, 11.00000000000000000 ) ;
#171 = CYLINDRICAL_SURFACE ( 'NONE', #152, 7.250000000000000000 ) ;
#172 = CARTESIAN_POINT ( 'NONE',  ( -7.250000000000000000, 0.000000000000000000, 167.0000000000000000 ) ) ;
#173 = CARTESIAN_POINT ( 'NONE',  ( 11.00000000000000000, 1.347111479062088405E-15, 7.000000000000000000 ) ) ;
#174 = FACE_OUTER_BOUND ( 'NONE', #48, .T. ) ;
#175 = EDGE_CURVE ( 'NONE', #92, #124, #170, .T. ) ;
#176 = FACE_BOUND ( 'NONE', #8, .T. ) ;
#177 = DIRECTION ( 'NONE',  ( -0.000000000000000000, -0.000000000000000000, -1.000000000000000000 ) ) ;
#178 = EDGE_CURVE ( 'NONE', #30, #27, #21, .T. ) ;
#179 = DATE_AND_TIME ( #237, #167 ) ;
#180 = AXIS2_PLACEMENT_3D ( 'NONE', #52, #127, #113 ) ;
#181 = CARTESIAN_POINT ( 'NONE',  ( 0.000000000000000000, 0.000000000000000000, 167.0000000000000000 ) ) ;
#182 = ADVANCED_FACE ( 'NONE', ( #231 ), #116, .T. ) ;
#183 = DIRECTION ( 'NONE',  ( 0.000000000000000000, 0.000000000000000000, 1.000000000000000000 ) ) ;
#184 = EDGE_CURVE ( 'NONE', #124, #92, #160, .T. ) ;
#185 = VERTEX_POINT ( 'NONE', #62 ) ;
#186 = ORIENTED_EDGE ( 'NONE', *, *, #140, .F. ) ;
#187 = EDGE_CURVE ( 'NONE', #164, #5, #131, .T. ) ;
#188 = EDGE_LOOP ( 'NONE', ( #47, #166, #210, #246 ) ) ;
#189 = CARTESIAN_POINT ( 'NONE',  ( 7.250000000000000000, 8.878689293818310074E-16, 167.0000000000000000 ) ) ;
#190 = VECTOR ( 'NONE', #195, 1000.000000000000000 ) ;
#191 = LINE ( 'NONE', #56, #190 ) ;
#192 = DIRECTION ( 'NONE',  ( -1.000000000000000000, 0.000000000000000000, 0.000000000000000000 ) ) ;
#193 = DIRECTION ( 'NONE',  ( 1.000000000000000000, 0.000000000000000000, 0.000000000000000000 ) ) ;
#194 = AXIS2_PLACEMENT_3D ( 'NONE', #149, #150, #130 ) ;
#195 = DIRECTION ( 'NONE',  ( -0.000000000000000000, -0.000000000000000000, -1.000000000000000000 ) ) ;
#196 = CC_DESIGN_PERSON_AND_ORGANIZATION_ASSIGNMENT ( #121, #254, ( #243 ) ) ;
#197 = DATE_TIME_ROLE ( 'creation_date' ) ;
#198 = APPROVAL_ROLE ( '' ) ;
#199 = AXIS2_PLACEMENT_3D ( 'NONE', #250, #229, #94 ) ;
#200 = COORDINATED_UNIVERSAL_TIME_OFFSET ( 1, 0, .AHEAD. ) ;
#201 = CARTESIAN_POINT ( 'NONE',  ( 0.000000000000000000, 0.000000000000000000, 0.000000000000000000 ) ) ;
#202 =( NAMED_UNIT ( * ) PLANE_ANGLE_UNIT ( ) SI_UNIT ( $, .RADIAN. ) );
#203 = PERSON_AND_ORGANIZATION_ROLE ( 'creator' ) ;
#204 = LOCAL_TIME ( 19, 12, 33.00000000000000000, #83 ) ;
#205 = APPROVAL_PERSON_ORGANIZATION ( #1, #135, #87 ) ;
#206 = CYLINDRICAL_SURFACE ( 'NONE', #223, 11.00000000000000000 ) ;
#207 = ORIENTED_EDGE ( 'NONE', *, *, #178, .T. ) ;
#208 = EDGE_CURVE ( 'NONE', #27, #30, #45, .T. ) ;
#209 = ORIENTED_EDGE ( 'NONE', *, *, #175, .T. ) ;
#210 = ORIENTED_EDGE ( 'NONE', *, *, #140, .T. ) ;
#211 = LINE ( 'NONE', #189, #77 ) ;
#212 = CC_DESIGN_DATE_AND_TIME_ASSIGNMENT ( #179, #253, ( #243 ) ) ;
#213 = DIRECTION ( 'NONE',  ( 0.000000000000000000, 0.000000000000000000, 1.000000000000000000 ) ) ;
#214 = FACE_OUTER_BOUND ( 'NONE', #50, .T. ) ;
#215 = PLANE ( 'NONE',  #44 ) ;
#216 = EDGE_CURVE ( 'NONE', #27, #164, #81, .T. ) ;
#217 = APPROVAL_DATE_TIME ( #38, #101 ) ;
#218 = COORDINATED_UNIVERSAL_TIME_OFFSET ( 1, 0, .AHEAD. ) ;
#219 = PERSON_AND_ORGANIZATION_ROLE ( 'creator' ) ;
#220 = PERSON_AND_ORGANIZATION_ROLE ( 'design_owner' ) ;
#221 = DIRECTION ( 'NONE',  ( 1.000000000000000000, 0.000000000000000000, -0.000000000000000000 ) ) ;
#222 = DIRECTION ( 'NONE',  ( 1.000000000000000000, 0.000000000000000000, 0.000000000000000000 ) ) ;
#223 = AXIS2_PLACEMENT_3D ( 'NONE', #25, #111, #192 ) ;
#224 = ORIENTED_EDGE ( 'NONE', *, *, #118, .F. ) ;
#225 = ORIENTED_EDGE ( 'NONE', *, *, #153, .T. ) ;
#226 = ORIENTED_EDGE ( 'NONE', *, *, #118, .T. ) ;
#227 =( GEOMETRIC_REPRESENTATION_CONTEXT ( 3 ) GLOBAL_UNCERTAINTY_ASSIGNED_CONTEXT ( ( #49 ) ) GLOBAL_UNIT_ASSIGNED_CONTEXT ( ( #142, #202, #24 ) ) REPRESENTATION_CONTEXT ( 'NONE', 'WORKASPACE' ) );
#228 = DIRECTION ( 'NONE',  ( -1.000000000000000000, 0.000000000000000000, 0.000000000000000000 ) ) ;
#229 = DIRECTION ( 'NONE',  ( 0.000000000000000000, 0.000000000000000000, 1.000000000000000000 ) ) ;
#230 = DIRECTION ( 'NONE',  ( -0.000000000000000000, -0.000000000000000000, -1.000000000000000000 ) ) ;
#231 = FACE_OUTER_BOUND ( 'NONE', #241, .T. ) ;
#232 = CIRCLE ( 'NONE', #194, 11.00000000000000000 ) ;
#233 = PERSON_AND_ORGANIZATION ( #242, #109 ) ;
#234 = AXIS2_PLACEMENT_3D ( 'NONE', #201, #123, #222 ) ;
#235 = APPROVAL_STATUS ( 'not_yet_approved' ) ;
#236 = PLANE ( 'NONE',  #11 ) ;
#237 = CALENDAR_DATE ( 2022, 7, 7 ) ;
#238 = VECTOR ( 'NONE', #177, 1000.000000000000000 ) ;
#239 = CC_DESIGN_PERSON_AND_ORGANIZATION_ASSIGNMENT ( #233, #35, ( #136 ) ) ;
#240 = DIRECTION ( 'NONE',  ( -1.000000000000000000, 0.000000000000000000, 0.000000000000000000 ) ) ;
#241 = EDGE_LOOP ( 'NONE', ( #146, #226, #169, #91 ) ) ;
#242 = PERSON ( 'NEURÈENÝ', 'NEURÈENÝ', 'NEURÈENÝ', ('NEURÈENÝ'), ('NEURÈENÝ'), ('NEURÈENÝ') ) ;
#243 = SECURITY_CLASSIFICATION ( '', '', #103 ) ;
#244 = ORIENTED_EDGE ( 'NONE', *, *, #187, .T. ) ;
#245 = ORIENTED_EDGE ( 'NONE', *, *, #55, .F. ) ;
#246 = ORIENTED_EDGE ( 'NONE', *, *, #184, .T. ) ;
#247 = ADVANCED_FACE ( 'NONE', ( #107 ), #236, .T. ) ;
#248 = DIRECTION ( 'NONE',  ( 1.000000000000000000, 0.000000000000000000, -0.000000000000000000 ) ) ;
#249 = APPROVAL_PERSON_ORGANIZATION ( #18, #90, #85 ) ;
#250 = CARTESIAN_POINT ( 'NONE',  ( 0.000000000000000000, 0.000000000000000000, 7.000000000000000000 ) ) ;
#251 = CARTESIAN_POINT ( 'NONE',  ( 7.250000000000000000, 8.878689293818310074E-16, 167.0000000000000000 ) ) ;
#252 = DIRECTION ( 'NONE',  ( 1.000000000000000000, 0.000000000000000000, 0.000000000000000000 ) ) ;
#253 = DATE_TIME_ROLE ( 'classification_date' ) ;
#254 = PERSON_AND_ORGANIZATION_ROLE ( 'classification_officer' ) ;
#255 = AXIS2_PLACEMENT_3D ( 'NONE', #32, #148, #252 ) ;
ENDSEC;
END-ISO-10303-21;
