ISO-10303-21;
HEADER;
FILE_DESCRIPTION (( 'STEP AP203' ),
    '1' );
FILE_NAME ('5212.STEP',
    '2022-07-07T17:12:51',
    ( '' ),
    ( '' ),
    'SwSTEP 2.0',
    'SolidWorks 2019',
    '' );
FILE_SCHEMA (( 'CONFIG_CONTROL_DESIGN' ));
ENDSEC;

DATA;
#1 = EDGE_CURVE ( 'NONE', #173, #249, #216, .T. ) ;
#2 = CARTESIAN_POINT ( 'NONE',  ( 0.000000000000000000, 0.000000000000000000, 107.0000000000000142 ) ) ;
#3 = ADVANCED_FACE ( 'NONE', ( #206, #187 ), #207, .T. ) ;
#4 = DIRECTION ( 'NONE',  ( 1.000000000000000000, 0.000000000000000000, 0.000000000000000000 ) ) ;
#5 = DATE_AND_TIME ( #104, #128 ) ;
#6 = CALENDAR_DATE ( 2022, 7, 7 ) ;
#7 = CARTESIAN_POINT ( 'NONE',  ( 0.000000000000000000, 0.000000000000000000, 7.000000000000000000 ) ) ;
#8 = CC_DESIGN_PERSON_AND_ORGANIZATION_ASSIGNMENT ( #194, #25, ( #40 ) ) ;
#9 = DATE_TIME_ROLE ( 'creation_date' ) ;
#10 = COORDINATED_UNIVERSAL_TIME_OFFSET ( 1, 0, .AHEAD. ) ;
#11 = APPROVAL_DATE_TIME ( #64, #163 ) ;
#12 = LOCAL_TIME ( 19, 12, 51.00000000000000000, #223 ) ;
#13 = CC_DESIGN_PERSON_AND_ORGANIZATION_ASSIGNMENT ( #157, #107, ( #126 ) ) ;
#14 = CC_DESIGN_DATE_AND_TIME_ASSIGNMENT ( #247, #243, ( #200 ) ) ;
#15 = VECTOR ( 'NONE', #84, 1000.000000000000000 ) ;
#16 = VERTEX_POINT ( 'NONE', #175 ) ;
#17 = CARTESIAN_POINT ( 'NONE',  ( 0.000000000000000000, 0.000000000000000000, 7.000000000000000000 ) ) ;
#18 = DIRECTION ( 'NONE',  ( -0.000000000000000000, -0.000000000000000000, -1.000000000000000000 ) ) ;
#19 = ORIENTED_EDGE ( 'NONE', *, *, #238, .T. ) ;
#20 = DIRECTION ( 'NONE',  ( 1.000000000000000000, 0.000000000000000000, 0.000000000000000000 ) ) ;
#21 = LINE ( 'NONE', #134, #143 ) ;
#22 = APPLICATION_CONTEXT ( 'configuration controlled 3d designs of mechanical parts and assemblies' ) ;
#23 = DIRECTION ( 'NONE',  ( -1.000000000000000000, 0.000000000000000000, 0.000000000000000000 ) ) ;
#24 = PRODUCT_DEFINITION_SHAPE ( 'NONE', 'NONE',  #126 ) ;
#25 = PERSON_AND_ORGANIZATION_ROLE ( 'design_owner' ) ;
#26 = APPROVAL_DATE_TIME ( #5, #244 ) ;
#27 = APPROVAL_DATE_TIME ( #87, #93 ) ;
#28 = EDGE_CURVE ( 'NONE', #208, #96, #226, .T. ) ;
#29 =( NAMED_UNIT ( * ) PLANE_ANGLE_UNIT ( ) SI_UNIT ( $, .RADIAN. ) );
#30 = APPROVAL_STATUS ( 'not_yet_approved' ) ;
#31 = APPROVAL_STATUS ( 'not_yet_approved' ) ;
#32 = PERSON_AND_ORGANIZATION ( #102, #59 ) ;
#33 = PERSON_AND_ORGANIZATION ( #102, #59 ) ;
#34 = PRODUCT_DEFINITION_FORMATION_WITH_SPECIFIED_SOURCE ( 'LIBOVOLNÝ', '', #40, .NOT_KNOWN. ) ;
#35 = VECTOR ( 'NONE', #246, 1000.000000000000000 ) ;
#36 = CARTESIAN_POINT ( 'NONE',  ( 0.000000000000000000, 0.000000000000000000, 107.0000000000000142 ) ) ;
#37 = ORIENTED_EDGE ( 'NONE', *, *, #70, .F. ) ;
#38 = CARTESIAN_POINT ( 'NONE',  ( 0.000000000000000000, 0.000000000000000000, 107.0000000000000142 ) ) ;
#39 = DIRECTION ( 'NONE',  ( -0.000000000000000000, -0.000000000000000000, -1.000000000000000000 ) ) ;
#40 = PRODUCT ( '5212', '5212', '', ( #220 ) ) ;
#41 = DIRECTION ( 'NONE',  ( 0.000000000000000000, 0.000000000000000000, 1.000000000000000000 ) ) ;
#42 = AXIS2_PLACEMENT_3D ( 'NONE', #2, #80, #138 ) ;
#43 = DIRECTION ( 'NONE',  ( 0.000000000000000000, 0.000000000000000000, 1.000000000000000000 ) ) ;
#44 = DESIGN_CONTEXT ( 'detailed design', #110, 'design' ) ;
#45 = AXIS2_PLACEMENT_3D ( 'NONE', #177, #67, #218 ) ;
#46 = CARTESIAN_POINT ( 'NONE',  ( 7.250000000000000000, 8.878689293818310074E-16, 107.0000000000000142 ) ) ;
#47 = CALENDAR_DATE ( 2022, 7, 7 ) ;
#48 = SECURITY_CLASSIFICATION_LEVEL ( 'unclassified' ) ;
#49 = CC_DESIGN_PERSON_AND_ORGANIZATION_ASSIGNMENT ( #83, #66, ( #34 ) ) ;
#50 = EDGE_CURVE ( 'NONE', #16, #94, #130, .T. ) ;
#51 = ADVANCED_FACE ( 'NONE', ( #76 ), #232, .T. ) ;
#52 = CC_DESIGN_SECURITY_CLASSIFICATION ( #200, ( #34 ) ) ;
#53 = AXIS2_PLACEMENT_3D ( 'NONE', #195, #39, #23 ) ;
#54 = EDGE_LOOP ( 'NONE', ( #77, #133 ) ) ;
#55 = DIRECTION ( 'NONE',  ( 0.000000000000000000, 0.000000000000000000, 1.000000000000000000 ) ) ;
#56 = DIRECTION ( 'NONE',  ( 0.000000000000000000, 0.000000000000000000, 1.000000000000000000 ) ) ;
#57 = EDGE_LOOP ( 'NONE', ( #152, #75, #117, #204 ) ) ;
#58 = CARTESIAN_POINT ( 'NONE',  ( -7.250000000000000000, 0.000000000000000000, 7.000000000000000000 ) ) ;
#59 = ORGANIZATION ( 'NEURÈENÝ', 'NEURÈENÝ', '' ) ;
#60 = DIRECTION ( 'NONE',  ( 1.000000000000000000, 0.000000000000000000, 0.000000000000000000 ) ) ;
#61 = CARTESIAN_POINT ( 'NONE',  ( 0.000000000000000000, 0.000000000000000000, 107.0000000000000142 ) ) ;
#62 = CARTESIAN_POINT ( 'NONE',  ( -11.00000000000000000, 0.000000000000000000, 0.000000000000000000 ) ) ;
#63 =( NAMED_UNIT ( * ) SI_UNIT ( $, .STERADIAN. ) SOLID_ANGLE_UNIT ( ) );
#64 = DATE_AND_TIME ( #165, #203 ) ;
#65 = APPROVAL_PERSON_ORGANIZATION ( #33, #93, #219 ) ;
#66 = PERSON_AND_ORGANIZATION_ROLE ( 'creator' ) ;
#67 = DIRECTION ( 'NONE',  ( 0.000000000000000000, 0.000000000000000000, 1.000000000000000000 ) ) ;
#68 = DATE_AND_TIME ( #6, #115 ) ;
#69 = CC_DESIGN_APPROVAL ( #93, ( #34 ) ) ;
#70 = EDGE_CURVE ( 'NONE', #113, #98, #121, .T. ) ;
#71 = ADVANCED_FACE ( 'NONE', ( #140 ), #100, .T. ) ;
#72 = CC_DESIGN_PERSON_AND_ORGANIZATION_ASSIGNMENT ( #161, #85, ( #200 ) ) ;
#73 = ORIENTED_EDGE ( 'NONE', *, *, #28, .T. ) ;
#74 = ORIENTED_EDGE ( 'NONE', *, *, #127, .F. ) ;
#75 = ORIENTED_EDGE ( 'NONE', *, *, #238, .F. ) ;
#76 = FACE_OUTER_BOUND ( 'NONE', #250, .T. ) ;
#77 = ORIENTED_EDGE ( 'NONE', *, *, #1, .T. ) ;
#78 = DIRECTION ( 'NONE',  ( 0.000000000000000000, 0.000000000000000000, 1.000000000000000000 ) ) ;
#79 = ADVANCED_FACE ( 'NONE', ( #236 ), #103, .T. ) ;
#80 = DIRECTION ( 'NONE',  ( 0.000000000000000000, 0.000000000000000000, 1.000000000000000000 ) ) ;
#81 = CARTESIAN_POINT ( 'NONE',  ( 0.000000000000000000, 0.000000000000000000, 7.000000000000000000 ) ) ;
#82 = DIRECTION ( 'NONE',  ( 1.000000000000000000, 0.000000000000000000, 0.000000000000000000 ) ) ;
#83 = PERSON_AND_ORGANIZATION ( #102, #59 ) ;
#84 = DIRECTION ( 'NONE',  ( -0.000000000000000000, -0.000000000000000000, -1.000000000000000000 ) ) ;
#85 = PERSON_AND_ORGANIZATION_ROLE ( 'classification_officer' ) ;
#86 = CARTESIAN_POINT ( 'NONE',  ( 11.00000000000000000, 1.347111479062088405E-15, 7.000000000000000000 ) ) ;
#87 = DATE_AND_TIME ( #47, #12 ) ;
#88 = MANIFOLD_SOLID_BREP ( 'Pøidat vysunutím3', #167 ) ;
#89 = APPLICATION_PROTOCOL_DEFINITION ( 'international standard', 'config_control_design', 1994, #110 ) ;
#90 = AXIS2_PLACEMENT_3D ( 'NONE', #17, #55, #132 ) ;
#91 = AXIS2_PLACEMENT_3D ( 'NONE', #36, #151, #20 ) ;
#92 = AXIS2_PLACEMENT_3D ( 'NONE', #154, #78, #60 ) ;
#93 = APPROVAL ( #199, 'NEURÈENÝ' ) ;
#94 = VERTEX_POINT ( 'NONE', #58 ) ;
#95 = APPROVAL_PERSON_ORGANIZATION ( #197, #244, #108 ) ;
#96 = VERTEX_POINT ( 'NONE', #235 ) ;
#97 = CARTESIAN_POINT ( 'NONE',  ( 0.000000000000000000, 0.000000000000000000, 7.000000000000000000 ) ) ;
#98 = VERTEX_POINT ( 'NONE', #137 ) ;
#99 = LINE ( 'NONE', #174, #184 ) ;
#100 = CYLINDRICAL_SURFACE ( 'NONE', #182, 7.250000000000000000 ) ;
#101 = EDGE_CURVE ( 'NONE', #94, #16, #164, .T. ) ;
#102 = PERSON ( 'NEURÈENÝ', 'NEURÈENÝ', 'NEURÈENÝ', ('NEURÈENÝ'), ('NEURÈENÝ'), ('NEURÈENÝ') ) ;
#103 = PLANE ( 'NONE',  #42 ) ;
#104 = CALENDAR_DATE ( 2022, 7, 7 ) ;
#105 = EDGE_CURVE ( 'NONE', #98, #113, #159, .T. ) ;
#106 = COORDINATED_UNIVERSAL_TIME_OFFSET ( 1, 0, .AHEAD. ) ;
#107 = PERSON_AND_ORGANIZATION_ROLE ( 'creator' ) ;
#108 = APPROVAL_ROLE ( '' ) ;
#109 = APPROVAL_ROLE ( '' ) ;
#110 = APPLICATION_CONTEXT ( 'configuration controlled 3d designs of mechanical parts and assemblies' ) ;
#111 = AXIS2_PLACEMENT_3D ( 'NONE', #97, #18, #253 ) ;
#112 = ADVANCED_FACE ( 'NONE', ( #214 ), #122, .T. ) ;
#113 = VERTEX_POINT ( 'NONE', #62 ) ;
#114 = EDGE_LOOP ( 'NONE', ( #19, #73 ) ) ;
#115 = LOCAL_TIME ( 19, 12, 51.00000000000000000, #106 ) ;
#116 = ADVANCED_FACE ( 'NONE', ( #118 ), #188, .T. ) ;
#117 = ORIENTED_EDGE ( 'NONE', *, *, #127, .T. ) ;
#118 = FACE_OUTER_BOUND ( 'NONE', #131, .T. ) ;
#119 = DIRECTION ( 'NONE',  ( -0.000000000000000000, -0.000000000000000000, -1.000000000000000000 ) ) ;
#120 = CARTESIAN_POINT ( 'NONE',  ( -11.00000000000000000, 0.000000000000000000, 7.000000000000000000 ) ) ;
#121 = CIRCLE ( 'NONE', #201, 11.00000000000000000 ) ;
#122 = CYLINDRICAL_SURFACE ( 'NONE', #212, 11.00000000000000000 ) ;
#123 = DIRECTION ( 'NONE',  ( -0.000000000000000000, -0.000000000000000000, -1.000000000000000000 ) ) ;
#124 = APPLICATION_PROTOCOL_DEFINITION ( 'international standard', 'config_control_design', 1994, #22 ) ;
#125 = DIRECTION ( 'NONE',  ( 1.000000000000000000, 0.000000000000000000, 0.000000000000000000 ) ) ;
#126 = PRODUCT_DEFINITION ( 'NEZNÁMÝ', '', #34, #44 ) ;
#127 = EDGE_CURVE ( 'NONE', #96, #94, #21, .T. ) ;
#128 = LOCAL_TIME ( 19, 12, 51.00000000000000000, #10 ) ;
#129 = ORIENTED_EDGE ( 'NONE', *, *, #28, .F. ) ;
#130 = CIRCLE ( 'NONE', #233, 7.250000000000000000 ) ;
#131 = EDGE_LOOP ( 'NONE', ( #254, #228, #148, #227 ) ) ;
#132 = DIRECTION ( 'NONE',  ( 1.000000000000000000, 0.000000000000000000, 0.000000000000000000 ) ) ;
#133 = ORIENTED_EDGE ( 'NONE', *, *, #179, .T. ) ;
#134 = CARTESIAN_POINT ( 'NONE',  ( -7.250000000000000000, 0.000000000000000000, 107.0000000000000142 ) ) ;
#135 = EDGE_LOOP ( 'NONE', ( #149, #169 ) ) ;
#136 = CC_DESIGN_DATE_AND_TIME_ASSIGNMENT ( #68, #9, ( #126 ) ) ;
#137 = CARTESIAN_POINT ( 'NONE',  ( 11.00000000000000000, 1.347111479062088405E-15, 0.000000000000000000 ) ) ;
#138 = DIRECTION ( 'NONE',  ( 1.000000000000000000, 0.000000000000000000, -0.000000000000000000 ) ) ;
#139 = AXIS2_PLACEMENT_3D ( 'NONE', #153, #43, #190 ) ;
#140 = FACE_OUTER_BOUND ( 'NONE', #57, .T. ) ;
#141 = CARTESIAN_POINT ( 'NONE',  ( 7.250000000000000000, 8.878689293818310074E-16, 107.0000000000000142 ) ) ;
#142 = DIRECTION ( 'NONE',  ( 1.000000000000000000, 0.000000000000000000, 0.000000000000000000 ) ) ;
#143 = VECTOR ( 'NONE', #119, 1000.000000000000000 ) ;
#144 = LINE ( 'NONE', #141, #35 ) ;
#145 = LINE ( 'NONE', #86, #15 ) ;
#146 = PERSON_AND_ORGANIZATION_ROLE ( 'design_supplier' ) ;
#147 = APPROVAL_PERSON_ORGANIZATION ( #32, #163, #109 ) ;
#148 = ORIENTED_EDGE ( 'NONE', *, *, #105, .T. ) ;
#149 = ORIENTED_EDGE ( 'NONE', *, *, #101, .F. ) ;
#150 = AXIS2_PLACEMENT_3D ( 'NONE', #61, #241, #125 ) ;
#151 = DIRECTION ( 'NONE',  ( 0.000000000000000000, 0.000000000000000000, 1.000000000000000000 ) ) ;
#152 = ORIENTED_EDGE ( 'NONE', *, *, #193, .F. ) ;
#153 = CARTESIAN_POINT ( 'NONE',  ( 0.000000000000000000, 0.000000000000000000, 7.000000000000000000 ) ) ;
#154 = CARTESIAN_POINT ( 'NONE',  ( 0.000000000000000000, 0.000000000000000000, 7.000000000000000000 ) ) ;
#155 = CC_DESIGN_APPROVAL ( #244, ( #126 ) ) ;
#156 = DIRECTION ( 'NONE',  ( -0.000000000000000000, -0.000000000000000000, -1.000000000000000000 ) ) ;
#157 = PERSON_AND_ORGANIZATION ( #102, #59 ) ;
#158 = PERSON_AND_ORGANIZATION ( #102, #59 ) ;
#159 = CIRCLE ( 'NONE', #234, 11.00000000000000000 ) ;
#160 =( LENGTH_UNIT ( ) NAMED_UNIT ( * ) SI_UNIT ( .MILLI., .METRE. ) );
#161 = PERSON_AND_ORGANIZATION ( #102, #59 ) ;
#162 = CC_DESIGN_PERSON_AND_ORGANIZATION_ASSIGNMENT ( #158, #146, ( #34 ) ) ;
#163 = APPROVAL ( #30, 'NEURÈENÝ' ) ;
#164 = CIRCLE ( 'NONE', #92, 7.250000000000000000 ) ;
#165 = CALENDAR_DATE ( 2022, 7, 7 ) ;
#166 = EDGE_CURVE ( 'NONE', #173, #113, #99, .T. ) ;
#167 = CLOSED_SHELL ( 'NONE', ( #51, #116, #112, #3, #185, #71, #79 ) ) ;
#168 = LOCAL_TIME ( 19, 12, 51.00000000000000000, #224 ) ;
#169 = ORIENTED_EDGE ( 'NONE', *, *, #50, .F. ) ;
#170 = EDGE_LOOP ( 'NONE', ( #37, #186 ) ) ;
#171 = ORIENTED_EDGE ( 'NONE', *, *, #193, .T. ) ;
#172 = DIRECTION ( 'NONE',  ( 1.000000000000000000, 0.000000000000000000, 0.000000000000000000 ) ) ;
#173 = VERTEX_POINT ( 'NONE', #120 ) ;
#174 = CARTESIAN_POINT ( 'NONE',  ( -11.00000000000000000, 0.000000000000000000, 7.000000000000000000 ) ) ;
#175 = CARTESIAN_POINT ( 'NONE',  ( 7.250000000000000000, 8.878689293818310074E-16, 7.000000000000000000 ) ) ;
#176 = CARTESIAN_POINT ( 'NONE',  ( 0.000000000000000000, 0.000000000000000000, 0.000000000000000000 ) ) ;
#177 = CARTESIAN_POINT ( 'NONE',  ( 0.000000000000000000, 0.000000000000000000, 0.000000000000000000 ) ) ;
#178 = FACE_OUTER_BOUND ( 'NONE', #170, .T. ) ;
#179 = EDGE_CURVE ( 'NONE', #249, #173, #229, .T. ) ;
#180 = CARTESIAN_POINT ( 'NONE',  ( 0.000000000000000000, 0.000000000000000000, 0.000000000000000000 ) ) ;
#181 = CALENDAR_DATE ( 2022, 7, 7 ) ;
#182 = AXIS2_PLACEMENT_3D ( 'NONE', #38, #123, #240 ) ;
#183 = UNCERTAINTY_MEASURE_WITH_UNIT (LENGTH_MEASURE( 1.000000000000000082E-05 ), #160, 'distance_accuracy_value', 'NONE');
#184 = VECTOR ( 'NONE', #255, 1000.000000000000000 ) ;
#185 = ADVANCED_FACE ( 'NONE', ( #178 ), #237, .F. ) ;
#186 = ORIENTED_EDGE ( 'NONE', *, *, #105, .F. ) ;
#187 = FACE_OUTER_BOUND ( 'NONE', #54, .T. ) ;
#188 = CYLINDRICAL_SURFACE ( 'NONE', #111, 11.00000000000000000 ) ;
#189 = ORIENTED_EDGE ( 'NONE', *, *, #50, .T. ) ;
#190 = DIRECTION ( 'NONE',  ( 1.000000000000000000, 0.000000000000000000, -0.000000000000000000 ) ) ;
#191 = DIRECTION ( 'NONE',  ( -1.000000000000000000, 0.000000000000000000, 0.000000000000000000 ) ) ;
#192 = CARTESIAN_POINT ( 'NONE',  ( 0.000000000000000000, 0.000000000000000000, 0.000000000000000000 ) ) ;
#193 = EDGE_CURVE ( 'NONE', #208, #16, #144, .T. ) ;
#194 = PERSON_AND_ORGANIZATION ( #102, #59 ) ;
#195 = CARTESIAN_POINT ( 'NONE',  ( 0.000000000000000000, 0.000000000000000000, 107.0000000000000142 ) ) ;
#196 = SHAPE_DEFINITION_REPRESENTATION ( #24, #239 ) ;
#197 = PERSON_AND_ORGANIZATION ( #102, #59 ) ;
#198 = COORDINATED_UNIVERSAL_TIME_OFFSET ( 1, 0, .AHEAD. ) ;
#199 = APPROVAL_STATUS ( 'not_yet_approved' ) ;
#200 = SECURITY_CLASSIFICATION ( '', '', #48 ) ;
#201 = AXIS2_PLACEMENT_3D ( 'NONE', #192, #56, #211 ) ;
#202 =( GEOMETRIC_REPRESENTATION_CONTEXT ( 3 ) GLOBAL_UNCERTAINTY_ASSIGNED_CONTEXT ( ( #183 ) ) GLOBAL_UNIT_ASSIGNED_CONTEXT ( ( #160, #29, #63 ) ) REPRESENTATION_CONTEXT ( 'NONE', 'WORKASPACE' ) );
#203 = LOCAL_TIME ( 19, 12, 51.00000000000000000, #198 ) ;
#204 = ORIENTED_EDGE ( 'NONE', *, *, #101, .T. ) ;
#205 = ORIENTED_EDGE ( 'NONE', *, *, #70, .T. ) ;
#206 = FACE_BOUND ( 'NONE', #135, .T. ) ;
#207 = PLANE ( 'NONE',  #139 ) ;
#208 = VERTEX_POINT ( 'NONE', #46 ) ;
#209 = DIRECTION ( 'NONE',  ( 0.000000000000000000, 0.000000000000000000, 1.000000000000000000 ) ) ;
#210 = EDGE_LOOP ( 'NONE', ( #252, #231, #225, #205 ) ) ;
#211 = DIRECTION ( 'NONE',  ( 1.000000000000000000, 0.000000000000000000, 0.000000000000000000 ) ) ;
#212 = AXIS2_PLACEMENT_3D ( 'NONE', #81, #156, #191 ) ;
#213 = EDGE_CURVE ( 'NONE', #249, #98, #145, .T. ) ;
#214 = FACE_OUTER_BOUND ( 'NONE', #210, .T. ) ;
#215 = DIRECTION ( 'NONE',  ( 0.000000000000000000, 0.000000000000000000, 1.000000000000000000 ) ) ;
#216 = CIRCLE ( 'NONE', #90, 11.00000000000000000 ) ;
#217 = CARTESIAN_POINT ( 'NONE',  ( 0.000000000000000000, 0.000000000000000000, 7.000000000000000000 ) ) ;
#218 = DIRECTION ( 'NONE',  ( 1.000000000000000000, 0.000000000000000000, -0.000000000000000000 ) ) ;
#219 = APPROVAL_ROLE ( '' ) ;
#220 = MECHANICAL_CONTEXT ( 'NONE', #22, 'mechanical' ) ;
#221 = AXIS2_PLACEMENT_3D ( 'NONE', #7, #215, #142 ) ;
#222 = DIRECTION ( 'NONE',  ( 0.000000000000000000, 0.000000000000000000, 1.000000000000000000 ) ) ;
#223 = COORDINATED_UNIVERSAL_TIME_OFFSET ( 1, 0, .AHEAD. ) ;
#224 = COORDINATED_UNIVERSAL_TIME_OFFSET ( 1, 0, .AHEAD. ) ;
#225 = ORIENTED_EDGE ( 'NONE', *, *, #166, .T. ) ;
#226 = CIRCLE ( 'NONE', #91, 7.250000000000000000 ) ;
#227 = ORIENTED_EDGE ( 'NONE', *, *, #166, .F. ) ;
#228 = ORIENTED_EDGE ( 'NONE', *, *, #213, .T. ) ;
#229 = CIRCLE ( 'NONE', #221, 11.00000000000000000 ) ;
#230 = CC_DESIGN_APPROVAL ( #163, ( #200 ) ) ;
#231 = ORIENTED_EDGE ( 'NONE', *, *, #1, .F. ) ;
#232 = CYLINDRICAL_SURFACE ( 'NONE', #53, 7.250000000000000000 ) ;
#233 = AXIS2_PLACEMENT_3D ( 'NONE', #217, #41, #172 ) ;
#234 = AXIS2_PLACEMENT_3D ( 'NONE', #176, #209, #4 ) ;
#235 = CARTESIAN_POINT ( 'NONE',  ( -7.250000000000000000, 0.000000000000000000, 107.0000000000000142 ) ) ;
#236 = FACE_OUTER_BOUND ( 'NONE', #114, .T. ) ;
#237 = PLANE ( 'NONE',  #45 ) ;
#238 = EDGE_CURVE ( 'NONE', #96, #208, #248, .T. ) ;
#239 = ADVANCED_BREP_SHAPE_REPRESENTATION ( '5212', ( #88, #245 ), #202 ) ;
#240 = DIRECTION ( 'NONE',  ( -1.000000000000000000, 0.000000000000000000, 0.000000000000000000 ) ) ;
#241 = DIRECTION ( 'NONE',  ( 0.000000000000000000, 0.000000000000000000, 1.000000000000000000 ) ) ;
#242 = CARTESIAN_POINT ( 'NONE',  ( 11.00000000000000000, 1.347111479062088405E-15, 7.000000000000000000 ) ) ;
#243 = DATE_TIME_ROLE ( 'classification_date' ) ;
#244 = APPROVAL ( #31, 'NEURÈENÝ' ) ;
#245 = AXIS2_PLACEMENT_3D ( 'NONE', #180, #222, #82 ) ;
#246 = DIRECTION ( 'NONE',  ( -0.000000000000000000, -0.000000000000000000, -1.000000000000000000 ) ) ;
#247 = DATE_AND_TIME ( #181, #168 ) ;
#248 = CIRCLE ( 'NONE', #150, 7.250000000000000000 ) ;
#249 = VERTEX_POINT ( 'NONE', #242 ) ;
#250 = EDGE_LOOP ( 'NONE', ( #129, #171, #189, #74 ) ) ;
#251 = PRODUCT_RELATED_PRODUCT_CATEGORY ( 'detail', '', ( #40 ) ) ;
#252 = ORIENTED_EDGE ( 'NONE', *, *, #213, .F. ) ;
#253 = DIRECTION ( 'NONE',  ( -1.000000000000000000, 0.000000000000000000, 0.000000000000000000 ) ) ;
#254 = ORIENTED_EDGE ( 'NONE', *, *, #179, .F. ) ;
#255 = DIRECTION ( 'NONE',  ( -0.000000000000000000, -0.000000000000000000, -1.000000000000000000 ) ) ;
ENDSEC;
END-ISO-10303-21;
